ISO-10303-21;
HEADER;
FILE_DESCRIPTION((''),'2;1');
FILE_NAME('D-NJ2FD-V','2009-08-03T',('odo'),(''),
'PRO/ENGINEER BY PARAMETRIC TECHNOLOGY CORPORATION, 2007460',
'PRO/ENGINEER BY PARAMETRIC TECHNOLOGY CORPORATION, 2007460','');
FILE_SCHEMA(('CONFIG_CONTROL_DESIGN'));
ENDSEC;
DATA;
#1=CARTESIAN_POINT('',(0.E0,0.E0,0.E0));
#2=DIRECTION('',(0.E0,-1.E0,0.E0));
#3=DIRECTION('',(1.E0,0.E0,0.E0));
#4=AXIS2_PLACEMENT_3D('',#1,#2,#3);
#6=CARTESIAN_POINT('',(0.E0,0.E0,0.E0));
#7=DIRECTION('',(0.E0,-1.E0,0.E0));
#8=DIRECTION('',(-1.E0,0.E0,0.E0));
#9=AXIS2_PLACEMENT_3D('',#6,#7,#8);
#11=DIRECTION('',(1.E0,0.E0,0.E0));
#12=VECTOR('',#11,1.28E1);
#13=CARTESIAN_POINT('',(-6.4E0,0.E0,7.55E0));
#14=LINE('',#13,#12);
#15=DIRECTION('',(0.E0,0.E0,-1.E0));
#16=VECTOR('',#15,1.51E1);
#17=CARTESIAN_POINT('',(6.4E0,0.E0,7.55E0));
#18=LINE('',#17,#16);
#19=DIRECTION('',(-1.E0,0.E0,0.E0));
#20=VECTOR('',#19,1.28E1);
#21=CARTESIAN_POINT('',(6.4E0,0.E0,-7.55E0));
#22=LINE('',#21,#20);
#23=DIRECTION('',(0.E0,0.E0,1.E0));
#24=VECTOR('',#23,1.51E1);
#25=CARTESIAN_POINT('',(-6.4E0,0.E0,-7.55E0));
#26=LINE('',#25,#24);
#27=CARTESIAN_POINT('',(-3.81E0,0.E0,3.81E0));
#28=DIRECTION('',(0.E0,1.E0,0.E0));
#29=DIRECTION('',(1.E0,0.E0,0.E0));
#30=AXIS2_PLACEMENT_3D('',#27,#28,#29);
#32=CARTESIAN_POINT('',(-3.81E0,0.E0,3.81E0));
#33=DIRECTION('',(0.E0,1.E0,0.E0));
#34=DIRECTION('',(-1.E0,0.E0,0.E0));
#35=AXIS2_PLACEMENT_3D('',#32,#33,#34);
#37=CARTESIAN_POINT('',(3.18E0,0.E0,-6.35E0));
#38=DIRECTION('',(0.E0,1.E0,0.E0));
#39=DIRECTION('',(1.E0,0.E0,0.E0));
#40=AXIS2_PLACEMENT_3D('',#37,#38,#39);
#42=CARTESIAN_POINT('',(3.18E0,0.E0,-6.35E0));
#43=DIRECTION('',(0.E0,1.E0,0.E0));
#44=DIRECTION('',(-1.E0,0.E0,0.E0));
#45=AXIS2_PLACEMENT_3D('',#42,#43,#44);
#47=CARTESIAN_POINT('',(5.08E0,0.E0,0.E0));
#48=DIRECTION('',(0.E0,1.E0,0.E0));
#49=DIRECTION('',(1.E0,0.E0,0.E0));
#50=AXIS2_PLACEMENT_3D('',#47,#48,#49);
#52=CARTESIAN_POINT('',(5.08E0,0.E0,0.E0));
#53=DIRECTION('',(0.E0,1.E0,0.E0));
#54=DIRECTION('',(-1.E0,0.E0,0.E0));
#55=AXIS2_PLACEMENT_3D('',#52,#53,#54);
#57=CARTESIAN_POINT('',(0.E0,0.E0,5.72E0));
#58=DIRECTION('',(0.E0,1.E0,0.E0));
#59=DIRECTION('',(1.E0,0.E0,0.E0));
#60=AXIS2_PLACEMENT_3D('',#57,#58,#59);
#62=CARTESIAN_POINT('',(0.E0,0.E0,5.72E0));
#63=DIRECTION('',(0.E0,1.E0,0.E0));
#64=DIRECTION('',(-1.E0,0.E0,0.E0));
#65=AXIS2_PLACEMENT_3D('',#62,#63,#64);
#67=CARTESIAN_POINT('',(0.E0,2.19E1,0.E0));
#68=DIRECTION('',(0.E0,1.E0,0.E0));
#69=DIRECTION('',(-1.E0,0.E0,0.E0));
#70=AXIS2_PLACEMENT_3D('',#67,#68,#69);
#72=DIRECTION('',(0.E0,1.E0,0.E0));
#73=VECTOR('',#72,2.19E1);
#74=CARTESIAN_POINT('',(3.25E0,0.E0,0.E0));
#75=LINE('',#74,#73);
#76=CARTESIAN_POINT('',(0.E0,2.19E1,0.E0));
#77=DIRECTION('',(0.E0,1.E0,0.E0));
#78=DIRECTION('',(1.E0,0.E0,0.E0));
#79=AXIS2_PLACEMENT_3D('',#76,#77,#78);
#81=CARTESIAN_POINT('',(0.E0,2.19E1,0.E0));
#82=DIRECTION('',(0.E0,1.E0,0.E0));
#83=DIRECTION('',(-1.E0,0.E0,0.E0));
#84=AXIS2_PLACEMENT_3D('',#81,#82,#83);
#86=DIRECTION('',(0.E0,-1.E0,0.E0));
#87=VECTOR('',#86,5.6E0);
#88=CARTESIAN_POINT('',(-4.35E0,2.75E1,0.E0));
#89=LINE('',#88,#87);
#90=DIRECTION('',(0.E0,1.E0,0.E0));
#91=VECTOR('',#90,5.6E0);
#92=CARTESIAN_POINT('',(4.35E0,2.19E1,0.E0));
#93=LINE('',#92,#91);
#94=CARTESIAN_POINT('',(0.E0,2.75E1,0.E0));
#95=DIRECTION('',(0.E0,-1.E0,0.E0));
#96=DIRECTION('',(1.E0,0.E0,0.E0));
#97=AXIS2_PLACEMENT_3D('',#94,#95,#96);
#99=CARTESIAN_POINT('',(0.E0,2.75E1,0.E0));
#100=DIRECTION('',(0.E0,-1.E0,0.E0));
#101=DIRECTION('',(-1.E0,0.E0,0.E0));
#102=AXIS2_PLACEMENT_3D('',#99,#100,#101);
#104=CARTESIAN_POINT('',(0.E0,2.75E1,0.E0));
#105=DIRECTION('',(0.E0,1.E0,0.E0));
#106=DIRECTION('',(1.E0,0.E0,0.E0));
#107=AXIS2_PLACEMENT_3D('',#104,#105,#106);
#109=CARTESIAN_POINT('',(0.E0,2.75E1,0.E0));
#110=DIRECTION('',(0.E0,1.E0,0.E0));
#111=DIRECTION('',(-1.E0,0.E0,0.E0));
#112=AXIS2_PLACEMENT_3D('',#109,#110,#111);
#114=DIRECTION('',(0.E0,1.E0,0.E0));
#115=VECTOR('',#114,3.5E0);
#116=CARTESIAN_POINT('',(5.9E0,2.4E1,0.E0));
#117=LINE('',#116,#115);
#118=DIRECTION('',(1.E0,0.E0,0.E0));
#119=VECTOR('',#118,1.28E1);
#120=CARTESIAN_POINT('',(-6.4E0,2.4E1,7.55E0));
#121=LINE('',#120,#119);
#122=DIRECTION('',(0.E0,0.E0,1.E0));
#123=VECTOR('',#122,1.51E1);
#124=CARTESIAN_POINT('',(-6.4E0,2.4E1,-7.55E0));
#125=LINE('',#124,#123);
#126=DIRECTION('',(-1.E0,0.E0,0.E0));
#127=VECTOR('',#126,1.28E1);
#128=CARTESIAN_POINT('',(6.4E0,2.4E1,-7.55E0));
#129=LINE('',#128,#127);
#130=DIRECTION('',(0.E0,0.E0,-1.E0));
#131=VECTOR('',#130,1.51E1);
#132=CARTESIAN_POINT('',(6.4E0,2.4E1,7.55E0));
#133=LINE('',#132,#131);
#134=CARTESIAN_POINT('',(0.E0,2.4E1,0.E0));
#135=DIRECTION('',(0.E0,1.E0,0.E0));
#136=DIRECTION('',(1.E0,0.E0,0.E0));
#137=AXIS2_PLACEMENT_3D('',#134,#135,#136);
#139=CARTESIAN_POINT('',(0.E0,2.4E1,0.E0));
#140=DIRECTION('',(0.E0,1.E0,0.E0));
#141=DIRECTION('',(-1.E0,0.E0,0.E0));
#142=AXIS2_PLACEMENT_3D('',#139,#140,#141);
#144=DIRECTION('',(0.E0,1.E0,0.E0));
#145=VECTOR('',#144,2.4E1);
#146=CARTESIAN_POINT('',(-6.4E0,0.E0,7.55E0));
#147=LINE('',#146,#145);
#148=DIRECTION('',(0.E0,1.E0,0.E0));
#149=VECTOR('',#148,2.4E1);
#150=CARTESIAN_POINT('',(-6.4E0,0.E0,-7.55E0));
#151=LINE('',#150,#149);
#152=DIRECTION('',(0.E0,1.E0,0.E0));
#153=VECTOR('',#152,2.4E1);
#154=CARTESIAN_POINT('',(6.4E0,0.E0,-7.55E0));
#155=LINE('',#154,#153);
#156=DIRECTION('',(0.E0,1.E0,0.E0));
#157=VECTOR('',#156,2.4E1);
#158=CARTESIAN_POINT('',(6.4E0,0.E0,7.55E0));
#159=LINE('',#158,#157);
#160=DIRECTION('',(0.E0,1.E0,0.E0));
#161=VECTOR('',#160,3.5E0);
#162=CARTESIAN_POINT('',(-5.9E0,2.4E1,0.E0));
#163=LINE('',#162,#161);
#164=CARTESIAN_POINT('',(0.E0,2.19E1,0.E0));
#165=DIRECTION('',(0.E0,1.E0,0.E0));
#166=DIRECTION('',(1.E0,0.E0,0.E0));
#167=AXIS2_PLACEMENT_3D('',#164,#165,#166);
#169=DIRECTION('',(0.E0,1.E0,0.E0));
#170=VECTOR('',#169,2.19E1);
#171=CARTESIAN_POINT('',(-3.25E0,0.E0,0.E0));
#172=LINE('',#171,#170);
#173=DIRECTION('',(0.E0,-1.E0,0.E0));
#174=VECTOR('',#173,1.3E0);
#175=CARTESIAN_POINT('',(-2.76E0,0.E0,3.81E0));
#176=LINE('',#175,#174);
#177=DIRECTION('',(0.E0,-1.E0,0.E0));
#178=VECTOR('',#177,1.3E0);
#179=CARTESIAN_POINT('',(-4.86E0,0.E0,3.81E0));
#180=LINE('',#179,#178);
#181=CARTESIAN_POINT('',(-3.81E0,-1.3E0,3.81E0));
#182=DIRECTION('',(0.E0,1.E0,0.E0));
#183=DIRECTION('',(1.E0,0.E0,0.E0));
#184=AXIS2_PLACEMENT_3D('',#181,#182,#183);
#186=CARTESIAN_POINT('',(-3.81E0,-1.3E0,3.81E0));
#187=DIRECTION('',(0.E0,1.E0,0.E0));
#188=DIRECTION('',(-1.E0,0.E0,0.E0));
#189=AXIS2_PLACEMENT_3D('',#186,#187,#188);
#191=CARTESIAN_POINT('',(3.18E0,-1.3E0,-6.35E0));
#192=DIRECTION('',(0.E0,1.E0,0.E0));
#193=DIRECTION('',(1.E0,0.E0,0.E0));
#194=AXIS2_PLACEMENT_3D('',#191,#192,#193);
#196=CARTESIAN_POINT('',(3.18E0,-1.3E0,-6.35E0));
#197=DIRECTION('',(0.E0,1.E0,0.E0));
#198=DIRECTION('',(-1.E0,0.E0,0.E0));
#199=AXIS2_PLACEMENT_3D('',#196,#197,#198);
#201=DIRECTION('',(0.E0,-1.E0,0.E0));
#202=VECTOR('',#201,1.3E0);
#203=CARTESIAN_POINT('',(3.98E0,0.E0,-6.35E0));
#204=LINE('',#203,#202);
#205=DIRECTION('',(0.E0,-1.E0,0.E0));
#206=VECTOR('',#205,1.3E0);
#207=CARTESIAN_POINT('',(2.38E0,0.E0,-6.35E0));
#208=LINE('',#207,#206);
#209=DIRECTION('',(0.E0,-1.E0,0.E0));
#210=VECTOR('',#209,4.E0);
#211=CARTESIAN_POINT('',(5.88E0,0.E0,0.E0));
#212=LINE('',#211,#210);
#213=DIRECTION('',(0.E0,-1.E0,0.E0));
#214=VECTOR('',#213,4.E0);
#215=CARTESIAN_POINT('',(4.28E0,0.E0,0.E0));
#216=LINE('',#215,#214);
#217=CARTESIAN_POINT('',(5.08E0,-4.E0,0.E0));
#218=DIRECTION('',(0.E0,1.E0,0.E0));
#219=DIRECTION('',(1.E0,0.E0,0.E0));
#220=AXIS2_PLACEMENT_3D('',#217,#218,#219);
#222=CARTESIAN_POINT('',(5.08E0,-4.E0,0.E0));
#223=DIRECTION('',(0.E0,1.E0,0.E0));
#224=DIRECTION('',(-1.E0,0.E0,0.E0));
#225=AXIS2_PLACEMENT_3D('',#222,#223,#224);
#227=CARTESIAN_POINT('',(0.E0,-4.E0,5.72E0));
#228=DIRECTION('',(0.E0,1.E0,0.E0));
#229=DIRECTION('',(1.E0,0.E0,0.E0));
#230=AXIS2_PLACEMENT_3D('',#227,#228,#229);
#232=CARTESIAN_POINT('',(0.E0,-4.E0,5.72E0));
#233=DIRECTION('',(0.E0,1.E0,0.E0));
#234=DIRECTION('',(-1.E0,0.E0,0.E0));
#235=AXIS2_PLACEMENT_3D('',#232,#233,#234);
#237=DIRECTION('',(0.E0,-1.E0,0.E0));
#238=VECTOR('',#237,4.E0);
#239=CARTESIAN_POINT('',(6.E-1,0.E0,5.72E0));
#240=LINE('',#239,#238);
#241=DIRECTION('',(0.E0,-1.E0,0.E0));
#242=VECTOR('',#241,4.E0);
#243=CARTESIAN_POINT('',(-6.E-1,0.E0,5.72E0));
#244=LINE('',#243,#242);
#245=CARTESIAN_POINT('',(-6.4E0,0.E0,7.55E0));
#246=CARTESIAN_POINT('',(6.4E0,0.E0,7.55E0));
#247=VERTEX_POINT('',#245);
#248=VERTEX_POINT('',#246);
#249=CARTESIAN_POINT('',(6.4E0,0.E0,-7.55E0));
#250=VERTEX_POINT('',#249);
#251=CARTESIAN_POINT('',(-6.4E0,0.E0,-7.55E0));
#252=VERTEX_POINT('',#251);
#253=CARTESIAN_POINT('',(-6.4E0,2.4E1,7.55E0));
#254=CARTESIAN_POINT('',(6.4E0,2.4E1,7.55E0));
#255=VERTEX_POINT('',#253);
#256=VERTEX_POINT('',#254);
#257=CARTESIAN_POINT('',(6.4E0,2.4E1,-7.55E0));
#258=VERTEX_POINT('',#257);
#259=CARTESIAN_POINT('',(-6.4E0,2.4E1,-7.55E0));
#260=VERTEX_POINT('',#259);
#261=CARTESIAN_POINT('',(4.35E0,2.75E1,0.E0));
#262=CARTESIAN_POINT('',(-4.35E0,2.75E1,0.E0));
#263=VERTEX_POINT('',#261);
#264=VERTEX_POINT('',#262);
#265=CARTESIAN_POINT('',(5.9E0,2.75E1,0.E0));
#266=CARTESIAN_POINT('',(-5.9E0,2.75E1,0.E0));
#267=VERTEX_POINT('',#265);
#268=VERTEX_POINT('',#266);
#269=CARTESIAN_POINT('',(5.9E0,2.4E1,0.E0));
#270=CARTESIAN_POINT('',(-5.9E0,2.4E1,0.E0));
#271=VERTEX_POINT('',#269);
#272=VERTEX_POINT('',#270);
#273=CARTESIAN_POINT('',(3.25E0,0.E0,0.E0));
#274=CARTESIAN_POINT('',(-3.25E0,0.E0,0.E0));
#275=VERTEX_POINT('',#273);
#276=VERTEX_POINT('',#274);
#277=CARTESIAN_POINT('',(4.35E0,2.19E1,0.E0));
#278=CARTESIAN_POINT('',(-4.35E0,2.19E1,0.E0));
#279=VERTEX_POINT('',#277);
#280=VERTEX_POINT('',#278);
#281=CARTESIAN_POINT('',(-3.25E0,2.19E1,0.E0));
#282=CARTESIAN_POINT('',(3.25E0,2.19E1,0.E0));
#283=VERTEX_POINT('',#281);
#284=VERTEX_POINT('',#282);
#285=CARTESIAN_POINT('',(-2.76E0,-1.3E0,3.81E0));
#286=CARTESIAN_POINT('',(-4.86E0,-1.3E0,3.81E0));
#287=VERTEX_POINT('',#285);
#288=VERTEX_POINT('',#286);
#289=CARTESIAN_POINT('',(3.98E0,-1.3E0,-6.35E0));
#290=CARTESIAN_POINT('',(2.38E0,-1.3E0,-6.35E0));
#291=VERTEX_POINT('',#289);
#292=VERTEX_POINT('',#290);
#293=CARTESIAN_POINT('',(-2.76E0,0.E0,3.81E0));
#294=CARTESIAN_POINT('',(-4.86E0,0.E0,3.81E0));
#295=VERTEX_POINT('',#293);
#296=VERTEX_POINT('',#294);
#297=CARTESIAN_POINT('',(3.98E0,0.E0,-6.35E0));
#298=CARTESIAN_POINT('',(2.38E0,0.E0,-6.35E0));
#299=VERTEX_POINT('',#297);
#300=VERTEX_POINT('',#298);
#301=CARTESIAN_POINT('',(5.88E0,-4.E0,0.E0));
#302=CARTESIAN_POINT('',(4.28E0,-4.E0,0.E0));
#303=VERTEX_POINT('',#301);
#304=VERTEX_POINT('',#302);
#305=CARTESIAN_POINT('',(6.E-1,-4.E0,5.72E0));
#306=CARTESIAN_POINT('',(-6.E-1,-4.E0,5.72E0));
#307=VERTEX_POINT('',#305);
#308=VERTEX_POINT('',#306);
#309=CARTESIAN_POINT('',(5.88E0,0.E0,0.E0));
#310=CARTESIAN_POINT('',(4.28E0,0.E0,0.E0));
#311=VERTEX_POINT('',#309);
#312=VERTEX_POINT('',#310);
#313=CARTESIAN_POINT('',(6.E-1,0.E0,5.72E0));
#314=CARTESIAN_POINT('',(-6.E-1,0.E0,5.72E0));
#315=VERTEX_POINT('',#313);
#316=VERTEX_POINT('',#314);
#317=CARTESIAN_POINT('',(0.E0,0.E0,0.E0));
#318=DIRECTION('',(0.E0,1.E0,0.E0));
#319=DIRECTION('',(1.E0,0.E0,0.E0));
#320=AXIS2_PLACEMENT_3D('',#317,#318,#319);
#321=PLANE('',#320);
#323=ORIENTED_EDGE('',*,*,#322,.T.);
#325=ORIENTED_EDGE('',*,*,#324,.T.);
#327=ORIENTED_EDGE('',*,*,#326,.T.);
#329=ORIENTED_EDGE('',*,*,#328,.T.);
#330=EDGE_LOOP('',(#323,#325,#327,#329));
#331=FACE_OUTER_BOUND('',#330,.F.);
#333=ORIENTED_EDGE('',*,*,#332,.T.);
#335=ORIENTED_EDGE('',*,*,#334,.T.);
#336=EDGE_LOOP('',(#333,#335));
#337=FACE_BOUND('',#336,.F.);
#339=ORIENTED_EDGE('',*,*,#338,.F.);
#341=ORIENTED_EDGE('',*,*,#340,.F.);
#342=EDGE_LOOP('',(#339,#341));
#343=FACE_BOUND('',#342,.F.);
#345=ORIENTED_EDGE('',*,*,#344,.F.);
#347=ORIENTED_EDGE('',*,*,#346,.F.);
#348=EDGE_LOOP('',(#345,#347));
#349=FACE_BOUND('',#348,.F.);
#351=ORIENTED_EDGE('',*,*,#350,.F.);
#353=ORIENTED_EDGE('',*,*,#352,.F.);
#354=EDGE_LOOP('',(#351,#353));
#355=FACE_BOUND('',#354,.F.);
#357=ORIENTED_EDGE('',*,*,#356,.F.);
#359=ORIENTED_EDGE('',*,*,#358,.F.);
#360=EDGE_LOOP('',(#357,#359));
#361=FACE_BOUND('',#360,.F.);
#362=ADVANCED_FACE('',(#331,#337,#343,#349,#355,#361),#321,.F.);
#363=CARTESIAN_POINT('',(0.E0,0.E0,0.E0));
#364=DIRECTION('',(0.E0,1.E0,0.E0));
#365=DIRECTION('',(1.E0,0.E0,0.E0));
#366=AXIS2_PLACEMENT_3D('',#363,#364,#365);
#367=CYLINDRICAL_SURFACE('',#366,3.25E0);
#369=ORIENTED_EDGE('',*,*,#368,.F.);
#371=ORIENTED_EDGE('',*,*,#370,.F.);
#372=ORIENTED_EDGE('',*,*,#332,.F.);
#374=ORIENTED_EDGE('',*,*,#373,.T.);
#375=EDGE_LOOP('',(#369,#371,#372,#374));
#376=FACE_OUTER_BOUND('',#375,.F.);
#377=ADVANCED_FACE('',(#376),#367,.F.);
#378=CARTESIAN_POINT('',(0.E0,2.19E1,0.E0));
#379=DIRECTION('',(0.E0,1.E0,0.E0));
#380=DIRECTION('',(1.E0,0.E0,0.E0));
#381=AXIS2_PLACEMENT_3D('',#378,#379,#380);
#382=PLANE('',#381);
#384=ORIENTED_EDGE('',*,*,#383,.F.);
#386=ORIENTED_EDGE('',*,*,#385,.F.);
#387=EDGE_LOOP('',(#384,#386));
#388=FACE_OUTER_BOUND('',#387,.F.);
#389=ORIENTED_EDGE('',*,*,#368,.T.);
#391=ORIENTED_EDGE('',*,*,#390,.T.);
#392=EDGE_LOOP('',(#389,#391));
#393=FACE_BOUND('',#392,.F.);
#394=ADVANCED_FACE('',(#388,#393),#382,.T.);
#395=CARTESIAN_POINT('',(0.E0,2.4E1,0.E0));
#396=DIRECTION('',(0.E0,1.E0,0.E0));
#397=DIRECTION('',(1.E0,0.E0,0.E0));
#398=AXIS2_PLACEMENT_3D('',#395,#396,#397);
#399=CYLINDRICAL_SURFACE('',#398,4.35E0);
#401=ORIENTED_EDGE('',*,*,#400,.F.);
#402=ORIENTED_EDGE('',*,*,#383,.T.);
#404=ORIENTED_EDGE('',*,*,#403,.F.);
#406=ORIENTED_EDGE('',*,*,#405,.T.);
#407=EDGE_LOOP('',(#401,#402,#404,#406));
#408=FACE_OUTER_BOUND('',#407,.F.);
#409=ADVANCED_FACE('',(#408),#399,.F.);
#410=CARTESIAN_POINT('',(0.E0,2.4E1,0.E0));
#411=DIRECTION('',(0.E0,1.E0,0.E0));
#412=DIRECTION('',(1.E0,0.E0,0.E0));
#413=AXIS2_PLACEMENT_3D('',#410,#411,#412);
#414=CYLINDRICAL_SURFACE('',#413,4.35E0);
#415=ORIENTED_EDGE('',*,*,#403,.T.);
#416=ORIENTED_EDGE('',*,*,#385,.T.);
#417=ORIENTED_EDGE('',*,*,#400,.T.);
#419=ORIENTED_EDGE('',*,*,#418,.T.);
#420=EDGE_LOOP('',(#415,#416,#417,#419));
#421=FACE_OUTER_BOUND('',#420,.F.);
#422=ADVANCED_FACE('',(#421),#414,.F.);
#423=CARTESIAN_POINT('',(0.E0,2.75E1,0.E0));
#424=DIRECTION('',(0.E0,1.E0,0.E0));
#425=DIRECTION('',(1.E0,0.E0,0.E0));
#426=AXIS2_PLACEMENT_3D('',#423,#424,#425);
#427=PLANE('',#426);
#429=ORIENTED_EDGE('',*,*,#428,.F.);
#431=ORIENTED_EDGE('',*,*,#430,.F.);
#432=EDGE_LOOP('',(#429,#431));
#433=FACE_OUTER_BOUND('',#432,.F.);
#434=ORIENTED_EDGE('',*,*,#418,.F.);
#435=ORIENTED_EDGE('',*,*,#405,.F.);
#436=EDGE_LOOP('',(#434,#435));
#437=FACE_BOUND('',#436,.F.);
#438=ADVANCED_FACE('',(#433,#437),#427,.T.);
#439=CARTESIAN_POINT('',(0.E0,2.4E1,0.E0));
#440=DIRECTION('',(0.E0,1.E0,0.E0));
#441=DIRECTION('',(1.E0,0.E0,0.E0));
#442=AXIS2_PLACEMENT_3D('',#439,#440,#441);
#443=CYLINDRICAL_SURFACE('',#442,5.9E0);
#445=ORIENTED_EDGE('',*,*,#444,.F.);
#447=ORIENTED_EDGE('',*,*,#446,.T.);
#448=ORIENTED_EDGE('',*,*,#428,.T.);
#450=ORIENTED_EDGE('',*,*,#449,.F.);
#451=EDGE_LOOP('',(#445,#447,#448,#450));
#452=FACE_OUTER_BOUND('',#451,.F.);
#453=ADVANCED_FACE('',(#452),#443,.T.);
#454=CARTESIAN_POINT('',(0.E0,2.4E1,0.E0));
#455=DIRECTION('',(0.E0,1.E0,0.E0));
#456=DIRECTION('',(1.E0,0.E0,0.E0));
#457=AXIS2_PLACEMENT_3D('',#454,#455,#456);
#458=PLANE('',#457);
#460=ORIENTED_EDGE('',*,*,#459,.F.);
#462=ORIENTED_EDGE('',*,*,#461,.F.);
#464=ORIENTED_EDGE('',*,*,#463,.F.);
#466=ORIENTED_EDGE('',*,*,#465,.F.);
#467=EDGE_LOOP('',(#460,#462,#464,#466));
#468=FACE_OUTER_BOUND('',#467,.F.);
#469=ORIENTED_EDGE('',*,*,#444,.T.);
#471=ORIENTED_EDGE('',*,*,#470,.T.);
#472=EDGE_LOOP('',(#469,#471));
#473=FACE_BOUND('',#472,.F.);
#474=ADVANCED_FACE('',(#468,#473),#458,.T.);
#475=CARTESIAN_POINT('',(-6.4E0,0.E0,7.55E0));
#476=DIRECTION('',(0.E0,0.E0,1.E0));
#477=DIRECTION('',(1.E0,0.E0,0.E0));
#478=AXIS2_PLACEMENT_3D('',#475,#476,#477);
#479=PLANE('',#478);
#480=ORIENTED_EDGE('',*,*,#322,.F.);
#482=ORIENTED_EDGE('',*,*,#481,.T.);
#483=ORIENTED_EDGE('',*,*,#459,.T.);
#485=ORIENTED_EDGE('',*,*,#484,.F.);
#486=EDGE_LOOP('',(#480,#482,#483,#485));
#487=FACE_OUTER_BOUND('',#486,.F.);
#488=ADVANCED_FACE('',(#487),#479,.T.);
#489=CARTESIAN_POINT('',(-6.4E0,0.E0,-7.55E0));
#490=DIRECTION('',(-1.E0,0.E0,0.E0));
#491=DIRECTION('',(0.E0,0.E0,1.E0));
#492=AXIS2_PLACEMENT_3D('',#489,#490,#491);
#493=PLANE('',#492);
#494=ORIENTED_EDGE('',*,*,#328,.F.);
#496=ORIENTED_EDGE('',*,*,#495,.T.);
#497=ORIENTED_EDGE('',*,*,#461,.T.);
#498=ORIENTED_EDGE('',*,*,#481,.F.);
#499=EDGE_LOOP('',(#494,#496,#497,#498));
#500=FACE_OUTER_BOUND('',#499,.F.);
#501=ADVANCED_FACE('',(#500),#493,.T.);
#502=CARTESIAN_POINT('',(6.4E0,0.E0,-7.55E0));
#503=DIRECTION('',(0.E0,0.E0,-1.E0));
#504=DIRECTION('',(-1.E0,0.E0,0.E0));
#505=AXIS2_PLACEMENT_3D('',#502,#503,#504);
#506=PLANE('',#505);
#507=ORIENTED_EDGE('',*,*,#326,.F.);
#509=ORIENTED_EDGE('',*,*,#508,.T.);
#510=ORIENTED_EDGE('',*,*,#463,.T.);
#511=ORIENTED_EDGE('',*,*,#495,.F.);
#512=EDGE_LOOP('',(#507,#509,#510,#511));
#513=FACE_OUTER_BOUND('',#512,.F.);
#514=ADVANCED_FACE('',(#513),#506,.T.);
#515=CARTESIAN_POINT('',(6.4E0,0.E0,7.55E0));
#516=DIRECTION('',(1.E0,0.E0,0.E0));
#517=DIRECTION('',(0.E0,0.E0,-1.E0));
#518=AXIS2_PLACEMENT_3D('',#515,#516,#517);
#519=PLANE('',#518);
#520=ORIENTED_EDGE('',*,*,#324,.F.);
#521=ORIENTED_EDGE('',*,*,#484,.T.);
#522=ORIENTED_EDGE('',*,*,#465,.T.);
#523=ORIENTED_EDGE('',*,*,#508,.F.);
#524=EDGE_LOOP('',(#520,#521,#522,#523));
#525=FACE_OUTER_BOUND('',#524,.F.);
#526=ADVANCED_FACE('',(#525),#519,.T.);
#527=CARTESIAN_POINT('',(0.E0,2.4E1,0.E0));
#528=DIRECTION('',(0.E0,1.E0,0.E0));
#529=DIRECTION('',(1.E0,0.E0,0.E0));
#530=AXIS2_PLACEMENT_3D('',#527,#528,#529);
#531=CYLINDRICAL_SURFACE('',#530,5.9E0);
#532=ORIENTED_EDGE('',*,*,#470,.F.);
#533=ORIENTED_EDGE('',*,*,#449,.T.);
#534=ORIENTED_EDGE('',*,*,#430,.T.);
#535=ORIENTED_EDGE('',*,*,#446,.F.);
#536=EDGE_LOOP('',(#532,#533,#534,#535));
#537=FACE_OUTER_BOUND('',#536,.F.);
#538=ADVANCED_FACE('',(#537),#531,.T.);
#539=CARTESIAN_POINT('',(0.E0,0.E0,0.E0));
#540=DIRECTION('',(0.E0,1.E0,0.E0));
#541=DIRECTION('',(1.E0,0.E0,0.E0));
#542=AXIS2_PLACEMENT_3D('',#539,#540,#541);
#543=CYLINDRICAL_SURFACE('',#542,3.25E0);
#544=ORIENTED_EDGE('',*,*,#390,.F.);
#545=ORIENTED_EDGE('',*,*,#373,.F.);
#546=ORIENTED_EDGE('',*,*,#334,.F.);
#547=ORIENTED_EDGE('',*,*,#370,.T.);
#548=EDGE_LOOP('',(#544,#545,#546,#547));
#549=FACE_OUTER_BOUND('',#548,.F.);
#550=ADVANCED_FACE('',(#549),#543,.F.);
#551=CARTESIAN_POINT('',(-3.81E0,0.E0,3.81E0));
#552=DIRECTION('',(0.E0,1.E0,0.E0));
#553=DIRECTION('',(1.E0,0.E0,0.E0));
#554=AXIS2_PLACEMENT_3D('',#551,#552,#553);
#555=CYLINDRICAL_SURFACE('',#554,1.05E0);
#556=ORIENTED_EDGE('',*,*,#338,.T.);
#558=ORIENTED_EDGE('',*,*,#557,.T.);
#560=ORIENTED_EDGE('',*,*,#559,.F.);
#562=ORIENTED_EDGE('',*,*,#561,.F.);
#563=EDGE_LOOP('',(#556,#558,#560,#562));
#564=FACE_OUTER_BOUND('',#563,.F.);
#565=ADVANCED_FACE('',(#564),#555,.T.);
#566=CARTESIAN_POINT('',(-3.81E0,0.E0,3.81E0));
#567=DIRECTION('',(0.E0,1.E0,0.E0));
#568=DIRECTION('',(1.E0,0.E0,0.E0));
#569=AXIS2_PLACEMENT_3D('',#566,#567,#568);
#570=CYLINDRICAL_SURFACE('',#569,1.05E0);
#571=ORIENTED_EDGE('',*,*,#340,.T.);
#572=ORIENTED_EDGE('',*,*,#561,.T.);
#574=ORIENTED_EDGE('',*,*,#573,.F.);
#575=ORIENTED_EDGE('',*,*,#557,.F.);
#576=EDGE_LOOP('',(#571,#572,#574,#575));
#577=FACE_OUTER_BOUND('',#576,.F.);
#578=ADVANCED_FACE('',(#577),#570,.T.);
#579=CARTESIAN_POINT('',(0.E0,-1.3E0,0.E0));
#580=DIRECTION('',(0.E0,1.E0,0.E0));
#581=DIRECTION('',(1.E0,0.E0,0.E0));
#582=AXIS2_PLACEMENT_3D('',#579,#580,#581);
#583=PLANE('',#582);
#584=ORIENTED_EDGE('',*,*,#559,.T.);
#585=ORIENTED_EDGE('',*,*,#573,.T.);
#586=EDGE_LOOP('',(#584,#585));
#587=FACE_OUTER_BOUND('',#586,.F.);
#588=ADVANCED_FACE('',(#587),#583,.F.);
#589=CARTESIAN_POINT('',(0.E0,-1.3E0,0.E0));
#590=DIRECTION('',(0.E0,1.E0,0.E0));
#591=DIRECTION('',(1.E0,0.E0,0.E0));
#592=AXIS2_PLACEMENT_3D('',#589,#590,#591);
#593=PLANE('',#592);
#595=ORIENTED_EDGE('',*,*,#594,.T.);
#597=ORIENTED_EDGE('',*,*,#596,.T.);
#598=EDGE_LOOP('',(#595,#597));
#599=FACE_OUTER_BOUND('',#598,.F.);
#600=ADVANCED_FACE('',(#599),#593,.F.);
#601=CARTESIAN_POINT('',(3.18E0,0.E0,-6.35E0));
#602=DIRECTION('',(0.E0,1.E0,0.E0));
#603=DIRECTION('',(1.E0,0.E0,0.E0));
#604=AXIS2_PLACEMENT_3D('',#601,#602,#603);
#605=CYLINDRICAL_SURFACE('',#604,8.E-1);
#606=ORIENTED_EDGE('',*,*,#344,.T.);
#608=ORIENTED_EDGE('',*,*,#607,.T.);
#609=ORIENTED_EDGE('',*,*,#594,.F.);
#611=ORIENTED_EDGE('',*,*,#610,.F.);
#612=EDGE_LOOP('',(#606,#608,#609,#611));
#613=FACE_OUTER_BOUND('',#612,.F.);
#614=ADVANCED_FACE('',(#613),#605,.T.);
#615=CARTESIAN_POINT('',(3.18E0,0.E0,-6.35E0));
#616=DIRECTION('',(0.E0,1.E0,0.E0));
#617=DIRECTION('',(1.E0,0.E0,0.E0));
#618=AXIS2_PLACEMENT_3D('',#615,#616,#617);
#619=CYLINDRICAL_SURFACE('',#618,8.E-1);
#620=ORIENTED_EDGE('',*,*,#346,.T.);
#621=ORIENTED_EDGE('',*,*,#610,.T.);
#622=ORIENTED_EDGE('',*,*,#596,.F.);
#623=ORIENTED_EDGE('',*,*,#607,.F.);
#624=EDGE_LOOP('',(#620,#621,#622,#623));
#625=FACE_OUTER_BOUND('',#624,.F.);
#626=ADVANCED_FACE('',(#625),#619,.T.);
#627=CARTESIAN_POINT('',(5.08E0,0.E0,0.E0));
#628=DIRECTION('',(0.E0,1.E0,0.E0));
#629=DIRECTION('',(1.E0,0.E0,0.E0));
#630=AXIS2_PLACEMENT_3D('',#627,#628,#629);
#631=CYLINDRICAL_SURFACE('',#630,8.E-1);
#632=ORIENTED_EDGE('',*,*,#350,.T.);
#634=ORIENTED_EDGE('',*,*,#633,.T.);
#636=ORIENTED_EDGE('',*,*,#635,.F.);
#638=ORIENTED_EDGE('',*,*,#637,.F.);
#639=EDGE_LOOP('',(#632,#634,#636,#638));
#640=FACE_OUTER_BOUND('',#639,.F.);
#641=ADVANCED_FACE('',(#640),#631,.T.);
#642=CARTESIAN_POINT('',(5.08E0,0.E0,0.E0));
#643=DIRECTION('',(0.E0,1.E0,0.E0));
#644=DIRECTION('',(1.E0,0.E0,0.E0));
#645=AXIS2_PLACEMENT_3D('',#642,#643,#644);
#646=CYLINDRICAL_SURFACE('',#645,8.E-1);
#647=ORIENTED_EDGE('',*,*,#352,.T.);
#648=ORIENTED_EDGE('',*,*,#637,.T.);
#650=ORIENTED_EDGE('',*,*,#649,.F.);
#651=ORIENTED_EDGE('',*,*,#633,.F.);
#652=EDGE_LOOP('',(#647,#648,#650,#651));
#653=FACE_OUTER_BOUND('',#652,.F.);
#654=ADVANCED_FACE('',(#653),#646,.T.);
#655=CARTESIAN_POINT('',(0.E0,-4.E0,0.E0));
#656=DIRECTION('',(0.E0,1.E0,0.E0));
#657=DIRECTION('',(1.E0,0.E0,0.E0));
#658=AXIS2_PLACEMENT_3D('',#655,#656,#657);
#659=PLANE('',#658);
#660=ORIENTED_EDGE('',*,*,#635,.T.);
#661=ORIENTED_EDGE('',*,*,#649,.T.);
#662=EDGE_LOOP('',(#660,#661));
#663=FACE_OUTER_BOUND('',#662,.F.);
#664=ADVANCED_FACE('',(#663),#659,.F.);
#665=CARTESIAN_POINT('',(0.E0,-4.E0,0.E0));
#666=DIRECTION('',(0.E0,1.E0,0.E0));
#667=DIRECTION('',(1.E0,0.E0,0.E0));
#668=AXIS2_PLACEMENT_3D('',#665,#666,#667);
#669=PLANE('',#668);
#671=ORIENTED_EDGE('',*,*,#670,.T.);
#673=ORIENTED_EDGE('',*,*,#672,.T.);
#674=EDGE_LOOP('',(#671,#673));
#675=FACE_OUTER_BOUND('',#674,.F.);
#676=ADVANCED_FACE('',(#675),#669,.F.);
#677=CARTESIAN_POINT('',(0.E0,0.E0,5.72E0));
#678=DIRECTION('',(0.E0,1.E0,0.E0));
#679=DIRECTION('',(1.E0,0.E0,0.E0));
#680=AXIS2_PLACEMENT_3D('',#677,#678,#679);
#681=CYLINDRICAL_SURFACE('',#680,6.E-1);
#682=ORIENTED_EDGE('',*,*,#356,.T.);
#684=ORIENTED_EDGE('',*,*,#683,.T.);
#685=ORIENTED_EDGE('',*,*,#670,.F.);
#687=ORIENTED_EDGE('',*,*,#686,.F.);
#688=EDGE_LOOP('',(#682,#684,#685,#687));
#689=FACE_OUTER_BOUND('',#688,.F.);
#690=ADVANCED_FACE('',(#689),#681,.T.);
#691=CARTESIAN_POINT('',(0.E0,0.E0,5.72E0));
#692=DIRECTION('',(0.E0,1.E0,0.E0));
#693=DIRECTION('',(1.E0,0.E0,0.E0));
#694=AXIS2_PLACEMENT_3D('',#691,#692,#693);
#695=CYLINDRICAL_SURFACE('',#694,6.E-1);
#696=ORIENTED_EDGE('',*,*,#358,.T.);
#697=ORIENTED_EDGE('',*,*,#686,.T.);
#698=ORIENTED_EDGE('',*,*,#672,.F.);
#699=ORIENTED_EDGE('',*,*,#683,.F.);
#700=EDGE_LOOP('',(#696,#697,#698,#699));
#701=FACE_OUTER_BOUND('',#700,.F.);
#702=ADVANCED_FACE('',(#701),#695,.T.);
#703=CLOSED_SHELL('',(#362,#377,#394,#409,#422,#438,#453,#474,#488,#501,#514,
#526,#538,#550,#565,#578,#588,#600,#614,#626,#641,#654,#664,#676,#690,#702));
#704=MANIFOLD_SOLID_BREP('',#703);
#705=(LENGTH_UNIT()NAMED_UNIT(*)SI_UNIT(.MILLI.,.METRE.));
#706=DIMENSIONAL_EXPONENTS(0.E0,0.E0,0.E0,0.E0,0.E0,0.E0,0.E0);
#707=(NAMED_UNIT(*)PLANE_ANGLE_UNIT()SI_UNIT($,.RADIAN.));
#708=PLANE_ANGLE_MEASURE_WITH_UNIT(PLANE_ANGLE_MEASURE(1.745329251994E-2),#707);
#709=(CONVERSION_BASED_UNIT('DEGREE',#708)NAMED_UNIT(#706)PLANE_ANGLE_UNIT());
#710=(NAMED_UNIT(*)SI_UNIT($,.STERADIAN.)SOLID_ANGLE_UNIT());
#711=UNCERTAINTY_MEASURE_WITH_UNIT(LENGTH_MEASURE(3.720200631975E-3),#705,
'closure',
'Maximum model space distance between geometric entities at asserted connectivities');
#712=(GEOMETRIC_REPRESENTATION_CONTEXT(3)GLOBAL_UNCERTAINTY_ASSIGNED_CONTEXT((
#711))GLOBAL_UNIT_ASSIGNED_CONTEXT((#705,#709,#710))REPRESENTATION_CONTEXT
('ID1','3'));
#714=APPLICATION_CONTEXT(
'CONFIGURATION CONTROLLED 3D DESIGNS OF MECHANICAL PARTS AND ASSEMBLIES');
#715=APPLICATION_PROTOCOL_DEFINITION('international standard',
'config_control_design',1994,#714);
#716=DESIGN_CONTEXT('',#714,'design');
#717=MECHANICAL_CONTEXT('',#714,'mechanical');
#718=PRODUCT('D-NJ2FD-V','D-NJ2FD-V','NOT SPECIFIED',(#717));
#719=PRODUCT_DEFINITION_FORMATION_WITH_SPECIFIED_SOURCE('1','LAST_VERSION',#718,
.MADE.);
#723=PRODUCT_CATEGORY('part','');
#724=PRODUCT_RELATED_PRODUCT_CATEGORY('detail','',(#718));
#725=PRODUCT_CATEGORY_RELATIONSHIP('','',#723,#724);
#726=SECURITY_CLASSIFICATION_LEVEL('unclassified');
#727=SECURITY_CLASSIFICATION('','',#726);
#728=CC_DESIGN_SECURITY_CLASSIFICATION(#727,(#719));
#729=APPROVAL_STATUS('approved');
#730=APPROVAL(#729,'');
#731=CC_DESIGN_APPROVAL(#730,(#727,#719,#720));
#732=CALENDAR_DATE(109,3,8);
#733=COORDINATED_UNIVERSAL_TIME_OFFSET(3,0,.AHEAD.);
#734=LOCAL_TIME(10,26,1.1E1,#733);
#735=DATE_AND_TIME(#732,#734);
#736=APPROVAL_DATE_TIME(#735,#730);
#737=DATE_TIME_ROLE('creation_date');
#738=CC_DESIGN_DATE_AND_TIME_ASSIGNMENT(#735,#737,(#720));
#739=DATE_TIME_ROLE('classification_date');
#740=CC_DESIGN_DATE_AND_TIME_ASSIGNMENT(#735,#739,(#727));
#741=PERSON('UNSPECIFIED','UNSPECIFIED',$,$,$,$);
#742=ORGANIZATION('UNSPECIFIED','UNSPECIFIED','UNSPECIFIED');
#743=PERSON_AND_ORGANIZATION(#741,#742);
#744=APPROVAL_ROLE('approver');
#745=APPROVAL_PERSON_ORGANIZATION(#743,#730,#744);
#746=PERSON_AND_ORGANIZATION_ROLE('creator');
#747=CC_DESIGN_PERSON_AND_ORGANIZATION_ASSIGNMENT(#743,#746,(#719,#720));
#748=PERSON_AND_ORGANIZATION_ROLE('design_supplier');
#749=CC_DESIGN_PERSON_AND_ORGANIZATION_ASSIGNMENT(#743,#748,(#719));
#750=PERSON_AND_ORGANIZATION_ROLE('classification_officer');
#751=CC_DESIGN_PERSON_AND_ORGANIZATION_ASSIGNMENT(#743,#750,(#727));
#752=PERSON_AND_ORGANIZATION_ROLE('design_owner');
#753=CC_DESIGN_PERSON_AND_ORGANIZATION_ASSIGNMENT(#743,#752,(#718));
#5=CIRCLE('',#4,3.25E0);
#10=CIRCLE('',#9,3.25E0);
#31=CIRCLE('',#30,1.05E0);
#36=CIRCLE('',#35,1.05E0);
#41=CIRCLE('',#40,8.E-1);
#46=CIRCLE('',#45,8.E-1);
#51=CIRCLE('',#50,8.E-1);
#56=CIRCLE('',#55,8.E-1);
#61=CIRCLE('',#60,6.E-1);
#66=CIRCLE('',#65,6.E-1);
#71=CIRCLE('',#70,3.25E0);
#80=CIRCLE('',#79,4.35E0);
#85=CIRCLE('',#84,4.35E0);
#98=CIRCLE('',#97,4.35E0);
#103=CIRCLE('',#102,4.35E0);
#108=CIRCLE('',#107,5.9E0);
#113=CIRCLE('',#112,5.9E0);
#138=CIRCLE('',#137,5.9E0);
#143=CIRCLE('',#142,5.9E0);
#168=CIRCLE('',#167,3.25E0);
#185=CIRCLE('',#184,1.05E0);
#190=CIRCLE('',#189,1.05E0);
#195=CIRCLE('',#194,8.E-1);
#200=CIRCLE('',#199,8.E-1);
#221=CIRCLE('',#220,8.E-1);
#226=CIRCLE('',#225,8.E-1);
#231=CIRCLE('',#230,6.E-1);
#236=CIRCLE('',#235,6.E-1);
#322=EDGE_CURVE('',#247,#248,#14,.T.);
#324=EDGE_CURVE('',#248,#250,#18,.T.);
#326=EDGE_CURVE('',#250,#252,#22,.T.);
#328=EDGE_CURVE('',#252,#247,#26,.T.);
#332=EDGE_CURVE('',#275,#276,#5,.T.);
#334=EDGE_CURVE('',#276,#275,#10,.T.);
#338=EDGE_CURVE('',#295,#296,#31,.T.);
#340=EDGE_CURVE('',#296,#295,#36,.T.);
#344=EDGE_CURVE('',#299,#300,#41,.T.);
#346=EDGE_CURVE('',#300,#299,#46,.T.);
#350=EDGE_CURVE('',#311,#312,#51,.T.);
#352=EDGE_CURVE('',#312,#311,#56,.T.);
#356=EDGE_CURVE('',#315,#316,#61,.T.);
#358=EDGE_CURVE('',#316,#315,#66,.T.);
#368=EDGE_CURVE('',#283,#284,#71,.T.);
#370=EDGE_CURVE('',#276,#283,#172,.T.);
#373=EDGE_CURVE('',#275,#284,#75,.T.);
#383=EDGE_CURVE('',#279,#280,#80,.T.);
#385=EDGE_CURVE('',#280,#279,#85,.T.);
#390=EDGE_CURVE('',#284,#283,#168,.T.);
#400=EDGE_CURVE('',#279,#263,#93,.T.);
#403=EDGE_CURVE('',#264,#280,#89,.T.);
#405=EDGE_CURVE('',#264,#263,#103,.T.);
#418=EDGE_CURVE('',#263,#264,#98,.T.);
#428=EDGE_CURVE('',#267,#268,#108,.T.);
#430=EDGE_CURVE('',#268,#267,#113,.T.);
#444=EDGE_CURVE('',#271,#272,#138,.T.);
#446=EDGE_CURVE('',#271,#267,#117,.T.);
#449=EDGE_CURVE('',#272,#268,#163,.T.);
#459=EDGE_CURVE('',#255,#256,#121,.T.);
#461=EDGE_CURVE('',#260,#255,#125,.T.);
#463=EDGE_CURVE('',#258,#260,#129,.T.);
#465=EDGE_CURVE('',#256,#258,#133,.T.);
#470=EDGE_CURVE('',#272,#271,#143,.T.);
#481=EDGE_CURVE('',#247,#255,#147,.T.);
#484=EDGE_CURVE('',#248,#256,#159,.T.);
#495=EDGE_CURVE('',#252,#260,#151,.T.);
#508=EDGE_CURVE('',#250,#258,#155,.T.);
#557=EDGE_CURVE('',#296,#288,#180,.T.);
#559=EDGE_CURVE('',#287,#288,#185,.T.);
#561=EDGE_CURVE('',#295,#287,#176,.T.);
#573=EDGE_CURVE('',#288,#287,#190,.T.);
#594=EDGE_CURVE('',#291,#292,#195,.T.);
#596=EDGE_CURVE('',#292,#291,#200,.T.);
#607=EDGE_CURVE('',#300,#292,#208,.T.);
#610=EDGE_CURVE('',#299,#291,#204,.T.);
#633=EDGE_CURVE('',#312,#304,#216,.T.);
#635=EDGE_CURVE('',#303,#304,#221,.T.);
#637=EDGE_CURVE('',#311,#303,#212,.T.);
#649=EDGE_CURVE('',#304,#303,#226,.T.);
#670=EDGE_CURVE('',#307,#308,#231,.T.);
#672=EDGE_CURVE('',#308,#307,#236,.T.);
#683=EDGE_CURVE('',#316,#308,#244,.T.);
#686=EDGE_CURVE('',#315,#307,#240,.T.);
#713=ADVANCED_BREP_SHAPE_REPRESENTATION('',(#704),#712);
#720=PRODUCT_DEFINITION('design','',#719,#716);
#721=PRODUCT_DEFINITION_SHAPE('','SHAPE FOR D-NJ2FD-V.',#720);
#722=SHAPE_DEFINITION_REPRESENTATION(#721,#713);
ENDSEC;
END-ISO-10303-21;
