  0
SECTION
  2
HEADER
  9
$ACADVER
  1
AC1009
  9
$INSBASE
 10
0.0
 20
0.0
 30
0.0
  9
$EXTMIN
 10
0.0
 20
0.0
 30
0.0
  9
$EXTMAX
 10
420.0
 20
297.0
 30
0.0
  9
$LIMMIN
 10
0.0
 20
0.0
  9
$LIMMAX
 10
420.0
 20
297.0
  9
$ORTHOMODE
 70
     1
  9
$REGENMODE
 70
     1
  9
$FILLMODE
 70
     1
  9
$QTEXTMODE
 70
     0
  9
$MIRRTEXT
 70
     1
  9
$DRAGMODE
 70
     2
  9
$LTSCALE
 40
23.1
  9
$OSMODE
 70
    35
  9
$ATTMODE
 70
     1
  9
$TEXTSIZE
 40
2.5
  9
$TRACEWID
 40
1.0
  9
$TEXTSTYLE
  7
STANDARD
  9
$CLAYER
  8
0
  9
$CELTYPE
  6
BYLAYER
  9
$CECOLOR
 62
   256
  9
$DIMSCALE
 40
1.0
  9
$DIMASZ
 40
3.5
  9
$DIMEXO
 40
2.625
  9
$DIMDLI
 40
15.96
  9
$DIMRND
 40
0.0
  9
$DIMDLE
 40
0.0
  9
$DIMEXE
 40
7.56
  9
$DIMTP
 40
0.005
  9
$DIMTM
 40
0.005
  9
$DIMTXT
 40
3.5
  9
$DIMCEN
 40
3.78
  9
$DIMTSZ
 40
0.0
  9
$DIMTOL
 70
     1
  9
$DIMLIM
 70
     0
  9
$DIMTIH
 70
     0
  9
$DIMTOH
 70
     0
  9
$DIMSE1
 70
     0
  9
$DIMSE2
 70
     0
  9
$DIMTAD
 70
     1
  9
$DIMZIN
 70
     8
  9
$DIMBLK
  1
_FILLED
  9
$DIMASO
 70
     1
  9
$DIMSHO
 70
     1
  9
$DIMPOST
  1

  9
$DIMAPOST
  1

  9
$DIMALT
 70
     0
  9
$DIMALTD
 70
     4
  9
$DIMALTF
 40
0.0394
  9
$DIMLFAC
 40
1.0
  9
$DIMTOFL
 70
     1
  9
$DIMTVP
 40
0.0
  9
$DIMTIX
 70
     0
  9
$DIMSOXD
 70
     0
  9
$DIMSAH
 70
     0
  9
$DIMBLK1
  1

  9
$DIMBLK2
  1

  9
$DIMSTYLE
  2
STANDARD
  9
$DIMCLRD
 70
     0
  9
$DIMCLRE
 70
     0
  9
$DIMCLRT
 70
     0
  9
$DIMTFAC
 40
1.0
  9
$DIMGAP
 40
0.625
  9
$LUNITS
 70
     2
  9
$LUPREC
 70
     4
  9
$SKETCHINC
 40
1.0
  9
$FILLETRAD
 40
10.0
  9
$AUNITS
 70
     0
  9
$AUPREC
 70
     0
  9
$MENU
  1
.
  9
$ELEVATION
 40
0.0
  9
$PELEVATION
 40
0.0
  9
$THICKNESS
 40
0.0
  9
$LIMCHECK
 70
     0
  9
$BLIPMODE
 70
     0
  9
$CHAMFERA
 40
10.0
  9
$CHAMFERB
 40
10.0
  9
$SKPOLY
 70
     0
  9
$TDCREATE
 40
2453112.486286
  9
$TDUPDATE
 40
2453115.425509
  9
$TDINDWG
 40
0.05634
  9
$TDUSRTIMER
 40
0.05634
  9
$USRTIMER
 70
     1
  9
$ANGBASE
 50
0.0
  9
$ANGDIR
 70
     0
  9
$PDMODE
 70
     3
  9
$PDSIZE
 40
0.3125
  9
$PLINEWID
 40
0.0
  9
$COORDS
 70
     1
  9
$SPLFRAME
 70
     0
  9
$SPLINETYPE
 70
     6
  9
$SPLINESEGS
 70
     8
  9
$ATTDIA
 70
     0
  9
$ATTREQ
 70
     1
  9
$HANDLING
 70
     1
  9
$HANDSEED
  5
9E8
  9
$SURFTAB1
 70
     6
  9
$SURFTAB2
 70
     6
  9
$SURFTYPE
 70
     6
  9
$SURFU
 70
     6
  9
$SURFV
 70
     6
  9
$UCSNAME
  2

  9
$UCSORG
 10
0.0
 20
0.0
 30
0.0
  9
$UCSXDIR
 10
1.0
 20
0.0
 30
0.0
  9
$UCSYDIR
 10
0.0
 20
1.0
 30
0.0
  9
$PUCSNAME
  2

  9
$PUCSORG
 10
0.0
 20
0.0
 30
0.0
  9
$PUCSXDIR
 10
1.0
 20
0.0
 30
0.0
  9
$PUCSYDIR
 10
0.0
 20
1.0
 30
0.0
  9
$USERI1
 70
     0
  9
$USERI2
 70
     0
  9
$USERI3
 70
     0
  9
$USERI4
 70
     0
  9
$USERI5
 70
     0
  9
$USERR1
 40
0.0
  9
$USERR2
 40
0.0
  9
$USERR3
 40
0.0
  9
$USERR4
 40
0.0
  9
$USERR5
 40
0.0
  9
$WORLDVIEW
 70
     1
  9
$SHADEDGE
 70
     3
  9
$SHADEDIF
 70
    70
  9
$TILEMODE
 70
     1
  9
$MAXACTVP
 70
    48
  9
$PLIMCHECK
 70
     0
  9
$PEXTMIN
 10
1.000000E+020
 20
1.000000E+020
 30
1.000000E+020
  9
$PEXTMAX
 10
-1.000000E+020
 20
-1.000000E+020
 30
-1.000000E+020
  9
$PLIMMIN
 10
0.0
 20
0.0
  9
$PLIMMAX
 10
420.0
 20
297.0
  9
$UNITMODE
 70
     0
  9
$VISRETAIN
 70
     1
  9
$PLINEGEN
 70
     0
  9
$PSLTSCALE
 70
     1
  0
ENDSEC
  0
SECTION
  2
TABLES
  0
TABLE
  2
VPORT
 70
     2
  0
VPORT
  2
*ACTIVE
 70
     0
 10
0.0
 20
0.0
 11
1.0
 21
1.0
 12
210.000001
 22
148.500001
 13
0.0
 23
0.0
 14
1.0
 24
1.0
 15
0.0
 25
0.0
 16
0.0
 26
0.0
 36
1.0
 17
0.0
 27
0.0
 37
0.0
 40
299.242982
 41
1.525
 42
50.0
 43
0.0
 44
0.0
 50
0.0
 51
0.0
 71
     0
 72
   100
 73
     1
 74
     1
 75
     0
 76
     0
 77
     0
 78
     0
  0
ENDTAB
  0
TABLE
  2
LTYPE
 70
     6
  0
LTYPE
  2
CONTINUOUS
 70
     0
  3
Solid line
 72
    65
 73
     0
 40
0.0
  0
LTYPE
  2
CENTER
 70
     0
  3
____ _ ____ _ ____ _ ____ _ ____ _ ____ _ ____
 72
    65
 73
     4
 40
0.6
 49
0.375
 49
-0.075
 49
0.075
 49
-0.075
  0
LTYPE
  2
HIDDEN
 70
     0
  3
- - - - - - - - - - - - - - - - - - - -
 72
    65
 73
     2
 40
0.2
 49
0.1
 49
-0.1
  0
LTYPE
  2
PHANTOM
 70
     0
  3
_____ _ _ _____ _ _ _____ _ _ _____
 72
    65
 73
     6
 40
0.8
 49
0.45
 49
-0.05
 49
0.1
 49
-0.05
 49
0.1
 49
-0.05
  0
LTYPE
  2
DOT
 70
     0
  3
. . . . . . . . . . . . . . . . . . . .
 72
    65
 73
     2
 40
0.2
 49
0.1
 49
-0.1
  0
LTYPE
  2
DASHED
 70
     0
  3
- - - - - - - - - - - - - - - - - - - -
 72
    65
 73
     2
 40
0.2
 49
0.1
 49
-0.1
  0
ENDTAB
  0
TABLE
  2
LAYER
 70
    29
  0
LAYER
  2
0
 70
     0
 62
     7
  6
CONTINUOUS
  0
LAYER
  2
DEFAULT_1
 70
     0
 62
     7
  6
CENTER
  0
LAYER
  2
DEFAULT_2
 70
     0
 62
     8
  6
HIDDEN
  0
LAYER
  2
DEFAULT_3
 70
     0
 62
     7
  6
PHANTOM
  0
LAYER
  2
_BLACK_HOLE
 70
     0
 62
     7
  6
CONTINUOUS
  0
LAYER
  2
BEMASSUNGEN
 70
     0
 62
     7
  6
CONTINUOUS
  0
LAYER
  2
BEZUG
 70
     0
 62
     7
  6
CONTINUOUS
  0
LAYER
  2
BEZUGSACHSEN
 70
     0
 62
     7
  6
CONTINUOUS
  0
LAYER
  2
BEZUGSEBENEN
 70
     0
 62
     7
  6
CONTINUOUS
  0
LAYER
  2
BG_STARTBEZUEGE
 70
     0
 62
     7
  6
CONTINUOUS
  0
LAYER
  2
BOHRUNGEN
 70
     0
 62
     7
  6
CONTINUOUS
  0
LAYER
  2
BZ-EBENEN
 70
     0
 62
     7
  6
CONTINUOUS
  0
LAYER
  2
BZ-KOORDSYS
 70
     0
 62
     7
  6
CONTINUOUS
  0
LAYER
  2
BZ-KURVEN
 70
     0
 62
     7
  6
CONTINUOUS
  0
LAYER
  2
CRI
 70
     0
 62
     7
  6
CONTINUOUS
  0
LAYER
  2
DETAILS
 70
     0
 62
     7
  6
CONTINUOUS
  0
LAYER
  2
FASEN
 70
     0
 62
     7
  6
CONTINUOUS
  0
LAYER
  2
FLAECHEN
 70
     0
 62
     7
  6
CONTINUOUS
  0
LAYER
  2
GEWINDE
 70
     0
 62
     7
  6
CONTINUOUS
  0
LAYER
  2
HILFEN
 70
     0
 62
     7
  6
CONTINUOUS
  0
LAYER
  2
KANTENFASEN
 70
     0
 62
     7
  6
CONTINUOUS
  0
LAYER
  2
KE-OHNE-GEOMETRIE
 70
     0
 62
     7
  6
CONTINUOUS
  0
LAYER
  2
KURVEN
 70
     0
 62
     7
  6
CONTINUOUS
  0
LAYER
  2
PLAZIERUNG
 70
     0
 62
     7
  6
CONTINUOUS
  0
LAYER
  2
RUNDUNGEN
 70
     0
 62
     7
  6
CONTINUOUS
  0
LAYER
  2
TEIL_STARTBEZUEGE
 70
     0
 62
     7
  6
CONTINUOUS
  0
LAYER
  2
XI
 70
     0
 62
     7
  6
CONTINUOUS
  0
LAYER
  2
XSEC_DATUMS
 70
     0
 62
     7
  6
CONTINUOUS
  0
LAYER
  2
ZEICHNUNGSBEMAßUNGEN
 70
     0
 62
     7
  6
CONTINUOUS
  0
ENDTAB
  0
TABLE
  2
STYLE
 70
     1
  0
STYLE
  2
STANDARD
 70
     0
 40
0.0
 41
0.7
 50
0.0
 71
     0
 42
0.2
  3
txt
  4

  0
ENDTAB
  0
TABLE
  2
VIEW
 70
     0
  0
ENDTAB
  0
TABLE
  2
UCS
 70
     0
  0
ENDTAB
  0
TABLE
  2
APPID
 70
     1
  0
APPID
  2
ACAD
 70
     0
  0
ENDTAB
  0
TABLE
  2
DIMSTYLE
 70
     3
  0
DIMSTYLE
  2
STANDARD
 70
     0
  3

  4

  5
_FILLED
  6
_FILLED
  7
_FILLED
 40
1.0
 41
3.5
 42
0.0625
 43
0.38
 44
0.18
 45
0.0
 46
0.0
 47
0.005
 48
0.005
140
3.5
141
0.09
142
0.0
143
25.4
144
1.0
145
0.0
146
1.0
147
0.09
 71
     1
 72
     0
 73
     0
 74
     0
 75
     0
 76
     0
 77
     1
 78
     8
170
     0
171
     2
172
     0
173
     0
174
     0
175
     0
176
     0
177
     0
178
     5
  0
DIMSTYLE
  2
DIMSTYLE_1
 70
     0
  3

  4

  5
_FILLED
  6
_FILLED
  7
_FILLED
 40
1.0
 41
3.5
 42
0.0625
 43
0.38
 44
0.18
 45
0.0
 46
0.0
 47
0.3
 48
0.3
140
3.5
141
0.09
142
0.0
143
25.4
144
0.5
145
0.0
146
1.0
147
0.09
 71
     0
 72
     0
 73
     0
 74
     0
 75
     0
 76
     0
 77
     1
 78
     8
170
     0
171
     2
172
     0
173
     0
174
     0
175
     0
176
     0
177
     0
178
     5
  0
DIMSTYLE
  2
DIMSTYLE_2
 70
     0
  3

  4

  5
_FILLED
  6
_FILLED
  7
_FILLED
 40
1.0
 41
3.5
 42
0.0625
 43
0.38
 44
0.18
 45
0.0
 46
0.0
 47
0.2
 48
0.2
140
3.5
141
0.09
142
0.0
143
25.4
144
0.5
145
0.0
146
1.0
147
0.09
 71
     0
 72
     0
 73
     0
 74
     0
 75
     0
 76
     0
 77
     1
 78
     8
170
     0
171
     2
172
     0
173
     0
174
     0
175
     0
176
     0
177
     0
178
     5
  0
ENDTAB
  0
ENDSEC
  0
SECTION
  2
BLOCKS
  0
BLOCK
  8
0
  2
$MODEL_SPACE
 70
     0
 10
0.0
 20
0.0
 30
0.0
  3
$MODEL_SPACE
  1

  0
ENDBLK
  5
1F
  8
0
  0
BLOCK
 67
     1
  8
0
  2
$PAPER_SPACE
 70
     0
 10
0.0
 20
0.0
 30
0.0
  3
$PAPER_SPACE
  1

  0
ENDBLK
  5
21
 67
     1
  8
0
  0
BLOCK
  8
0
  2
_FILLED
 70
     0
 10
0.0
 20
0.0
 30
0.0
  3
_FILLED
  1

  0
SOLID
  5
243
  8
0
  6
BYBLOCK
 62
     0
 10
0.0
 20
0.0
 30
0.0
 11
-1.0
 21
0.125
 31
0.0
 12
-1.0
 22
-0.125
 32
0.0
 13
-1.0
 23
-0.125
 33
0.0
  0
ENDBLK
  5
244
  8
0
  6
BYBLOCK
 62
     0
  0
ENDSEC
  0
SECTION
  2
ENTITIES
  0
LINE
  5
245
  8
0
  6
CONTINUOUS
 62
     2
 10
278.499642
 20
13.500114
 30
0.0
 11
280.092496
 21
13.500114
 31
0.0
  0
LINE
  5
246
  8
0
  6
CONTINUOUS
 62
     2
 10
280.092496
 20
13.500114
 30
0.0
 11
278.499642
 21
13.500114
 31
0.0
  0
LINE
  5
247
  8
0
  6
CONTINUOUS
 62
     2
 10
278.499642
 20
13.500114
 30
0.0
 11
278.913545
 21
15.847478
 31
0.0
  0
LINE
  5
248
  8
0
  6
CONTINUOUS
 62
     2
 10
278.913545
 20
15.847478
 30
0.0
 11
280.506399
 21
15.847478
 31
0.0
  0
LINE
  5
249
  8
0
  6
CONTINUOUS
 62
     2
 10
280.506399
 20
15.847478
 30
0.0
 11
283.006855
 21
14.338458
 31
0.0
  0
LINE
  5
24A
  8
0
  6
CONTINUOUS
 62
     2
 10
283.006855
 20
14.338458
 30
0.0
 11
283.272935
 21
15.847478
 31
0.0
  0
LINE
  5
24B
  8
0
  6
CONTINUOUS
 62
     2
 10
283.272935
 20
15.847478
 30
0.0
 11
284.86579
 21
15.847478
 31
0.0
  0
LINE
  5
24C
  8
0
  6
CONTINUOUS
 62
     2
 10
284.86579
 20
15.847478
 30
0.0
 11
284.451886
 21
13.500114
 31
0.0
  0
LINE
  5
24D
  8
0
  6
CONTINUOUS
 62
     2
 10
284.451886
 20
13.500114
 30
0.0
 11
282.859032
 21
13.500114
 31
0.0
  0
LINE
  5
24E
  8
0
  6
CONTINUOUS
 62
     2
 10
282.859032
 20
13.500114
 30
0.0
 11
280.358577
 21
15.009133
 31
0.0
  0
LINE
  5
24F
  8
0
  6
CONTINUOUS
 62
     2
 10
280.358577
 20
15.009133
 30
0.0
 11
280.092496
 21
13.500114
 31
0.0
  0
LINE
  5
250
  8
0
  6
CONTINUOUS
 62
     2
 10
285.709402
 20
13.500114
 30
0.0
 11
286.123306
 21
15.847478
 31
0.0
  0
LINE
  5
251
  8
0
  6
CONTINUOUS
 62
     2
 10
286.123306
 20
15.847478
 30
0.0
 11
290.315027
 21
15.847478
 31
0.0
  0
LINE
  5
252
  8
0
  6
CONTINUOUS
 62
     2
 10
290.315027
 20
15.847478
 30
0.0
 11
290.226334
 21
15.344471
 31
0.0
  0
LINE
  5
253
  8
0
  6
CONTINUOUS
 62
     2
 10
290.226334
 20
15.344471
 30
0.0
 11
287.543632
 21
15.344471
 31
0.0
  0
LINE
  5
254
  8
0
  6
CONTINUOUS
 62
     2
 10
287.543632
 20
15.344471
 30
0.0
 11
287.469721
 21
14.925299
 31
0.0
  0
LINE
  5
255
  8
0
  6
CONTINUOUS
 62
     2
 10
287.469721
 20
14.925299
 30
0.0
 11
289.649416
 21
14.925299
 31
0.0
  0
LINE
  5
256
  8
0
  6
CONTINUOUS
 62
     2
 10
289.649416
 20
14.925299
 30
0.0
 11
289.560722
 21
14.422292
 31
0.0
  0
LINE
  5
257
  8
0
  6
CONTINUOUS
 62
     2
 10
289.560722
 20
14.422292
 30
0.0
 11
287.381027
 21
14.422292
 31
0.0
  0
LINE
  5
258
  8
0
  6
CONTINUOUS
 62
     2
 10
287.381027
 20
14.422292
 30
0.0
 11
287.307116
 21
14.00312
 31
0.0
  0
LINE
  5
259
  8
0
  6
CONTINUOUS
 62
     2
 10
287.307116
 20
14.00312
 30
0.0
 11
289.989818
 21
14.00312
 31
0.0
  0
LINE
  5
25A
  8
0
  6
CONTINUOUS
 62
     2
 10
289.989818
 20
14.00312
 30
0.0
 11
289.901124
 21
13.500114
 31
0.0
  0
LINE
  5
25B
  8
0
  6
CONTINUOUS
 62
     2
 10
289.901124
 20
13.500114
 30
0.0
 11
285.709402
 21
13.500114
 31
0.0
  0
LINE
  5
25C
  8
0
  6
CONTINUOUS
 62
     2
 10
290.883552
 20
14.317255
 30
0.0
 11
291.153372
 21
15.847478
 31
0.0
  0
LINE
  5
25D
  8
0
  6
CONTINUOUS
 62
     2
 10
291.153372
 20
15.847478
 30
0.0
 11
292.662391
 21
15.847478
 31
0.0
  0
LINE
  5
25E
  8
0
  6
CONTINUOUS
 62
     2
 10
292.662391
 20
15.847478
 30
0.0
 11
292.416566
 21
14.45333
 31
0.0
  0
ARC
  5
25F
  8
0
  6
CONTINUOUS
 62
     2
 10
292.746809
 20
14.3951
 30
0.0
 40
0.335338
 50
170.0
 51
257.387751
  0
ARC
  5
260
  8
0
  6
CONTINUOUS
 62
     2
 10
293.25936
 20
16.685822
 30
0.0
 40
2.682702
 50
257.387751
 51
286.262649
  0
ARC
  5
261
  8
0
  6
CONTINUOUS
 62
     2
 10
293.916718
 20
14.432381
 30
0.0
 40
0.335338
 50
286.262649
 51
350.0
  0
LINE
  5
262
  8
0
  6
CONTINUOUS
 62
     2
 10
294.246961
 20
14.37415
 30
0.0
 11
294.506749
 21
15.847478
 31
0.0
  0
LINE
  5
263
  8
0
  6
CONTINUOUS
 62
     2
 10
294.506749
 20
15.847478
 30
0.0
 11
296.015769
 21
15.847478
 31
0.0
  0
LINE
  5
264
  8
0
  6
CONTINUOUS
 62
     2
 10
296.015769
 20
15.847478
 30
0.0
 11
295.719182
 21
14.165453
 31
0.0
  0
ARC
  5
265
  8
0
  6
CONTINUOUS
 62
     2
 10
295.223817
 20
14.252799
 30
0.0
 40
0.503007
 50
284.461269
 51
350.0
  0
ARC
  5
266
  8
0
  6
CONTINUOUS
 62
     2
 10
293.255872
 20
21.883557
 30
0.0
 40
8.383443
 50
256.220911
 51
284.461269
  0
ARC
  5
267
  8
0
  6
CONTINUOUS
 62
     2
 10
291.378917
 20
14.229909
 30
0.0
 40
0.503007
 50
170.0
 51
256.220911
  0
LINE
  5
268
  8
0
  6
CONTINUOUS
 62
     2
 10
300.626662
 20
15.847478
 30
0.0
 11
300.523186
 21
15.260637
 31
0.0
  0
LINE
  5
269
  8
0
  6
CONTINUOUS
 62
     2
 10
300.523186
 20
15.260637
 30
0.0
 11
299.349504
 21
15.260637
 31
0.0
  0
LINE
  5
26A
  8
0
  6
CONTINUOUS
 62
     2
 10
299.349504
 20
15.260637
 30
0.0
 11
299.039077
 21
13.500114
 31
0.0
  0
LINE
  5
26B
  8
0
  6
CONTINUOUS
 62
     2
 10
299.039077
 20
13.500114
 30
0.0
 11
297.362388
 21
13.500114
 31
0.0
  0
LINE
  5
26C
  8
0
  6
CONTINUOUS
 62
     2
 10
297.362388
 20
13.500114
 30
0.0
 11
297.672816
 21
15.260637
 31
0.0
  0
LINE
  5
26D
  8
0
  6
CONTINUOUS
 62
     2
 10
297.672816
 20
15.260637
 30
0.0
 11
296.499134
 21
15.260637
 31
0.0
  0
LINE
  5
26E
  8
0
  6
CONTINUOUS
 62
     2
 10
296.499134
 20
15.260637
 30
0.0
 11
296.60261
 21
15.847478
 31
0.0
  0
LINE
  5
26F
  8
0
  6
CONTINUOUS
 62
     2
 10
296.60261
 20
15.847478
 30
0.0
 11
300.626662
 21
15.847478
 31
0.0
  0
ARC
  5
270
  8
0
  6
CONTINUOUS
 62
     2
 10
304.850706
 20
15.659231
 30
0.0
 40
1.316705
 50
270.813981
 51
287.332032
  0
ARC
  5
271
  8
0
  6
CONTINUOUS
 62
     2
 10
304.937533
 20
15.381009
 30
0.0
 40
1.02525
 50
287.332032
 51
306.995271
  0
ARC
  5
272
  8
0
  6
CONTINUOUS
 62
     2
 10
305.070512
 20
15.20451
 30
0.0
 40
0.804262
 50
306.995271
 51
331.199133
  0
ARC
  5
273
  8
0
  6
CONTINUOUS
 62
     2
 10
305.27444
 20
15.092395
 30
0.0
 40
0.571547
 50
331.199133
 51
0.0
  0
ARC
  5
274
  8
0
  6
CONTINUOUS
 62
     2
 10
305.27444
 20
15.092395
 30
0.0
 40
0.571547
 50
0.0
 51
28.800867
  0
ARC
  5
275
  8
0
  6
CONTINUOUS
 62
     2
 10
305.070512
 20
14.980281
 30
0.0
 40
0.804262
 50
28.800867
 51
53.004729
  0
ARC
  5
276
  8
0
  6
CONTINUOUS
 62
     2
 10
304.937533
 20
14.803781
 30
0.0
 40
1.02525
 50
53.004729
 51
72.667968
  0
ARC
  5
277
  8
0
  6
CONTINUOUS
 62
     2
 10
304.850706
 20
14.52556
 30
0.0
 40
1.316705
 50
72.667968
 51
88.263723
  0
ARC
  5
278
  8
0
  6
CONTINUOUS
 62
     2
 10
304.479822
 20
3.665931
 30
0.0
 40
12.182657
 50
88.067714
 51
90.773418
  0
LINE
  5
279
  8
0
  6
CONTINUOUS
 62
     2
 10
304.315377
 20
15.847478
 30
0.0
 11
301.213503
 21
15.847478
 31
0.0
  0
LINE
  5
27A
  8
0
  6
CONTINUOUS
 62
     2
 10
301.213503
 20
15.847478
 30
0.0
 11
300.7996
 21
13.500114
 31
0.0
  0
LINE
  5
27B
  8
0
  6
CONTINUOUS
 62
     2
 10
300.7996
 20
13.500114
 30
0.0
 11
302.476288
 21
13.500114
 31
0.0
  0
LINE
  5
27C
  8
0
  6
CONTINUOUS
 62
     2
 10
302.476288
 20
13.500114
 30
0.0
 11
302.624111
 21
14.338458
 31
0.0
  0
LINE
  5
27D
  8
0
  6
CONTINUOUS
 62
     2
 10
302.624111
 20
14.338458
 30
0.0
 11
303.901473
 21
13.500114
 31
0.0
  0
LINE
  5
27E
  8
0
  6
CONTINUOUS
 62
     2
 10
303.901473
 20
13.500114
 30
0.0
 11
305.829665
 21
13.500114
 31
0.0
  0
LINE
  5
27F
  8
0
  6
CONTINUOUS
 62
     2
 10
305.829665
 20
13.500114
 30
0.0
 11
304.552303
 21
14.338458
 31
0.0
  0
ARC
  5
280
  8
0
  6
CONTINUOUS
 62
     2
 10
303.149694
 20
132.194956
 30
0.0
 40
117.864844
 50
270.681844
 51
270.836009
  0
LINE
  5
281
  8
0
  6
CONTINUOUS
 62
     2
 10
303.773966
 20
14.841465
 30
0.0
 11
302.712804
 21
14.841465
 31
0.0
  0
LINE
  5
282
  8
0
  6
CONTINUOUS
 62
     2
 10
302.712804
 20
14.841465
 30
0.0
 11
302.81628
 21
15.428306
 31
0.0
  0
LINE
  5
283
  8
0
  6
CONTINUOUS
 62
     2
 10
302.81628
 20
15.428306
 30
0.0
 11
304.070394
 21
15.428306
 31
0.0
  0
ARC
  5
284
  8
0
  6
CONTINUOUS
 62
     2
 10
304.027965
 20
14.907159
 30
0.0
 40
0.522871
 50
74.211766
 51
85.345474
  0
ARC
  5
285
  8
0
  6
CONTINUOUS
 62
     2
 10
304.077311
 20
15.081683
 30
0.0
 40
0.341504
 50
49.806032
 51
74.211766
  0
ARC
  5
286
  8
0
  6
CONTINUOUS
 62
     2
 10
304.187631
 20
15.212257
 30
0.0
 40
0.170566
 50
15.0
 51
49.806032
  0
ARC
  5
287
  8
0
  6
CONTINUOUS
 62
     2
 10
304.187631
 20
15.212257
 30
0.0
 40
0.170566
 50
340.193968
 51
15.0
  0
ARC
  5
288
  8
0
  6
CONTINUOUS
 62
     2
 10
304.026804
 20
15.270178
 30
0.0
 40
0.341504
 50
315.788234
 51
340.193968
  0
ARC
  5
289
  8
0
  6
CONTINUOUS
 62
     2
 10
303.896807
 20
15.396647
 30
0.0
 40
0.522871
 50
298.863853
 51
315.788234
  0
ARC
  5
28A
  8
0
  6
CONTINUOUS
 62
     2
 10
303.773966
 20
15.619505
 30
0.0
 40
0.777342
 50
285.0
 51
298.863853
  0
ARC
  5
28B
  8
0
  6
CONTINUOUS
 62
     2
 10
303.771267
 20
15.619506
 30
0.0
 40
0.778046
 50
270.198723
 51
285.191924
  0
LINE
  5
28C
  8
0
  6
CONTINUOUS
 62
     2
 10
306.500341
 20
13.500114
 30
0.0
 11
306.914244
 21
15.847478
 31
0.0
  0
LINE
  5
28D
  8
0
  6
CONTINUOUS
 62
     2
 10
306.914244
 20
15.847478
 30
0.0
 11
308.590933
 21
15.847478
 31
0.0
  0
LINE
  5
28E
  8
0
  6
CONTINUOUS
 62
     2
 10
308.590933
 20
15.847478
 30
0.0
 11
308.177029
 21
13.500114
 31
0.0
  0
LINE
  5
28F
  8
0
  6
CONTINUOUS
 62
     2
 10
308.177029
 20
13.500114
 30
0.0
 11
306.500341
 21
13.500114
 31
0.0
  0
LINE
  5
290
  8
0
  6
CONTINUOUS
 62
     2
 10
309.51838
 20
13.500114
 30
0.0
 11
309.932284
 21
15.847478
 31
0.0
  0
LINE
  5
291
  8
0
  6
CONTINUOUS
 62
     2
 10
309.932284
 20
15.847478
 30
0.0
 11
311.608972
 21
15.847478
 31
0.0
  0
LINE
  5
292
  8
0
  6
CONTINUOUS
 62
     2
 10
311.608972
 20
15.847478
 30
0.0
 11
311.416803
 21
14.75763
 31
0.0
  0
LINE
  5
293
  8
0
  6
CONTINUOUS
 62
     2
 10
311.416803
 20
14.75763
 30
0.0
 11
313.352312
 21
15.847478
 31
0.0
  0
LINE
  5
294
  8
0
  6
CONTINUOUS
 62
     2
 10
313.352312
 20
15.847478
 30
0.0
 11
315.465356
 21
15.847478
 31
0.0
  0
LINE
  5
295
  8
0
  6
CONTINUOUS
 62
     2
 10
315.465356
 20
15.847478
 30
0.0
 11
313.160142
 21
14.75763
 31
0.0
  0
LINE
  5
296
  8
0
  6
CONTINUOUS
 62
     2
 10
313.160142
 20
14.75763
 30
0.0
 11
315.051452
 21
13.500114
 31
0.0
  0
LINE
  5
297
  8
0
  6
CONTINUOUS
 62
     2
 10
315.051452
 20
13.500114
 30
0.0
 11
312.955592
 21
13.500114
 31
0.0
  0
LINE
  5
298
  8
0
  6
CONTINUOUS
 62
     2
 10
312.955592
 20
13.500114
 30
0.0
 11
311.357674
 21
14.422292
 31
0.0
  0
LINE
  5
299
  8
0
  6
CONTINUOUS
 62
     2
 10
311.357674
 20
14.422292
 30
0.0
 11
311.195069
 21
13.500114
 31
0.0
  0
LINE
  5
29A
  8
0
  6
CONTINUOUS
 62
     2
 10
311.195069
 20
13.500114
 30
0.0
 11
309.51838
 21
13.500114
 31
0.0
  0
LINE
  5
29B
  8
0
  6
CONTINUOUS
 62
     2
 10
317.197674
 20
13.500114
 30
0.0
 11
318.832511
 21
13.500114
 31
0.0
  0
LINE
  5
29C
  8
0
  6
CONTINUOUS
 62
     2
 10
318.958197
 20
15.847478
 30
0.0
 11
321.916355
 21
15.847478
 31
0.0
  0
LINE
  5
29D
  8
0
  6
CONTINUOUS
 62
     2
 10
317.197674
 20
13.500114
 30
0.0
 11
318.958197
 21
15.847478
 31
0.0
  0
LINE
  5
29E
  8
0
  6
CONTINUOUS
 62
     2
 10
321.916355
 20
15.847478
 30
0.0
 11
322.503196
 21
13.500114
 31
0.0
  0
LINE
  5
29F
  8
0
  6
CONTINUOUS
 62
     2
 10
319.183663
 20
13.968317
 30
0.0
 11
320.866863
 21
13.968317
 31
0.0
  0
LINE
  5
2A0
  8
0
  6
CONTINUOUS
 62
     2
 10
319.456657
 20
14.33231
 30
0.0
 11
320.775865
 21
14.33231
 31
0.0
  0
LINE
  5
2A1
  8
0
  6
CONTINUOUS
 62
     2
 10
323.196985
 20
13.998523
 30
0.0
 11
323.445249
 21
15.406499
 31
0.0
  0
LINE
  5
2A2
  8
0
  6
CONTINUOUS
 62
     2
 10
327.831948
 20
13.500114
 30
0.0
 11
328.019826
 21
14.565621
 31
0.0
  0
LINE
  5
2A3
  8
0
  6
CONTINUOUS
 62
     2
 10
324.768393
 20
14.319773
 30
0.0
 11
324.92435
 21
15.204245
 31
0.0
  0
LINE
  5
2A4
  8
0
  6
CONTINUOUS
 62
     2
 10
326.317184
 20
13.500114
 30
0.0
 11
326.322066
 21
13.5278
 31
0.0
  0
LINE
  5
2A5
  8
0
  6
CONTINUOUS
 62
     2
 10
325.860851
 20
14.348381
 30
0.0
 11
325.899157
 21
14.565621
 31
0.0
  0
LINE
  5
2A6
  8
0
  6
CONTINUOUS
 62
     2
 10
325.860851
 20
14.348381
 30
0.0
 11
326.466757
 21
14.348381
 31
0.0
  0
ARC
  5
2A7
  8
0
  6
CONTINUOUS
 62
     2
 10
325.9666
 20
2.487822
 30
0.0
 40
13.359655
 50
81.659895
 51
99.80279
  0
ARC
  5
2A8
  8
0
  6
CONTINUOUS
 62
     2
 10
325.433921
 20
26.857901
 30
0.0
 40
13.359655
 50
261.461473
 51
273.811815
  0
ARC
  5
2A9
  8
0
  6
CONTINUOUS
 62
     2
 10
323.743599
 20
15.353892
 30
0.0
 40
0.302953
 50
99.80279
 51
170.0
  0
ARC
  5
2AA
  8
0
  6
CONTINUOUS
 62
     2
 10
323.495335
 20
13.945916
 30
0.0
 40
0.302953
 50
170.0
 51
261.461473
  0
ARC
  5
2AB
  8
0
  6
CONTINUOUS
 62
     2
 10
327.860459
 20
15.406444
 30
0.0
 40
0.302953
 50
350.0
 51
81.659895
  0
LINE
  5
2AC
  8
0
  6
CONTINUOUS
 62
     2
 10
326.597628
 20
15.21191
 30
0.0
 11
328.133784
 21
15.21191
 31
0.0
  0
LINE
  5
2AD
  8
0
  6
CONTINUOUS
 62
     2
 10
328.133784
 20
15.21191
 30
0.0
 11
328.158809
 21
15.353837
 31
0.0
  0
LINE
  5
2AE
  8
0
  6
CONTINUOUS
 62
     2
 10
326.447698
 20
14.240294
 30
0.0
 11
326.466757
 21
14.348381
 31
0.0
  0
ARC
  5
2AF
  8
0
  6
CONTINUOUS
 62
     2
 10
325.761457
 20
12.026658
 30
0.0
 40
3.474034
 50
80.208339
 51
99.781825
  0
ARC
  5
2B0
  8
0
  6
CONTINUOUS
 62
     2
 10
325.533791
 20
17.403665
 30
0.0
 40
3.474034
 50
261.530468
 51
281.193068
  0
ARC
  5
2B1
  8
0
  6
CONTINUOUS
 62
     2
 10
325.2227
 20
15.151638
 30
0.0
 40
0.302953
 50
99.781825
 51
170.0
  0
ARC
  5
2B2
  8
0
  6
CONTINUOUS
 62
     2
 10
326.30075
 20
15.151545
 30
0.0
 40
0.302953
 50
11.493425
 51
80.208339
  0
ARC
  5
2B3
  8
0
  6
CONTINUOUS
 62
     2
 10
325.066744
 20
14.267166
 30
0.0
 40
0.302953
 50
170.0
 51
261.530468
  0
ARC
  5
2B4
  8
0
  6
CONTINUOUS
 62
     2
 10
326.149348
 20
14.292901
 30
0.0
 40
0.302953
 50
281.193068
 51
350.0
  0
LINE
  5
2B5
  8
0
  6
CONTINUOUS
 62
     2
 10
326.317184
 20
13.500114
 30
0.0
 11
327.831948
 21
13.500114
 31
0.0
  0
LINE
  5
2B6
  8
0
  6
CONTINUOUS
 62
     2
 10
320.983914
 20
13.500114
 30
0.0
 11
322.503196
 21
13.500114
 31
0.0
  0
LINE
  5
2B7
  8
0
  6
CONTINUOUS
 62
     2
 10
320.446063
 20
15.651517
 30
0.0
 11
320.775865
 21
14.33231
 31
0.0
  0
LINE
  5
2B8
  8
0
  6
CONTINUOUS
 62
     2
 10
319.456657
 20
14.33231
 30
0.0
 11
320.446063
 21
15.651517
 31
0.0
  0
LINE
  5
2B9
  8
0
  6
CONTINUOUS
 62
     2
 10
320.866863
 20
13.968317
 30
0.0
 11
320.983914
 21
13.500114
 31
0.0
  0
LINE
  5
2BA
  8
0
  6
CONTINUOUS
 62
     2
 10
318.832511
 20
13.500114
 30
0.0
 11
319.183663
 21
13.968317
 31
0.0
  0
LINE
  5
2BB
  8
0
  6
CONTINUOUS
 62
     2
 10
325.899157
 20
14.565621
 30
0.0
 11
328.019826
 21
14.565621
 31
0.0
  0
LINE
  5
2BC
  8
0
  6
CONTINUOUS
 62
     7
 10
0.0
 20
0.0
 30
0.0
 11
420.0
 21
0.0
 31
0.0
  0
LINE
  5
2BD
  8
0
  6
CONTINUOUS
 62
     7
 10
420.0
 20
0.0
 30
0.0
 11
420.0
 21
297.0
 31
0.0
  0
LINE
  5
2BE
  8
0
  6
CONTINUOUS
 62
     7
 10
0.0
 20
297.0
 30
0.0
 11
420.0
 21
297.0
 31
0.0
  0
LINE
  5
2BF
  8
0
  6
CONTINUOUS
 62
     7
 10
0.0
 20
0.0
 30
0.0
 11
0.0
 21
297.0
 31
0.0
  0
LINE
  5
2C0
  8
0
  6
CONTINUOUS
 62
     7
 10
230.0
 20
10.0
 30
0.0
 11
410.0
 21
10.0
 31
0.0
  0
LINE
  5
2C1
  8
0
  6
CONTINUOUS
 62
     7
 10
410.0
 20
62.0
 30
0.0
 11
410.0
 21
10.0
 31
0.0
  0
LINE
  5
2C2
  8
0
  6
CONTINUOUS
 62
     7
 10
0.0
 20
297.0
 30
0.0
 11
0.0
 21
0.0
 31
0.0
  0
LINE
  5
2C3
  8
0
  6
CONTINUOUS
 62
     7
 10
12.5
 20
287.0
 30
0.0
 11
12.5
 21
10.0
 31
0.0
  0
LINE
  5
2C4
  8
0
  6
CONTINUOUS
 62
     7
 10
0.0
 20
0.0
 30
0.0
 11
420.0
 21
0.0
 31
0.0
  0
LINE
  5
2C5
  8
0
  6
CONTINUOUS
 62
     7
 10
410.0
 20
287.0
 30
0.0
 11
12.5
 21
287.0
 31
0.0
  0
LINE
  5
2C6
  8
0
  6
CONTINUOUS
 62
     7
 10
420.0
 20
297.0
 30
0.0
 11
0.0
 21
297.0
 31
0.0
  0
LINE
  5
2C7
  8
0
  6
CONTINUOUS
 62
     7
 10
410.0
 20
10.0
 30
0.0
 11
410.0
 21
287.0
 31
0.0
  0
LINE
  5
2C8
  8
0
  6
CONTINUOUS
 62
     7
 10
420.0
 20
0.0
 30
0.0
 11
420.0
 21
297.0
 31
0.0
  0
LINE
  5
2C9
  8
0
  6
CONTINUOUS
 62
     7
 10
230.0
 20
10.0
 30
0.0
 11
410.0
 21
10.0
 31
0.0
  0
LINE
  5
2CA
  8
0
  6
CONTINUOUS
 62
     7
 10
410.0
 20
62.0
 30
0.0
 11
410.0
 21
10.0
 31
0.0
  0
LINE
  5
2CB
  8
0
  6
CONTINUOUS
 62
     7
 10
0.0
 20
297.0
 30
0.0
 11
0.0
 21
0.0
 31
0.0
  0
LINE
  5
2CC
  8
0
  6
CONTINUOUS
 62
     7
 10
0.0
 20
0.0
 30
0.0
 11
420.0
 21
0.0
 31
0.0
  0
LINE
  5
2CD
  8
0
  6
CONTINUOUS
 62
     7
 10
12.5
 20
10.0
 30
0.0
 11
410.0
 21
10.0
 31
0.0
  0
LINE
  5
2CE
  8
0
  6
CONTINUOUS
 62
     7
 10
410.0
 20
287.0
 30
0.0
 11
22.5
 21
287.0
 31
0.0
  0
LINE
  5
2CF
  8
0
  6
CONTINUOUS
 62
     7
 10
420.0
 20
297.0
 30
0.0
 11
0.0
 21
297.0
 31
0.0
  0
LINE
  5
2D0
  8
0
  6
CONTINUOUS
 62
     7
 10
410.0
 20
10.0
 30
0.0
 11
410.0
 21
287.0
 31
0.0
  0
LINE
  5
2D1
  8
0
  6
CONTINUOUS
 62
     7
 10
420.0
 20
0.0
 30
0.0
 11
420.0
 21
297.0
 31
0.0
  0
LINE
  5
2D2
  8
0
  6
CONTINUOUS
 62
     7
 10
230.041806
 20
0.034778
 30
0.0
 11
230.010677
 21
2.521901
 31
0.0
  0
TEXT
  5
2D3
  8
0
  6
CONTINUOUS
 62
     3
 10
23998.493778
 20
18705.501722
 30
0.0
 40
88.9
  1
  
 41
0.785714
 51
15.0
  0
TEXT
  5
2D4
  8
0
  6
CONTINUOUS
 62
     3
 10
23777.301193
 20
18416.618944
 30
0.0
 40
88.9
  1
  
 41
0.785714
 51
15.0
  0
TEXT
  5
2D5
  8
0
  6
CONTINUOUS
 62
     3
 10
18449.582794
 20
13315.236963
 30
0.0
 40
88.9
  1
  
 41
0.785714
 51
15.0
  0
TEXT
  5
2D6
  8
0
  6
CONTINUOUS
 62
     3
 10
18228.390209
 20
13026.354186
 30
0.0
 40
88.9
  1
  
 41
0.785714
 51
15.0
  0
TEXT
  5
2D7
  8
0
  6
CONTINUOUS
 62
     4
 10
330.914129
 20
13.554426
 30
0.0
 40
2.423622
  1
FL-9494 SCHAAN
 41
0.778912
 51
15.0
  0
LINE
  5
2D8
  8
0
  6
CONTINUOUS
 62
     7
 10
342.298591
 20
102.358763
 30
0.0
 11
342.298591
 21
67.363291
 31
0.0
  0
LINE
  5
2D9
  8
0
  6
CONTINUOUS
 62
     7
 10
342.298591
 20
67.363291
 30
0.0
 11
362.298494
 21
67.363291
 31
0.0
  0
LINE
  5
2DA
  8
0
  6
CONTINUOUS
 62
     7
 10
362.298494
 20
102.358763
 30
0.0
 11
362.298494
 21
67.363291
 31
0.0
  0
LINE
  5
2DB
  8
0
  6
CONTINUOUS
 62
     7
 10
342.298591
 20
102.358763
 30
0.0
 11
362.298494
 21
102.358763
 31
0.0
  0
CIRCLE
  5
2DC
  8
0
  6
CONTINUOUS
 62
     7
 10
356.295315
 20
81.360535
 30
0.0
 40
2.500001
  0
CIRCLE
  5
2DD
  8
0
  6
CONTINUOUS
 62
     7
 10
356.295315
 20
88.360537
 30
0.0
 40
2.500001
  0
CIRCLE
  5
2DE
  8
0
  6
CONTINUOUS
 62
     7
 10
356.295315
 20
95.36054
 30
0.0
 40
2.500001
  0
LINE
  5
2DF
  8
0
  6
CONTINUOUS
 62
     7
 10
380.533194
 20
102.358763
 30
0.0
 11
380.533194
 21
81.358542
 31
0.0
  0
LINE
  5
2E0
  8
0
  6
CONTINUOUS
 62
     7
 10
380.533194
 20
81.358542
 30
0.0
 11
397.397799
 21
81.358542
 31
0.0
  0
LINE
  5
2E1
  8
0
  6
CONTINUOUS
 62
     7
 10
397.397799
 20
102.358763
 30
0.0
 11
397.397799
 21
81.358542
 31
0.0
  0
CIRCLE
  5
2E2
  8
0
  6
CONTINUOUS
 62
     7
 10
385.533631
 20
98.0092
 30
0.0
 40
2.5
  0
CIRCLE
  5
2E3
  8
0
  6
CONTINUOUS
 62
     7
 10
385.53564
 20
85.706775
 30
0.0
 40
2.5
  0
CIRCLE
  5
2E4
  8
0
  6
CONTINUOUS
 62
     7
 10
356.295315
 20
74.360532
 30
0.0
 40
2.500001
  0
LINE
  5
2E5
  8
0
  6
CONTINUOUS
 62
     7
 10
358.784955
 20
74.360532
 30
0.0
 11
366.38332
 21
74.360532
 31
0.0
  0
LINE
  5
2E6
  8
0
  6
CONTINUOUS
 62
     7
 10
358.784955
 20
81.587898
 30
0.0
 11
366.38332
 21
81.587898
 31
0.0
  0
LINE
  5
2E7
  8
0
  6
CONTINUOUS
 62
     7
 10
366.38332
 20
98.01311
 30
0.0
 11
370.807085
 21
98.01311
 31
0.0
  0
LINE
  5
2E8
  8
0
  6
CONTINUOUS
 62
     7
 10
366.38332
 20
85.712054
 30
0.0
 11
370.807085
 21
85.712054
 31
0.0
  0
LINE
  5
2E9
  8
0
  6
CONTINUOUS
 62
     7
 10
358.795315
 20
95.36054
 30
0.0
 11
366.38332
 21
95.36054
 31
0.0
  0
LINE
  5
2EA
  8
0
  6
CONTINUOUS
 62
     7
 10
358.795315
 20
88.360537
 30
0.0
 11
366.38332
 21
88.360537
 31
0.0
  0
LINE
  5
2EB
  8
0
  6
CONTINUOUS
 62
     7
 10
366.38332
 20
88.360537
 30
0.0
 11
366.38332
 21
85.712054
 31
0.0
  0
LINE
  5
2EC
  8
0
  6
CONTINUOUS
 62
     7
 10
366.38332
 20
95.36054
 30
0.0
 11
366.38332
 21
98.01311
 31
0.0
  0
LINE
  5
2ED
  8
0
  6
CONTINUOUS
 62
     7
 10
370.807085
 20
98.01311
 30
0.0
 11
370.807085
 21
96.825724
 31
0.0
  0
LINE
  5
2EE
  8
0
  6
CONTINUOUS
 62
     7
 10
383.03564
 20
98.0092
 30
0.0
 11
374.810574
 21
98.0092
 31
0.0
  0
LINE
  5
2EF
  8
0
  6
CONTINUOUS
 62
     7
 10
383.03564
 20
85.706775
 30
0.0
 11
374.810574
 21
85.706775
 31
0.0
  0
LINE
  5
2F0
  8
0
  6
CONTINUOUS
 62
     7
 10
374.810574
 20
98.0092
 30
0.0
 11
374.810574
 21
96.820445
 31
0.0
  0
LINE
  5
2F1
  8
0
  6
CONTINUOUS
 62
     7
 10
373.917635
 20
96.820445
 30
0.0
 11
375.681852
 21
96.820445
 31
0.0
  0
LINE
  5
2F2
  8
0
  6
CONTINUOUS
 62
     7
 10
375.681852
 20
96.820445
 30
0.0
 11
375.681852
 21
86.887139
 31
0.0
  0
LINE
  5
2F3
  8
0
  6
CONTINUOUS
 62
     7
 10
373.917635
 20
86.887139
 30
0.0
 11
375.681852
 21
86.887139
 31
0.0
  0
LINE
  5
2F4
  8
0
  6
CONTINUOUS
 62
     7
 10
373.917635
 20
96.820445
 30
0.0
 11
373.917635
 21
86.887139
 31
0.0
  0
LINE
  5
2F5
  8
0
  6
CONTINUOUS
 62
     7
 10
370.807085
 20
86.892418
 30
0.0
 11
370.807085
 21
85.712054
 31
0.0
  0
LINE
  5
2F6
  8
0
  6
CONTINUOUS
 62
     7
 10
374.810574
 20
85.706775
 30
0.0
 11
374.810574
 21
86.887139
 31
0.0
  0
LINE
  5
2F7
  8
0
  6
CONTINUOUS
 62
     7
 10
369.914146
 20
96.825724
 30
0.0
 11
371.678363
 21
96.825724
 31
0.0
  0
LINE
  5
2F8
  8
0
  6
CONTINUOUS
 62
     7
 10
371.678363
 20
96.825724
 30
0.0
 11
371.678363
 21
86.892418
 31
0.0
  0
LINE
  5
2F9
  8
0
  6
CONTINUOUS
 62
     7
 10
369.914146
 20
86.892418
 30
0.0
 11
371.678363
 21
86.892418
 31
0.0
  0
LINE
  5
2FA
  8
0
  6
CONTINUOUS
 62
     7
 10
369.914146
 20
96.825724
 30
0.0
 11
369.914146
 21
86.892418
 31
0.0
  0
LINE
  5
2FB
  8
0
  6
CONTINUOUS
 62
     7
 10
372.811536
 20
97.430125
 30
0.0
 11
372.811536
 21
86.356747
 31
0.0
  0
LINE
  5
2FC
  8
0
  6
CONTINUOUS
 62
     7
 10
364.114887
 20
95.36054
 30
0.0
 11
364.114887
 21
93.853191
 31
0.0
  0
LINE
  5
2FD
  8
0
  6
CONTINUOUS
 62
     7
 10
363.456778
 20
93.853191
 30
0.0
 11
363.456778
 21
90.330376
 31
0.0
  0
LINE
  5
2FE
  8
0
  6
CONTINUOUS
 62
     7
 10
364.773679
 20
93.853191
 30
0.0
 11
364.773679
 21
90.330376
 31
0.0
  0
LINE
  5
2FF
  8
0
  6
CONTINUOUS
 62
     7
 10
363.456778
 20
93.853191
 30
0.0
 11
364.773679
 21
93.853191
 31
0.0
  0
LINE
  5
300
  8
0
  6
CONTINUOUS
 62
     7
 10
363.456778
 20
90.330376
 30
0.0
 11
364.773679
 21
90.330376
 31
0.0
  0
LINE
  5
301
  8
0
  6
CONTINUOUS
 62
     7
 10
364.114887
 20
88.360537
 30
0.0
 11
364.114887
 21
90.330376
 31
0.0
  0
CIRCLE
  5
302
  8
0
  6
CONTINUOUS
 62
     7
 10
364.114887
 20
88.360537
 30
0.0
 40
0.5
  0
CIRCLE
  5
303
  8
0
  6
CONTINUOUS
 62
     7
 10
364.114887
 20
95.36054
 30
0.0
 40
0.5
  0
CIRCLE
  5
304
  8
0
  6
CONTINUOUS
 62
     7
 10
368.181808
 20
96.998875
 30
0.0
 40
0.5
  0
CIRCLE
  5
305
  8
0
  6
CONTINUOUS
 62
     7
 10
377.441264
 20
96.998875
 30
0.0
 40
0.5
  0
LINE
  5
306
  8
0
  6
CONTINUOUS
 62
     7
 10
380.533194
 20
102.358763
 30
0.0
 11
397.397799
 21
102.358763
 31
0.0
  0
LINE
  5
307
  8
0
  6
CONTINUOUS
 62
     7
 10
366.38332
 20
81.587898
 30
0.0
 11
366.38332
 21
74.360532
 31
0.0
  0
LINE
  5
308
  8
0
  6
CONTINUOUS
 62
     7
 10
276.25
 20
245.349633
 30
0.0
 11
276.25
 21
245.252156
 31
0.0
  0
LINE
  5
316
  8
0
  6
CONTINUOUS
 62
     7
 10
276.25
 20
228.949633
 30
0.0
 11
276.25
 21
199.849633
 31
0.0
  0
LINE
  5
317
  8
0
  6
CONTINUOUS
 62
     7
 10
276.25
 20
199.849633
 30
0.0
 11
276.25
 21
199.759339
 31
0.0
  0
LINE
  5
318
  8
0
  6
CONTINUOUS
 62
     7
 10
276.25
 20
199.759339
 30
0.0
 11
276.25
 21
198.939928
 31
0.0
  0
LINE
  5
319
  8
0
  6
CONTINUOUS
 62
     7
 10
276.25
 20
198.939928
 30
0.0
 11
276.25
 21
198.849633
 31
0.0
  0
LINE
  5
31A
  8
0
  6
CONTINUOUS
 62
     7
 10
276.25
 20
198.849633
 30
0.0
 11
276.25
 21
190.349633
 31
0.0
  0
LINE
  5
31B
  8
0
  6
CONTINUOUS
 62
     7
 10
276.25
 20
190.349633
 30
0.0
 11
276.25
 21
190.002967
 31
0.0
  0
LINE
  5
31C
  8
0
  6
CONTINUOUS
 62
     7
 10
276.25
 20
190.002967
 30
0.0
 11
276.25
 21
189.233814
 31
0.0
  0
LINE
  5
31D
  8
0
  6
CONTINUOUS
 62
     7
 10
276.25
 20
189.233814
 30
0.0
 11
276.25
 21
188.357918
 31
0.0
  0
LINE
  5
31E
  8
0
  6
CONTINUOUS
 62
     7
 10
276.25
 20
188.357918
 30
0.0
 11
276.25
 21
188.317704
 31
0.0
  0
LINE
  5
31F
  8
0
  6
CONTINUOUS
 62
     7
 10
276.25
 20
188.317704
 30
0.0
 11
276.25
 21
188.237859
 31
0.0
  0
LINE
  5
320
  8
0
  6
CONTINUOUS
 62
     7
 10
276.25
 20
188.237859
 30
0.0
 11
276.25
 21
187.749913
 31
0.0
  0
LINE
  5
321
  8
0
  6
CONTINUOUS
 62
     7
 10
276.25
 20
187.749913
 30
0.0
 11
276.25
 21
187.670838
 31
0.0
  0
LINE
  5
322
  8
0
  6
CONTINUOUS
 62
     7
 10
276.25
 20
187.670838
 30
0.0
 11
276.25
 21
183.44711
 31
0.0
  0
LINE
  5
323
  8
0
  6
CONTINUOUS
 62
     7
 10
276.25
 20
183.44711
 30
0.0
 11
276.25
 21
183.349633
 31
0.0
  0
LINE
  5
324
  8
0
  6
CONTINUOUS
 62
     7
 10
285.65
 20
236.98851
 30
0.0
 11
285.65
 21
236.754756
 31
0.0
  0
LINE
  5
325
  8
0
  6
CONTINUOUS
 62
     7
 10
285.65
 20
236.754756
 30
0.0
 11
285.65
 21
235.933949
 31
0.0
  0
LINE
  5
326
  8
0
  6
CONTINUOUS
 62
     7
 10
285.65
 20
235.933949
 30
0.0
 11
285.65
 21
214.349633
 31
0.0
  0
ARC
  5
327
  8
0
  6
CONTINUOUS
 62
     7
 10
284.85
 20
236.98851
 30
0.0
 40
0.8
 50
0.0
 51
88.0
  0
LINE
  5
328
  8
0
  6
CONTINUOUS
 62
     7
 10
285.65
 20
236.935734
 30
0.0
 11
285.65
 21
236.930829
 31
0.0
  0
LINE
  5
329
  8
0
  6
CONTINUOUS
 62
     7
 10
285.65
 20
236.930829
 30
0.0
 11
285.65
 21
235.933949
 31
0.0
  0
LINE
  5
32A
  8
0
  6
CONTINUOUS
 62
     7
 10
285.65
 20
235.933949
 30
0.0
 11
285.65
 21
214.349633
 31
0.0
  0
ARC
  5
32B
  8
0
  6
CONTINUOUS
 62
     7
 10
284.85
 20
191.710756
 30
0.0
 40
0.8
 50
272.0
 51
0.0
  0
LINE
  5
32C
  8
0
  6
CONTINUOUS
 62
     7
 10
285.65
 20
191.763533
 30
0.0
 11
285.65
 21
191.710756
 31
0.0
  0
LINE
  5
32D
  8
0
  6
CONTINUOUS
 62
     7
 10
285.65
 20
214.349633
 30
0.0
 11
285.65
 21
192.765317
 31
0.0
  0
LINE
  5
32E
  8
0
  6
CONTINUOUS
 62
     7
 10
285.65
 20
192.765317
 30
0.0
 11
285.65
 21
191.763533
 31
0.0
  0
LINE
  5
32F
  8
0
  6
CONTINUOUS
 62
     7
 10
280.25
 20
244.437399
 30
0.0
 11
280.25
 21
244.241918
 31
0.0
  0
LINE
  5
330
  8
0
  6
CONTINUOUS
 62
     7
 10
280.25
 20
244.241918
 30
0.0
 11
280.25
 21
238.349633
 31
0.0
  0
LINE
  5
331
  8
0
  6
CONTINUOUS
 62
     7
 10
276.25
 20
245.349633
 30
0.0
 11
279.47792
 21
245.236912
 31
0.0
  0
LINE
  5
332
  8
0
  6
CONTINUOUS
 62
     7
 10
276.25
 20
183.349633
 30
0.0
 11
279.47792
 21
183.462355
 31
0.0
  0
ARC
  5
333
  8
0
  6
CONTINUOUS
 62
     7
 10
279.45
 20
244.437399
 30
0.0
 40
0.8
 50
77.939111
 51
88.0
  0
ARC
  5
334
  8
0
  6
CONTINUOUS
 62
     7
 10
279.45
 20
244.437399
 30
0.0
 40
0.8
 50
0.0
 51
77.939111
  0
ARC
  5
335
  8
0
  6
CONTINUOUS
 62
     7
 10
279.45
 20
244.437399
 30
0.0
 40
0.8
 50
0.0
 51
77.946542
  0
ARC
  5
336
  8
0
  6
CONTINUOUS
 62
     7
 10
279.45
 20
244.437399
 30
0.0
 40
0.8
 50
77.946542
 51
88.0
  0
LINE
  5
337
  8
0
  6
CONTINUOUS
 62
     7
 10
280.25
 20
244.437399
 30
0.0
 11
280.25
 21
244.175262
 31
0.0
  0
LINE
  5
338
  8
0
  6
CONTINUOUS
 62
     7
 10
280.25
 20
244.175262
 30
0.0
 11
280.25
 21
238.349633
 31
0.0
  0
ARC
  5
339
  8
0
  6
CONTINUOUS
 62
     7
 10
279.45
 20
184.261867
 30
0.0
 40
0.8
 50
272.0
 51
282.060866
  0
ARC
  5
33A
  8
0
  6
CONTINUOUS
 62
     7
 10
279.45
 20
184.261867
 30
0.0
 40
0.8
 50
282.060866
 51
349.939271
  0
ARC
  5
33B
  8
0
  6
CONTINUOUS
 62
     7
 10
279.45
 20
184.261867
 30
0.0
 40
0.8
 50
349.939271
 51
0.0
  0
ARC
  5
33C
  8
0
  6
CONTINUOUS
 62
     7
 10
279.45
 20
184.261867
 30
0.0
 40
0.8
 50
349.946703
 51
360.0
  0
ARC
  5
33D
  8
0
  6
CONTINUOUS
 62
     7
 10
279.45
 20
184.261867
 30
0.0
 40
0.8
 50
282.053435
 51
349.946703
  0
ARC
  5
33E
  8
0
  6
CONTINUOUS
 62
     7
 10
279.45
 20
184.261867
 30
0.0
 40
0.8
 50
272.0
 51
282.053435
  0
LINE
  5
33F
  8
0
  6
CONTINUOUS
 62
     7
 10
280.25
 20
190.349633
 30
0.0
 11
280.25
 21
185.349858
 31
0.0
  0
LINE
  5
340
  8
0
  6
CONTINUOUS
 62
     7
 10
280.25
 20
185.349858
 30
0.0
 11
280.25
 21
185.287841
 31
0.0
  0
LINE
  5
341
  8
0
  6
CONTINUOUS
 62
     7
 10
280.25
 20
185.287841
 30
0.0
 11
280.25
 21
184.261867
 31
0.0
  0
LINE
  5
342
  8
0
  6
CONTINUOUS
 62
     7
 10
280.25
 20
238.349633
 30
0.0
 11
280.25
 21
190.349633
 31
0.0
  0
ARC
  5
343
  8
0
  6
CONTINUOUS
 62
     7
 10
281.05
 20
238.722184
 30
0.0
 40
0.8
 50
205.278967
 51
268.0
  0
ARC
  5
344
  8
0
  6
CONTINUOUS
 62
     7
 10
281.05
 20
238.722184
 30
0.0
 40
0.8
 50
197.599991
 51
205.278967
  0
ARC
  5
345
  8
0
  6
CONTINUOUS
 62
     7
 10
281.05
 20
238.722184
 30
0.0
 40
0.8
 50
180.000009
 51
197.599991
  0
ARC
  5
346
  8
0
  6
CONTINUOUS
 62
     7
 10
281.05
 20
189.977082
 30
0.0
 40
0.8
 50
92.0
 51
154.721033
  0
ARC
  5
347
  8
0
  6
CONTINUOUS
 62
     7
 10
281.05
 20
189.977082
 30
0.0
 40
0.8
 50
154.721033
 51
162.400009
  0
ARC
  5
348
  8
0
  6
CONTINUOUS
 62
     7
 10
281.05
 20
189.977082
 30
0.0
 40
0.8
 50
162.400009
 51
179.999991
  0
LINE
  5
349
  8
0
  6
CONTINUOUS
 62
     7
 10
281.02208
 20
237.922672
 30
0.0
 11
284.87792
 21
237.788023
 31
0.0
  0
LINE
  5
34A
  8
0
  6
CONTINUOUS
 62
     7
 10
281.02208
 20
190.776595
 30
0.0
 11
284.87792
 21
190.911244
 31
0.0
  0
LINE
  5
34B
  8
0
  6
CONTINUOUS
 62
     7
 10
280.25
 20
238.349633
 30
0.0
 11
280.25
 21
190.349633
 31
0.0
  0
LINE
  5
34C
  8
0
  6
CONTINUOUS
 62
     7
 10
280.25
 20
190.349633
 30
0.0
 11
280.25
 21
185.35368
 31
0.0
  0
LINE
  5
34D
  8
0
  6
CONTINUOUS
 62
     7
 10
280.25
 20
185.35368
 30
0.0
 11
280.25
 21
184.261867
 31
0.0
  0
LINE
  5
34E
  8
0
  6
CONTINUOUS
 62
     7
 10
285.65
 20
214.349633
 30
0.0
 11
285.65
 21
192.765317
 31
0.0
  0
LINE
  5
34F
  8
0
  6
CONTINUOUS
 62
     7
 10
285.65
 20
192.765317
 30
0.0
 11
285.65
 21
191.951474
 31
0.0
  0
LINE
  5
350
  8
0
  6
CONTINUOUS
 62
     7
 10
285.65
 20
191.951474
 30
0.0
 11
285.65
 21
191.710757
 31
0.0
  0
LINE
  5
351
  8
0
  6
CONTINUOUS
 62
     7
 10
146.25
 20
238.349633
 30
0.0
 11
146.25
 21
238.6963
 31
0.0
  0
LINE
  5
352
  8
0
  6
CONTINUOUS
 62
     7
 10
146.25
 20
238.6963
 30
0.0
 11
146.25
 21
239.09435
 31
0.0
  0
LINE
  5
353
  8
0
  6
CONTINUOUS
 62
     7
 10
146.25
 20
239.09435
 30
0.0
 11
146.25
 21
240.341349
 31
0.0
  0
LINE
  5
354
  8
0
  6
CONTINUOUS
 62
     7
 10
146.25
 20
240.341349
 30
0.0
 11
146.25
 21
240.461407
 31
0.0
  0
LINE
  5
355
  8
0
  6
CONTINUOUS
 62
     7
 10
146.25
 20
240.461407
 30
0.0
 11
146.25
 21
240.949353
 31
0.0
  0
LINE
  5
356
  8
0
  6
CONTINUOUS
 62
     7
 10
146.25
 20
240.949353
 30
0.0
 11
146.25
 21
245.349633
 31
0.0
  0
LINE
  5
357
  8
0
  6
CONTINUOUS
 62
     7
 10
146.25
 20
190.349633
 30
0.0
 11
146.25
 21
198.849633
 31
0.0
  0
LINE
  5
358
  8
0
  6
CONTINUOUS
 62
     7
 10
146.25
 20
198.849633
 30
0.0
 11
146.25
 21
198.939928
 31
0.0
  0
LINE
  5
359
  8
0
  6
CONTINUOUS
 62
     7
 10
146.25
 20
198.939928
 30
0.0
 11
146.25
 21
199.759339
 31
0.0
  0
LINE
  5
35A
  8
0
  6
CONTINUOUS
 62
     7
 10
146.25
 20
199.759339
 30
0.0
 11
146.25
 21
199.849633
 31
0.0
  0
LINE
  5
35B
  8
0
  6
CONTINUOUS
 62
     7
 10
146.25
 20
199.849633
 30
0.0
 11
146.25
 21
228.949633
 31
0.0
  0
LINE
  5
35C
  8
0
  6
CONTINUOUS
 62
     7
 10
146.25
 20
228.949633
 30
0.0
 11
146.25
 21
229.349633
 31
0.0
  0
LINE
  5
35D
  8
0
  6
CONTINUOUS
 62
     7
 10
146.25
 20
229.349633
 30
0.0
 11
146.25
 21
229.749633
 31
0.0
  0
LINE
  5
35E
  8
0
  6
CONTINUOUS
 62
     7
 10
146.25
 20
229.749633
 30
0.0
 11
146.25
 21
238.349633
 31
0.0
  0
LINE
  5
35F
  8
0
  6
CONTINUOUS
 62
     7
 10
142.25
 20
184.149633
 30
0.0
 11
142.25
 21
184.502062
 31
0.0
  0
LINE
  5
360
  8
0
  6
CONTINUOUS
 62
     7
 10
142.25
 20
184.502062
 30
0.0
 11
142.25
 21
190.349633
 31
0.0
  0
ARC
  5
361
  8
0
  6
CONTINUOUS
 62
     7
 10
143.05
 20
184.149633
 30
0.0
 40
0.8
 50
260.999968
 51
270.0
  0
ARC
  5
362
  8
0
  6
CONTINUOUS
 62
     7
 10
143.05
 20
184.149633
 30
0.0
 40
0.8
 50
180.0
 51
260.999968
  0
ARC
  5
363
  8
0
  6
CONTINUOUS
 62
     7
 10
143.05
 20
184.149633
 30
0.0
 40
0.8
 50
180.0
 51
260.999968
  0
ARC
  5
364
  8
0
  6
CONTINUOUS
 62
     7
 10
143.05
 20
184.149633
 30
0.0
 40
0.8
 50
260.999968
 51
270.0
  0
LINE
  5
365
  8
0
  6
CONTINUOUS
 62
     7
 10
142.25
 20
184.149633
 30
0.0
 11
142.25
 21
184.416603
 31
0.0
  0
LINE
  5
366
  8
0
  6
CONTINUOUS
 62
     7
 10
142.25
 20
184.416603
 30
0.0
 11
142.25
 21
190.349633
 31
0.0
  0
ARC
  5
367
  8
0
  6
CONTINUOUS
 62
     7
 10
143.05
 20
244.549633
 30
0.0
 40
0.8
 50
90.0
 51
99.000018
  0
ARC
  5
368
  8
0
  6
CONTINUOUS
 62
     7
 10
143.05
 20
244.549633
 30
0.0
 40
0.8
 50
99.000018
 51
171.000165
  0
ARC
  5
369
  8
0
  6
CONTINUOUS
 62
     7
 10
143.05
 20
244.549633
 30
0.0
 40
0.8
 50
171.000165
 51
180.0
  0
ARC
  5
36A
  8
0
  6
CONTINUOUS
 62
     7
 10
143.05
 20
244.549633
 30
0.0
 40
0.8
 50
171.000166
 51
180.0
  0
ARC
  5
36B
  8
0
  6
CONTINUOUS
 62
     7
 10
143.05
 20
244.549633
 30
0.0
 40
0.8
 50
99.000018
 51
171.000166
  0
ARC
  5
36C
  8
0
  6
CONTINUOUS
 62
     7
 10
143.05
 20
244.549633
 30
0.0
 40
0.8
 50
90.0
 51
99.000018
  0
LINE
  5
36D
  8
0
  6
CONTINUOUS
 62
     7
 10
142.25
 20
238.349633
 30
0.0
 11
142.25
 21
243.142298
 31
0.0
  0
LINE
  5
36E
  8
0
  6
CONTINUOUS
 62
     7
 10
142.25
 20
243.142298
 30
0.0
 11
142.25
 21
244.549633
 31
0.0
  0
LINE
  5
36F
  8
0
  6
CONTINUOUS
 62
     7
 10
142.25
 20
190.349633
 30
0.0
 11
142.25
 21
238.349633
 31
0.0
  0
LINE
  5
370
  8
0
  6
CONTINUOUS
 62
     7
 10
136.85
 20
190.749633
 30
0.0
 11
136.85
 21
193.771974
 31
0.0
  0
LINE
  5
371
  8
0
  6
CONTINUOUS
 62
     7
 10
136.85
 20
193.771974
 30
0.0
 11
136.85
 21
193.84987
 31
0.0
  0
LINE
  5
372
  8
0
  6
CONTINUOUS
 62
     7
 10
136.85
 20
193.84987
 30
0.0
 11
136.85
 21
193.904798
 31
0.0
  0
LINE
  5
373
  8
0
  6
CONTINUOUS
 62
     7
 10
136.85
 20
193.904798
 30
0.0
 11
136.85
 21
233.85758
 31
0.0
  0
LINE
  5
374
  8
0
  6
CONTINUOUS
 62
     7
 10
136.85
 20
233.85758
 30
0.0
 11
136.85
 21
234.041081
 31
0.0
  0
LINE
  5
375
  8
0
  6
CONTINUOUS
 62
     7
 10
136.85
 20
234.041081
 30
0.0
 11
136.85
 21
234.938377
 31
0.0
  0
LINE
  5
376
  8
0
  6
CONTINUOUS
 62
     7
 10
136.85
 20
234.938377
 30
0.0
 11
136.85
 21
235.149633
 31
0.0
  0
LINE
  5
377
  8
0
  6
CONTINUOUS
 62
     7
 10
136.85
 20
235.149633
 30
0.0
 11
136.85
 21
236.398678
 31
0.0
  0
LINE
  5
378
  8
0
  6
CONTINUOUS
 62
     7
 10
142.25
 20
190.749633
 30
0.0
 11
136.85
 21
190.749633
 31
0.0
  0
LINE
  5
379
  8
0
  6
CONTINUOUS
 62
     7
 10
146.25
 20
183.349633
 30
0.0
 11
146.25
 21
183.392107
 31
0.0
  0
LINE
  5
37A
  8
0
  6
CONTINUOUS
 62
     7
 10
146.25
 20
183.392107
 30
0.0
 11
146.25
 21
186.849633
 31
0.0
  0
LINE
  5
37B
  8
0
  6
CONTINUOUS
 62
     7
 10
146.25
 20
186.849633
 30
0.0
 11
146.25
 21
187.749913
 31
0.0
  0
LINE
  5
37C
  8
0
  6
CONTINUOUS
 62
     7
 10
146.25
 20
187.749913
 30
0.0
 11
146.25
 21
188.237859
 31
0.0
  0
LINE
  5
37D
  8
0
  6
CONTINUOUS
 62
     7
 10
146.25
 20
188.237859
 30
0.0
 11
146.25
 21
188.357918
 31
0.0
  0
LINE
  5
37E
  8
0
  6
CONTINUOUS
 62
     7
 10
146.25
 20
188.357918
 30
0.0
 11
146.25
 21
190.002967
 31
0.0
  0
LINE
  5
37F
  8
0
  6
CONTINUOUS
 62
     7
 10
146.25
 20
190.002967
 30
0.0
 11
146.25
 21
190.349633
 31
0.0
  0
LINE
  5
380
  8
0
  6
CONTINUOUS
 62
     7
 10
146.25
 20
183.349633
 30
0.0
 11
143.05
 21
183.349633
 31
0.0
  0
LINE
  5
381
  8
0
  6
CONTINUOUS
 62
     7
 10
142.25
 20
238.349633
 30
0.0
 11
142.25
 21
243.349409
 31
0.0
  0
LINE
  5
382
  8
0
  6
CONTINUOUS
 62
     7
 10
142.25
 20
243.349409
 30
0.0
 11
142.25
 21
244.549633
 31
0.0
  0
LINE
  5
383
  8
0
  6
CONTINUOUS
 62
     7
 10
142.25
 20
190.349633
 30
0.0
 11
142.25
 21
238.349633
 31
0.0
  0
LINE
  5
384
  8
0
  6
CONTINUOUS
 62
     7
 10
146.25
 20
245.349633
 30
0.0
 11
143.05
 21
245.349633
 31
0.0
  0
LINE
  5
385
  8
0
  6
CONTINUOUS
 62
     7
 10
146.25
 20
183.349633
 30
0.0
 11
143.05
 21
183.349633
 31
0.0
  0
POLYLINE
  8
0
  5
640
  62
7
  66
     1
 10
0.000000
 20
0.000000
 30
0.000000
  70
     8
  0
VERTEX
  8
0
  5
641
 10
137.591
 20
236.743
 30
0.000000
  70
    32
  0
VERTEX
  8
0
  5
642
 10
137.587
 20
236.743
 30
0.000000
  70
    32
  0
VERTEX
  8
0
  5
643
 10
137.583
 20
236.743
 30
0.000000
  70
    32
  0
VERTEX
  8
0
  5
644
 10
137.580
 20
236.742
 30
0.000000
  70
    32
  0
VERTEX
  8
0
  5
645
 10
137.576
 20
236.742
 30
0.000000
  70
    32
  0
VERTEX
  8
0
  5
646
 10
137.572
 20
236.742
 30
0.000000
  70
    32
  0
VERTEX
  8
0
  5
647
 10
137.568
 20
236.741
 30
0.000000
  70
    32
  0
VERTEX
  8
0
  5
648
 10
137.564
 20
236.741
 30
0.000000
  70
    32
  0
VERTEX
  8
0
  5
649
 10
137.560
 20
236.741
 30
0.000000
  70
    32
  0
VERTEX
  8
0
  5
64A
 10
137.556
 20
236.740
 30
0.000000
  70
    32
  0
VERTEX
  8
0
  5
64B
 10
137.553
 20
236.740
 30
0.000000
  70
    32
  0
VERTEX
  8
0
  5
64C
 10
137.549
 20
236.739
 30
0.000000
  70
    32
  0
VERTEX
  8
0
  5
64D
 10
137.545
 20
236.739
 30
0.000000
  70
    32
  0
VERTEX
  8
0
  5
64E
 10
137.541
 20
236.739
 30
0.000000
  70
    32
  0
VERTEX
  8
0
  5
64F
 10
137.537
 20
236.738
 30
0.000000
  70
    32
  0
VERTEX
  8
0
  5
650
 10
137.533
 20
236.738
 30
0.000000
  70
    32
  0
VERTEX
  8
0
  5
651
 10
137.529
 20
236.737
 30
0.000000
  70
    32
  0
VERTEX
  8
0
  5
652
 10
137.525
 20
236.737
 30
0.000000
  70
    32
  0
VERTEX
  8
0
  5
653
 10
137.522
 20
236.736
 30
0.000000
  70
    32
  0
VERTEX
  8
0
  5
654
 10
137.518
 20
236.736
 30
0.000000
  70
    32
  0
VERTEX
  8
0
  5
655
 10
137.514
 20
236.735
 30
0.000000
  70
    32
  0
VERTEX
  8
0
  5
656
 10
137.510
 20
236.735
 30
0.000000
  70
    32
  0
VERTEX
  8
0
  5
657
 10
137.506
 20
236.735
 30
0.000000
  70
    32
  0
VERTEX
  8
0
  5
658
 10
137.502
 20
236.734
 30
0.000000
  70
    32
  0
VERTEX
  8
0
  5
659
 10
137.498
 20
236.734
 30
0.000000
  70
    32
  0
VERTEX
  8
0
  5
65A
 10
137.495
 20
236.733
 30
0.000000
  70
    32
  0
VERTEX
  8
0
  5
65B
 10
137.491
 20
236.733
 30
0.000000
  70
    32
  0
VERTEX
  8
0
  5
65C
 10
137.487
 20
236.732
 30
0.000000
  70
    32
  0
VERTEX
  8
0
  5
65D
 10
137.483
 20
236.732
 30
0.000000
  70
    32
  0
VERTEX
  8
0
  5
65E
 10
137.479
 20
236.731
 30
0.000000
  70
    32
  0
VERTEX
  8
0
  5
65F
 10
137.475
 20
236.731
 30
0.000000
  70
    32
  0
VERTEX
  8
0
  5
660
 10
137.471
 20
236.730
 30
0.000000
  70
    32
  0
VERTEX
  8
0
  5
661
 10
137.468
 20
236.730
 30
0.000000
  70
    32
  0
VERTEX
  8
0
  5
662
 10
137.464
 20
236.729
 30
0.000000
  70
    32
  0
VERTEX
  8
0
  5
663
 10
137.460
 20
236.728
 30
0.000000
  70
    32
  0
VERTEX
  8
0
  5
664
 10
137.456
 20
236.728
 30
0.000000
  70
    32
  0
VERTEX
  8
0
  5
665
 10
137.452
 20
236.727
 30
0.000000
  70
    32
  0
VERTEX
  8
0
  5
666
 10
137.448
 20
236.727
 30
0.000000
  70
    32
  0
VERTEX
  8
0
  5
667
 10
137.445
 20
236.726
 30
0.000000
  70
    32
  0
VERTEX
  8
0
  5
668
 10
137.441
 20
236.726
 30
0.000000
  70
    32
  0
VERTEX
  8
0
  5
669
 10
137.437
 20
236.725
 30
0.000000
  70
    32
  0
VERTEX
  8
0
  5
66A
 10
137.433
 20
236.725
 30
0.000000
  70
    32
  0
VERTEX
  8
0
  5
66B
 10
137.429
 20
236.724
 30
0.000000
  70
    32
  0
VERTEX
  8
0
  5
66C
 10
137.425
 20
236.723
 30
0.000000
  70
    32
  0
VERTEX
  8
0
  5
66D
 10
137.421
 20
236.723
 30
0.000000
  70
    32
  0
VERTEX
  8
0
  5
66E
 10
137.418
 20
236.722
 30
0.000000
  70
    32
  0
VERTEX
  8
0
  5
66F
 10
137.414
 20
236.721
 30
0.000000
  70
    32
  0
VERTEX
  8
0
  5
670
 10
137.410
 20
236.721
 30
0.000000
  70
    32
  0
VERTEX
  8
0
  5
671
 10
137.406
 20
236.720
 30
0.000000
  70
    32
  0
VERTEX
  8
0
  5
672
 10
137.402
 20
236.720
 30
0.000000
  70
    32
  0
VERTEX
  8
0
  5
673
 10
137.398
 20
236.719
 30
0.000000
  70
    32
  0
VERTEX
  8
0
  5
674
 10
137.395
 20
236.718
 30
0.000000
  70
    32
  0
VERTEX
  8
0
  5
675
 10
137.391
 20
236.718
 30
0.000000
  70
    32
  0
VERTEX
  8
0
  5
676
 10
137.387
 20
236.717
 30
0.000000
  70
    32
  0
VERTEX
  8
0
  5
677
 10
137.383
 20
236.716
 30
0.000000
  70
    32
  0
VERTEX
  8
0
  5
678
 10
137.379
 20
236.716
 30
0.000000
  70
    32
  0
VERTEX
  8
0
  5
679
 10
137.375
 20
236.715
 30
0.000000
  70
    32
  0
VERTEX
  8
0
  5
67A
 10
137.372
 20
236.714
 30
0.000000
  70
    32
  0
VERTEX
  8
0
  5
67B
 10
137.368
 20
236.713
 30
0.000000
  70
    32
  0
VERTEX
  8
0
  5
67C
 10
137.364
 20
236.713
 30
0.000000
  70
    32
  0
VERTEX
  8
0
  5
67D
 10
137.360
 20
236.712
 30
0.000000
  70
    32
  0
VERTEX
  8
0
  5
67E
 10
137.356
 20
236.711
 30
0.000000
  70
    32
  0
VERTEX
  8
0
  5
67F
 10
137.353
 20
236.711
 30
0.000000
  70
    32
  0
VERTEX
  8
0
  5
680
 10
137.349
 20
236.710
 30
0.000000
  70
    32
  0
VERTEX
  8
0
  5
681
 10
137.345
 20
236.709
 30
0.000000
  70
    32
  0
VERTEX
  8
0
  5
682
 10
137.341
 20
236.708
 30
0.000000
  70
    32
  0
VERTEX
  8
0
  5
683
 10
137.337
 20
236.708
 30
0.000000
  70
    32
  0
VERTEX
  8
0
  5
684
 10
137.334
 20
236.707
 30
0.000000
  70
    32
  0
VERTEX
  8
0
  5
685
 10
137.330
 20
236.706
 30
0.000000
  70
    32
  0
VERTEX
  8
0
  5
686
 10
137.326
 20
236.705
 30
0.000000
  70
    32
  0
VERTEX
  8
0
  5
687
 10
137.322
 20
236.704
 30
0.000000
  70
    32
  0
VERTEX
  8
0
  5
688
 10
137.318
 20
236.704
 30
0.000000
  70
    32
  0
VERTEX
  8
0
  5
689
 10
137.315
 20
236.703
 30
0.000000
  70
    32
  0
VERTEX
  8
0
  5
68A
 10
137.311
 20
236.702
 30
0.000000
  70
    32
  0
VERTEX
  8
0
  5
68B
 10
137.307
 20
236.701
 30
0.000000
  70
    32
  0
VERTEX
  8
0
  5
68C
 10
137.303
 20
236.700
 30
0.000000
  70
    32
  0
VERTEX
  8
0
  5
68D
 10
137.299
 20
236.699
 30
0.000000
  70
    32
  0
VERTEX
  8
0
  5
68E
 10
137.296
 20
236.699
 30
0.000000
  70
    32
  0
VERTEX
  8
0
  5
68F
 10
137.292
 20
236.698
 30
0.000000
  70
    32
  0
VERTEX
  8
0
  5
690
 10
137.288
 20
236.697
 30
0.000000
  70
    32
  0
VERTEX
  8
0
  5
691
 10
137.284
 20
236.696
 30
0.000000
  70
    32
  0
VERTEX
  8
0
  5
692
 10
137.280
 20
236.695
 30
0.000000
  70
    32
  0
VERTEX
  8
0
  5
693
 10
137.277
 20
236.694
 30
0.000000
  70
    32
  0
VERTEX
  8
0
  5
694
 10
137.273
 20
236.693
 30
0.000000
  70
    32
  0
VERTEX
  8
0
  5
695
 10
137.269
 20
236.692
 30
0.000000
  70
    32
  0
VERTEX
  8
0
  5
696
 10
137.265
 20
236.691
 30
0.000000
  70
    32
  0
VERTEX
  8
0
  5
697
 10
137.262
 20
236.690
 30
0.000000
  70
    32
  0
VERTEX
  8
0
  5
698
 10
137.258
 20
236.689
 30
0.000000
  70
    32
  0
VERTEX
  8
0
  5
699
 10
137.254
 20
236.688
 30
0.000000
  70
    32
  0
VERTEX
  8
0
  5
69A
 10
137.250
 20
236.688
 30
0.000000
  70
    32
  0
VERTEX
  8
0
  5
69B
 10
137.246
 20
236.687
 30
0.000000
  70
    32
  0
VERTEX
  8
0
  5
69C
 10
137.243
 20
236.686
 30
0.000000
  70
    32
  0
VERTEX
  8
0
  5
69D
 10
137.239
 20
236.685
 30
0.000000
  70
    32
  0
VERTEX
  8
0
  5
69E
 10
137.235
 20
236.684
 30
0.000000
  70
    32
  0
VERTEX
  8
0
  5
69F
 10
137.231
 20
236.683
 30
0.000000
  70
    32
  0
VERTEX
  8
0
  5
6A0
 10
137.228
 20
236.682
 30
0.000000
  70
    32
  0
VERTEX
  8
0
  5
6A1
 10
137.224
 20
236.680
 30
0.000000
  70
    32
  0
VERTEX
  8
0
  5
6A2
 10
137.220
 20
236.679
 30
0.000000
  70
    32
  0
VERTEX
  8
0
  5
6A3
 10
137.217
 20
236.678
 30
0.000000
  70
    32
  0
VERTEX
  8
0
  5
6A4
 10
137.213
 20
236.677
 30
0.000000
  70
    32
  0
VERTEX
  8
0
  5
6A5
 10
137.209
 20
236.676
 30
0.000000
  70
    32
  0
VERTEX
  8
0
  5
6A6
 10
137.205
 20
236.675
 30
0.000000
  70
    32
  0
VERTEX
  8
0
  5
6A7
 10
137.202
 20
236.674
 30
0.000000
  70
    32
  0
VERTEX
  8
0
  5
6A8
 10
137.198
 20
236.673
 30
0.000000
  70
    32
  0
VERTEX
  8
0
  5
6A9
 10
137.194
 20
236.672
 30
0.000000
  70
    32
  0
VERTEX
  8
0
  5
6AA
 10
137.190
 20
236.671
 30
0.000000
  70
    32
  0
VERTEX
  8
0
  5
6AB
 10
137.187
 20
236.670
 30
0.000000
  70
    32
  0
VERTEX
  8
0
  5
6AC
 10
137.183
 20
236.668
 30
0.000000
  70
    32
  0
VERTEX
  8
0
  5
6AD
 10
137.179
 20
236.667
 30
0.000000
  70
    32
  0
VERTEX
  8
0
  5
6AE
 10
137.176
 20
236.666
 30
0.000000
  70
    32
  0
VERTEX
  8
0
  5
6AF
 10
137.172
 20
236.665
 30
0.000000
  70
    32
  0
VERTEX
  8
0
  5
6B0
 10
137.168
 20
236.664
 30
0.000000
  70
    32
  0
VERTEX
  8
0
  5
6B1
 10
137.164
 20
236.663
 30
0.000000
  70
    32
  0
VERTEX
  8
0
  5
6B2
 10
137.161
 20
236.661
 30
0.000000
  70
    32
  0
VERTEX
  8
0
  5
6B3
 10
137.157
 20
236.660
 30
0.000000
  70
    32
  0
VERTEX
  8
0
  5
6B4
 10
137.153
 20
236.659
 30
0.000000
  70
    32
  0
VERTEX
  8
0
  5
6B5
 10
137.150
 20
236.658
 30
0.000000
  70
    32
  0
VERTEX
  8
0
  5
6B6
 10
137.146
 20
236.656
 30
0.000000
  70
    32
  0
VERTEX
  8
0
  5
6B7
 10
137.142
 20
236.655
 30
0.000000
  70
    32
  0
VERTEX
  8
0
  5
6B8
 10
137.139
 20
236.654
 30
0.000000
  70
    32
  0
VERTEX
  8
0
  5
6B9
 10
137.135
 20
236.653
 30
0.000000
  70
    32
  0
VERTEX
  8
0
  5
6BA
 10
137.131
 20
236.651
 30
0.000000
  70
    32
  0
VERTEX
  8
0
  5
6BB
 10
137.128
 20
236.650
 30
0.000000
  70
    32
  0
VERTEX
  8
0
  5
6BC
 10
137.124
 20
236.649
 30
0.000000
  70
    32
  0
VERTEX
  8
0
  5
6BD
 10
137.120
 20
236.647
 30
0.000000
  70
    32
  0
VERTEX
  8
0
  5
6BE
 10
137.117
 20
236.646
 30
0.000000
  70
    32
  0
VERTEX
  8
0
  5
6BF
 10
137.113
 20
236.645
 30
0.000000
  70
    32
  0
VERTEX
  8
0
  5
6C0
 10
137.109
 20
236.643
 30
0.000000
  70
    32
  0
VERTEX
  8
0
  5
6C1
 10
137.106
 20
236.642
 30
0.000000
  70
    32
  0
VERTEX
  8
0
  5
6C2
 10
137.102
 20
236.640
 30
0.000000
  70
    32
  0
VERTEX
  8
0
  5
6C3
 10
137.099
 20
236.639
 30
0.000000
  70
    32
  0
VERTEX
  8
0
  5
6C4
 10
137.095
 20
236.637
 30
0.000000
  70
    32
  0
VERTEX
  8
0
  5
6C5
 10
137.091
 20
236.636
 30
0.000000
  70
    32
  0
VERTEX
  8
0
  5
6C6
 10
137.088
 20
236.635
 30
0.000000
  70
    32
  0
VERTEX
  8
0
  5
6C7
 10
137.084
 20
236.633
 30
0.000000
  70
    32
  0
VERTEX
  8
0
  5
6C8
 10
137.080
 20
236.632
 30
0.000000
  70
    32
  0
VERTEX
  8
0
  5
6C9
 10
137.077
 20
236.630
 30
0.000000
  70
    32
  0
VERTEX
  8
0
  5
6CA
 10
137.073
 20
236.629
 30
0.000000
  70
    32
  0
VERTEX
  8
0
  5
6CB
 10
137.070
 20
236.627
 30
0.000000
  70
    32
  0
VERTEX
  8
0
  5
6CC
 10
137.066
 20
236.626
 30
0.000000
  70
    32
  0
VERTEX
  8
0
  5
6CD
 10
137.063
 20
236.624
 30
0.000000
  70
    32
  0
VERTEX
  8
0
  5
6CE
 10
137.059
 20
236.623
 30
0.000000
  70
    32
  0
VERTEX
  8
0
  5
6CF
 10
137.055
 20
236.621
 30
0.000000
  70
    32
  0
VERTEX
  8
0
  5
6D0
 10
137.052
 20
236.619
 30
0.000000
  70
    32
  0
VERTEX
  8
0
  5
6D1
 10
137.048
 20
236.618
 30
0.000000
  70
    32
  0
VERTEX
  8
0
  5
6D2
 10
137.045
 20
236.616
 30
0.000000
  70
    32
  0
VERTEX
  8
0
  5
6D3
 10
137.041
 20
236.615
 30
0.000000
  70
    32
  0
VERTEX
  8
0
  5
6D4
 10
137.038
 20
236.613
 30
0.000000
  70
    32
  0
VERTEX
  8
0
  5
6D5
 10
137.034
 20
236.611
 30
0.000000
  70
    32
  0
VERTEX
  8
0
  5
6D6
 10
137.031
 20
236.609
 30
0.000000
  70
    32
  0
VERTEX
  8
0
  5
6D7
 10
137.027
 20
236.608
 30
0.000000
  70
    32
  0
VERTEX
  8
0
  5
6D8
 10
137.023
 20
236.606
 30
0.000000
  70
    32
  0
VERTEX
  8
0
  5
6D9
 10
137.020
 20
236.604
 30
0.000000
  70
    32
  0
VERTEX
  8
0
  5
6DA
 10
137.016
 20
236.603
 30
0.000000
  70
    32
  0
VERTEX
  8
0
  5
6DB
 10
137.013
 20
236.601
 30
0.000000
  70
    32
  0
VERTEX
  8
0
  5
6DC
 10
137.010
 20
236.599
 30
0.000000
  70
    32
  0
VERTEX
  8
0
  5
6DD
 10
137.006
 20
236.597
 30
0.000000
  70
    32
  0
VERTEX
  8
0
  5
6DE
 10
137.003
 20
236.595
 30
0.000000
  70
    32
  0
VERTEX
  8
0
  5
6DF
 10
136.999
 20
236.593
 30
0.000000
  70
    32
  0
VERTEX
  8
0
  5
6E0
 10
136.996
 20
236.591
 30
0.000000
  70
    32
  0
VERTEX
  8
0
  5
6E1
 10
136.992
 20
236.590
 30
0.000000
  70
    32
  0
VERTEX
  8
0
  5
6E2
 10
136.989
 20
236.588
 30
0.000000
  70
    32
  0
VERTEX
  8
0
  5
6E3
 10
136.986
 20
236.586
 30
0.000000
  70
    32
  0
VERTEX
  8
0
  5
6E4
 10
136.982
 20
236.584
 30
0.000000
  70
    32
  0
VERTEX
  8
0
  5
6E5
 10
136.979
 20
236.582
 30
0.000000
  70
    32
  0
VERTEX
  8
0
  5
6E6
 10
136.976
 20
236.579
 30
0.000000
  70
    32
  0
VERTEX
  8
0
  5
6E7
 10
136.973
 20
236.577
 30
0.000000
  70
    32
  0
VERTEX
  8
0
  5
6E8
 10
136.969
 20
236.575
 30
0.000000
  70
    32
  0
VERTEX
  8
0
  5
6E9
 10
136.966
 20
236.573
 30
0.000000
  70
    32
  0
VERTEX
  8
0
  5
6EA
 10
136.963
 20
236.571
 30
0.000000
  70
    32
  0
VERTEX
  8
0
  5
6EB
 10
136.960
 20
236.569
 30
0.000000
  70
    32
  0
VERTEX
  8
0
  5
6EC
 10
136.956
 20
236.566
 30
0.000000
  70
    32
  0
VERTEX
  8
0
  5
6ED
 10
136.953
 20
236.564
 30
0.000000
  70
    32
  0
VERTEX
  8
0
  5
6EE
 10
136.950
 20
236.562
 30
0.000000
  70
    32
  0
VERTEX
  8
0
  5
6EF
 10
136.947
 20
236.559
 30
0.000000
  70
    32
  0
VERTEX
  8
0
  5
6F0
 10
136.944
 20
236.557
 30
0.000000
  70
    32
  0
VERTEX
  8
0
  5
6F1
 10
136.941
 20
236.555
 30
0.000000
  70
    32
  0
VERTEX
  8
0
  5
6F2
 10
136.938
 20
236.552
 30
0.000000
  70
    32
  0
VERTEX
  8
0
  5
6F3
 10
136.935
 20
236.550
 30
0.000000
  70
    32
  0
VERTEX
  8
0
  5
6F4
 10
136.932
 20
236.547
 30
0.000000
  70
    32
  0
VERTEX
  8
0
  5
6F5
 10
136.929
 20
236.544
 30
0.000000
  70
    32
  0
VERTEX
  8
0
  5
6F6
 10
136.926
 20
236.542
 30
0.000000
  70
    32
  0
VERTEX
  8
0
  5
6F7
 10
136.923
 20
236.539
 30
0.000000
  70
    32
  0
VERTEX
  8
0
  5
6F8
 10
136.920
 20
236.536
 30
0.000000
  70
    32
  0
VERTEX
  8
0
  5
6F9
 10
136.917
 20
236.534
 30
0.000000
  70
    32
  0
VERTEX
  8
0
  5
6FA
 10
136.915
 20
236.531
 30
0.000000
  70
    32
  0
VERTEX
  8
0
  5
6FB
 10
136.912
 20
236.528
 30
0.000000
  70
    32
  0
VERTEX
  8
0
  5
6FC
 10
136.909
 20
236.525
 30
0.000000
  70
    32
  0
VERTEX
  8
0
  5
6FD
 10
136.906
 20
236.522
 30
0.000000
  70
    32
  0
VERTEX
  8
0
  5
6FE
 10
136.904
 20
236.519
 30
0.000000
  70
    32
  0
VERTEX
  8
0
  5
6FF
 10
136.901
 20
236.516
 30
0.000000
  70
    32
  0
VERTEX
  8
0
  5
700
 10
136.898
 20
236.513
 30
0.000000
  70
    32
  0
VERTEX
  8
0
  5
701
 10
136.896
 20
236.510
 30
0.000000
  70
    32
  0
VERTEX
  8
0
  5
702
 10
136.893
 20
236.507
 30
0.000000
  70
    32
  0
VERTEX
  8
0
  5
703
 10
136.891
 20
236.504
 30
0.000000
  70
    32
  0
VERTEX
  8
0
  5
704
 10
136.888
 20
236.501
 30
0.000000
  70
    32
  0
VERTEX
  8
0
  5
705
 10
136.886
 20
236.497
 30
0.000000
  70
    32
  0
VERTEX
  8
0
  5
706
 10
136.884
 20
236.494
 30
0.000000
  70
    32
  0
VERTEX
  8
0
  5
707
 10
136.881
 20
236.491
 30
0.000000
  70
    32
  0
VERTEX
  8
0
  5
708
 10
136.879
 20
236.487
 30
0.000000
  70
    32
  0
VERTEX
  8
0
  5
709
 10
136.877
 20
236.484
 30
0.000000
  70
    32
  0
VERTEX
  8
0
  5
70A
 10
136.875
 20
236.480
 30
0.000000
  70
    32
  0
VERTEX
  8
0
  5
70B
 10
136.873
 20
236.477
 30
0.000000
  70
    32
  0
VERTEX
  8
0
  5
70C
 10
136.871
 20
236.473
 30
0.000000
  70
    32
  0
VERTEX
  8
0
  5
70D
 10
136.869
 20
236.470
 30
0.000000
  70
    32
  0
VERTEX
  8
0
  5
70E
 10
136.867
 20
236.466
 30
0.000000
  70
    32
  0
VERTEX
  8
0
  5
70F
 10
136.866
 20
236.463
 30
0.000000
  70
    32
  0
VERTEX
  8
0
  5
710
 10
136.864
 20
236.459
 30
0.000000
  70
    32
  0
VERTEX
  8
0
  5
711
 10
136.862
 20
236.456
 30
0.000000
  70
    32
  0
VERTEX
  8
0
  5
712
 10
136.861
 20
236.452
 30
0.000000
  70
    32
  0
VERTEX
  8
0
  5
713
 10
136.859
 20
236.448
 30
0.000000
  70
    32
  0
VERTEX
  8
0
  5
714
 10
136.858
 20
236.444
 30
0.000000
  70
    32
  0
VERTEX
  8
0
  5
715
 10
136.857
 20
236.441
 30
0.000000
  70
    32
  0
VERTEX
  8
0
  5
716
 10
136.856
 20
236.437
 30
0.000000
  70
    32
  0
VERTEX
  8
0
  5
717
 10
136.855
 20
236.433
 30
0.000000
  70
    32
  0
VERTEX
  8
0
  5
718
 10
136.854
 20
236.429
 30
0.000000
  70
    32
  0
VERTEX
  8
0
  5
719
 10
136.853
 20
236.426
 30
0.000000
  70
    32
  0
VERTEX
  8
0
  5
71A
 10
136.852
 20
236.422
 30
0.000000
  70
    32
  0
VERTEX
  8
0
  5
71B
 10
136.851
 20
236.418
 30
0.000000
  70
    32
  0
VERTEX
  8
0
  5
71C
 10
136.851
 20
236.414
 30
0.000000
  70
    32
  0
VERTEX
  8
0
  5
71D
 10
136.851
 20
236.410
 30
0.000000
  70
    32
  0
VERTEX
  8
0
  5
71E
 10
136.850
 20
236.406
 30
0.000000
  70
    32
  0
VERTEX
  8
0
  5
71F
 10
136.850
 20
236.403
 30
0.000000
  70
    32
  0
VERTEX
  8
0
  5
720
 10
136.850
 20
236.399
 30
0.000000
  70
    32
  0
SEQEND
  8
0
  5
721
  0
POLYLINE
  8
0
  5
722
  62
7
  66
     1
 10
0.000000
 20
0.000000
 30
0.000000
  70
     8
  0
VERTEX
  8
0
  5
723
 10
137.591
 20
236.743
 30
0.000000
  70
    32
  0
VERTEX
  8
0
  5
724
 10
137.616
 20
236.746
 30
0.000000
  70
    32
  0
VERTEX
  8
0
  5
725
 10
137.640
 20
236.748
 30
0.000000
  70
    32
  0
VERTEX
  8
0
  5
726
 10
137.664
 20
236.750
 30
0.000000
  70
    32
  0
VERTEX
  8
0
  5
727
 10
137.689
 20
236.752
 30
0.000000
  70
    32
  0
VERTEX
  8
0
  5
728
 10
137.713
 20
236.754
 30
0.000000
  70
    32
  0
VERTEX
  8
0
  5
729
 10
137.737
 20
236.756
 30
0.000000
  70
    32
  0
VERTEX
  8
0
  5
72A
 10
137.762
 20
236.759
 30
0.000000
  70
    32
  0
VERTEX
  8
0
  5
72B
 10
137.786
 20
236.761
 30
0.000000
  70
    32
  0
VERTEX
  8
0
  5
72C
 10
137.811
 20
236.763
 30
0.000000
  70
    32
  0
VERTEX
  8
0
  5
72D
 10
137.835
 20
236.765
 30
0.000000
  70
    32
  0
VERTEX
  8
0
  5
72E
 10
137.859
 20
236.767
 30
0.000000
  70
    32
  0
VERTEX
  8
0
  5
72F
 10
137.884
 20
236.769
 30
0.000000
  70
    32
  0
VERTEX
  8
0
  5
730
 10
137.908
 20
236.772
 30
0.000000
  70
    32
  0
VERTEX
  8
0
  5
731
 10
137.932
 20
236.774
 30
0.000000
  70
    32
  0
VERTEX
  8
0
  5
732
 10
137.957
 20
236.776
 30
0.000000
  70
    32
  0
VERTEX
  8
0
  5
733
 10
137.981
 20
236.778
 30
0.000000
  70
    32
  0
VERTEX
  8
0
  5
734
 10
138.006
 20
236.780
 30
0.000000
  70
    32
  0
VERTEX
  8
0
  5
735
 10
138.030
 20
236.782
 30
0.000000
  70
    32
  0
VERTEX
  8
0
  5
736
 10
138.054
 20
236.784
 30
0.000000
  70
    32
  0
VERTEX
  8
0
  5
737
 10
138.079
 20
236.786
 30
0.000000
  70
    32
  0
VERTEX
  8
0
  5
738
 10
138.103
 20
236.789
 30
0.000000
  70
    32
  0
VERTEX
  8
0
  5
739
 10
138.127
 20
236.791
 30
0.000000
  70
    32
  0
VERTEX
  8
0
  5
73A
 10
138.152
 20
236.793
 30
0.000000
  70
    32
  0
VERTEX
  8
0
  5
73B
 10
138.176
 20
236.795
 30
0.000000
  70
    32
  0
VERTEX
  8
0
  5
73C
 10
138.201
 20
236.797
 30
0.000000
  70
    32
  0
VERTEX
  8
0
  5
73D
 10
138.225
 20
236.799
 30
0.000000
  70
    32
  0
VERTEX
  8
0
  5
73E
 10
138.249
 20
236.801
 30
0.000000
  70
    32
  0
VERTEX
  8
0
  5
73F
 10
138.274
 20
236.803
 30
0.000000
  70
    32
  0
VERTEX
  8
0
  5
740
 10
138.298
 20
236.806
 30
0.000000
  70
    32
  0
VERTEX
  8
0
  5
741
 10
138.323
 20
236.808
 30
0.000000
  70
    32
  0
VERTEX
  8
0
  5
742
 10
138.347
 20
236.810
 30
0.000000
  70
    32
  0
VERTEX
  8
0
  5
743
 10
138.371
 20
236.812
 30
0.000000
  70
    32
  0
VERTEX
  8
0
  5
744
 10
138.396
 20
236.814
 30
0.000000
  70
    32
  0
VERTEX
  8
0
  5
745
 10
138.420
 20
236.816
 30
0.000000
  70
    32
  0
VERTEX
  8
0
  5
746
 10
138.444
 20
236.818
 30
0.000000
  70
    32
  0
VERTEX
  8
0
  5
747
 10
138.469
 20
236.820
 30
0.000000
  70
    32
  0
VERTEX
  8
0
  5
748
 10
138.493
 20
236.822
 30
0.000000
  70
    32
  0
VERTEX
  8
0
  5
749
 10
138.518
 20
236.824
 30
0.000000
  70
    32
  0
VERTEX
  8
0
  5
74A
 10
138.542
 20
236.827
 30
0.000000
  70
    32
  0
VERTEX
  8
0
  5
74B
 10
138.566
 20
236.829
 30
0.000000
  70
    32
  0
VERTEX
  8
0
  5
74C
 10
138.591
 20
236.831
 30
0.000000
  70
    32
  0
VERTEX
  8
0
  5
74D
 10
138.615
 20
236.833
 30
0.000000
  70
    32
  0
VERTEX
  8
0
  5
74E
 10
138.639
 20
236.835
 30
0.000000
  70
    32
  0
VERTEX
  8
0
  5
74F
 10
138.664
 20
236.837
 30
0.000000
  70
    32
  0
VERTEX
  8
0
  5
750
 10
138.688
 20
236.839
 30
0.000000
  70
    32
  0
VERTEX
  8
0
  5
751
 10
138.713
 20
236.841
 30
0.000000
  70
    32
  0
VERTEX
  8
0
  5
752
 10
138.737
 20
236.843
 30
0.000000
  70
    32
  0
VERTEX
  8
0
  5
753
 10
138.761
 20
236.845
 30
0.000000
  70
    32
  0
VERTEX
  8
0
  5
754
 10
138.786
 20
236.847
 30
0.000000
  70
    32
  0
VERTEX
  8
0
  5
755
 10
138.810
 20
236.849
 30
0.000000
  70
    32
  0
VERTEX
  8
0
  5
756
 10
138.835
 20
236.852
 30
0.000000
  70
    32
  0
VERTEX
  8
0
  5
757
 10
138.859
 20
236.854
 30
0.000000
  70
    32
  0
VERTEX
  8
0
  5
758
 10
138.883
 20
236.856
 30
0.000000
  70
    32
  0
VERTEX
  8
0
  5
759
 10
138.908
 20
236.858
 30
0.000000
  70
    32
  0
VERTEX
  8
0
  5
75A
 10
138.932
 20
236.860
 30
0.000000
  70
    32
  0
VERTEX
  8
0
  5
75B
 10
138.956
 20
236.862
 30
0.000000
  70
    32
  0
VERTEX
  8
0
  5
75C
 10
138.981
 20
236.864
 30
0.000000
  70
    32
  0
VERTEX
  8
0
  5
75D
 10
139.005
 20
236.866
 30
0.000000
  70
    32
  0
VERTEX
  8
0
  5
75E
 10
139.030
 20
236.868
 30
0.000000
  70
    32
  0
VERTEX
  8
0
  5
75F
 10
139.054
 20
236.870
 30
0.000000
  70
    32
  0
VERTEX
  8
0
  5
760
 10
139.078
 20
236.872
 30
0.000000
  70
    32
  0
VERTEX
  8
0
  5
761
 10
139.103
 20
236.874
 30
0.000000
  70
    32
  0
VERTEX
  8
0
  5
762
 10
139.127
 20
236.876
 30
0.000000
  70
    32
  0
VERTEX
  8
0
  5
763
 10
139.152
 20
236.878
 30
0.000000
  70
    32
  0
VERTEX
  8
0
  5
764
 10
139.176
 20
236.880
 30
0.000000
  70
    32
  0
VERTEX
  8
0
  5
765
 10
139.200
 20
236.882
 30
0.000000
  70
    32
  0
VERTEX
  8
0
  5
766
 10
139.225
 20
236.884
 30
0.000000
  70
    32
  0
VERTEX
  8
0
  5
767
 10
139.249
 20
236.886
 30
0.000000
  70
    32
  0
VERTEX
  8
0
  5
768
 10
139.274
 20
236.888
 30
0.000000
  70
    32
  0
VERTEX
  8
0
  5
769
 10
139.298
 20
236.890
 30
0.000000
  70
    32
  0
VERTEX
  8
0
  5
76A
 10
139.322
 20
236.892
 30
0.000000
  70
    32
  0
VERTEX
  8
0
  5
76B
 10
139.347
 20
236.894
 30
0.000000
  70
    32
  0
VERTEX
  8
0
  5
76C
 10
139.371
 20
236.896
 30
0.000000
  70
    32
  0
VERTEX
  8
0
  5
76D
 10
139.395
 20
236.898
 30
0.000000
  70
    32
  0
VERTEX
  8
0
  5
76E
 10
139.420
 20
236.900
 30
0.000000
  70
    32
  0
VERTEX
  8
0
  5
76F
 10
139.444
 20
236.903
 30
0.000000
  70
    32
  0
VERTEX
  8
0
  5
770
 10
139.469
 20
236.905
 30
0.000000
  70
    32
  0
VERTEX
  8
0
  5
771
 10
139.493
 20
236.907
 30
0.000000
  70
    32
  0
VERTEX
  8
0
  5
772
 10
139.517
 20
236.909
 30
0.000000
  70
    32
  0
VERTEX
  8
0
  5
773
 10
139.542
 20
236.911
 30
0.000000
  70
    32
  0
VERTEX
  8
0
  5
774
 10
139.566
 20
236.913
 30
0.000000
  70
    32
  0
VERTEX
  8
0
  5
775
 10
139.591
 20
236.915
 30
0.000000
  70
    32
  0
VERTEX
  8
0
  5
776
 10
139.615
 20
236.917
 30
0.000000
  70
    32
  0
VERTEX
  8
0
  5
777
 10
139.639
 20
236.919
 30
0.000000
  70
    32
  0
VERTEX
  8
0
  5
778
 10
139.664
 20
236.921
 30
0.000000
  70
    32
  0
VERTEX
  8
0
  5
779
 10
139.688
 20
236.923
 30
0.000000
  70
    32
  0
VERTEX
  8
0
  5
77A
 10
139.713
 20
236.925
 30
0.000000
  70
    32
  0
VERTEX
  8
0
  5
77B
 10
139.737
 20
236.927
 30
0.000000
  70
    32
  0
VERTEX
  8
0
  5
77C
 10
139.761
 20
236.929
 30
0.000000
  70
    32
  0
VERTEX
  8
0
  5
77D
 10
139.786
 20
236.931
 30
0.000000
  70
    32
  0
VERTEX
  8
0
  5
77E
 10
139.810
 20
236.932
 30
0.000000
  70
    32
  0
VERTEX
  8
0
  5
77F
 10
139.834
 20
236.934
 30
0.000000
  70
    32
  0
VERTEX
  8
0
  5
780
 10
139.859
 20
236.936
 30
0.000000
  70
    32
  0
VERTEX
  8
0
  5
781
 10
139.883
 20
236.938
 30
0.000000
  70
    32
  0
VERTEX
  8
0
  5
782
 10
139.908
 20
236.940
 30
0.000000
  70
    32
  0
VERTEX
  8
0
  5
783
 10
139.932
 20
236.942
 30
0.000000
  70
    32
  0
VERTEX
  8
0
  5
784
 10
139.956
 20
236.944
 30
0.000000
  70
    32
  0
VERTEX
  8
0
  5
785
 10
139.981
 20
236.946
 30
0.000000
  70
    32
  0
VERTEX
  8
0
  5
786
 10
140.005
 20
236.948
 30
0.000000
  70
    32
  0
VERTEX
  8
0
  5
787
 10
140.030
 20
236.950
 30
0.000000
  70
    32
  0
VERTEX
  8
0
  5
788
 10
140.054
 20
236.952
 30
0.000000
  70
    32
  0
VERTEX
  8
0
  5
789
 10
140.078
 20
236.954
 30
0.000000
  70
    32
  0
VERTEX
  8
0
  5
78A
 10
140.103
 20
236.956
 30
0.000000
  70
    32
  0
VERTEX
  8
0
  5
78B
 10
140.127
 20
236.958
 30
0.000000
  70
    32
  0
VERTEX
  8
0
  5
78C
 10
140.152
 20
236.960
 30
0.000000
  70
    32
  0
VERTEX
  8
0
  5
78D
 10
140.176
 20
236.962
 30
0.000000
  70
    32
  0
VERTEX
  8
0
  5
78E
 10
140.200
 20
236.964
 30
0.000000
  70
    32
  0
VERTEX
  8
0
  5
78F
 10
140.225
 20
236.966
 30
0.000000
  70
    32
  0
VERTEX
  8
0
  5
790
 10
140.249
 20
236.968
 30
0.000000
  70
    32
  0
VERTEX
  8
0
  5
791
 10
140.274
 20
236.970
 30
0.000000
  70
    32
  0
VERTEX
  8
0
  5
792
 10
140.298
 20
236.972
 30
0.000000
  70
    32
  0
VERTEX
  8
0
  5
793
 10
140.322
 20
236.974
 30
0.000000
  70
    32
  0
VERTEX
  8
0
  5
794
 10
140.347
 20
236.976
 30
0.000000
  70
    32
  0
VERTEX
  8
0
  5
795
 10
140.371
 20
236.978
 30
0.000000
  70
    32
  0
VERTEX
  8
0
  5
796
 10
140.396
 20
236.980
 30
0.000000
  70
    32
  0
VERTEX
  8
0
  5
797
 10
140.420
 20
236.981
 30
0.000000
  70
    32
  0
VERTEX
  8
0
  5
798
 10
140.444
 20
236.983
 30
0.000000
  70
    32
  0
VERTEX
  8
0
  5
799
 10
140.469
 20
236.985
 30
0.000000
  70
    32
  0
VERTEX
  8
0
  5
79A
 10
140.493
 20
236.987
 30
0.000000
  70
    32
  0
VERTEX
  8
0
  5
79B
 10
140.517
 20
236.989
 30
0.000000
  70
    32
  0
VERTEX
  8
0
  5
79C
 10
140.542
 20
236.991
 30
0.000000
  70
    32
  0
VERTEX
  8
0
  5
79D
 10
140.566
 20
236.993
 30
0.000000
  70
    32
  0
VERTEX
  8
0
  5
79E
 10
140.591
 20
236.995
 30
0.000000
  70
    32
  0
VERTEX
  8
0
  5
79F
 10
140.615
 20
236.997
 30
0.000000
  70
    32
  0
VERTEX
  8
0
  5
7A0
 10
140.639
 20
236.999
 30
0.000000
  70
    32
  0
VERTEX
  8
0
  5
7A1
 10
140.664
 20
237.001
 30
0.000000
  70
    32
  0
VERTEX
  8
0
  5
7A2
 10
140.688
 20
237.003
 30
0.000000
  70
    32
  0
VERTEX
  8
0
  5
7A3
 10
140.713
 20
237.004
 30
0.000000
  70
    32
  0
VERTEX
  8
0
  5
7A4
 10
140.737
 20
237.006
 30
0.000000
  70
    32
  0
VERTEX
  8
0
  5
7A5
 10
140.761
 20
237.008
 30
0.000000
  70
    32
  0
VERTEX
  8
0
  5
7A6
 10
140.786
 20
237.010
 30
0.000000
  70
    32
  0
VERTEX
  8
0
  5
7A7
 10
140.810
 20
237.012
 30
0.000000
  70
    32
  0
VERTEX
  8
0
  5
7A8
 10
140.835
 20
237.014
 30
0.000000
  70
    32
  0
VERTEX
  8
0
  5
7A9
 10
140.859
 20
237.016
 30
0.000000
  70
    32
  0
VERTEX
  8
0
  5
7AA
 10
140.883
 20
237.018
 30
0.000000
  70
    32
  0
VERTEX
  8
0
  5
7AB
 10
140.908
 20
237.020
 30
0.000000
  70
    32
  0
VERTEX
  8
0
  5
7AC
 10
140.932
 20
237.022
 30
0.000000
  70
    32
  0
VERTEX
  8
0
  5
7AD
 10
140.957
 20
237.023
 30
0.000000
  70
    32
  0
VERTEX
  8
0
  5
7AE
 10
140.981
 20
237.025
 30
0.000000
  70
    32
  0
VERTEX
  8
0
  5
7AF
 10
141.005
 20
237.027
 30
0.000000
  70
    32
  0
VERTEX
  8
0
  5
7B0
 10
141.030
 20
237.029
 30
0.000000
  70
    32
  0
VERTEX
  8
0
  5
7B1
 10
141.054
 20
237.031
 30
0.000000
  70
    32
  0
VERTEX
  8
0
  5
7B2
 10
141.079
 20
237.033
 30
0.000000
  70
    32
  0
VERTEX
  8
0
  5
7B3
 10
141.103
 20
237.035
 30
0.000000
  70
    32
  0
VERTEX
  8
0
  5
7B4
 10
141.127
 20
237.037
 30
0.000000
  70
    32
  0
VERTEX
  8
0
  5
7B5
 10
141.152
 20
237.039
 30
0.000000
  70
    32
  0
VERTEX
  8
0
  5
7B6
 10
141.176
 20
237.040
 30
0.000000
  70
    32
  0
VERTEX
  8
0
  5
7B7
 10
141.201
 20
237.042
 30
0.000000
  70
    32
  0
VERTEX
  8
0
  5
7B8
 10
141.225
 20
237.044
 30
0.000000
  70
    32
  0
VERTEX
  8
0
  5
7B9
 10
141.249
 20
237.046
 30
0.000000
  70
    32
  0
VERTEX
  8
0
  5
7BA
 10
141.274
 20
237.048
 30
0.000000
  70
    32
  0
VERTEX
  8
0
  5
7BB
 10
141.298
 20
237.050
 30
0.000000
  70
    32
  0
VERTEX
  8
0
  5
7BC
 10
141.323
 20
237.052
 30
0.000000
  70
    32
  0
VERTEX
  8
0
  5
7BD
 10
141.347
 20
237.053
 30
0.000000
  70
    32
  0
VERTEX
  8
0
  5
7BE
 10
141.371
 20
237.055
 30
0.000000
  70
    32
  0
VERTEX
  8
0
  5
7BF
 10
141.396
 20
237.057
 30
0.000000
  70
    32
  0
VERTEX
  8
0
  5
7C0
 10
141.420
 20
237.059
 30
0.000000
  70
    32
  0
VERTEX
  8
0
  5
7C1
 10
141.445
 20
237.061
 30
0.000000
  70
    32
  0
VERTEX
  8
0
  5
7C2
 10
141.469
 20
237.063
 30
0.000000
  70
    32
  0
VERTEX
  8
0
  5
7C3
 10
141.493
 20
237.065
 30
0.000000
  70
    32
  0
VERTEX
  8
0
  5
7C4
 10
141.518
 20
237.066
 30
0.000000
  70
    32
  0
VERTEX
  8
0
  5
7C5
 10
141.542
 20
237.068
 30
0.000000
  70
    32
  0
VERTEX
  8
0
  5
7C6
 10
141.567
 20
237.070
 30
0.000000
  70
    32
  0
VERTEX
  8
0
  5
7C7
 10
141.591
 20
237.072
 30
0.000000
  70
    32
  0
VERTEX
  8
0
  5
7C8
 10
141.615
 20
237.074
 30
0.000000
  70
    32
  0
VERTEX
  8
0
  5
7C9
 10
141.640
 20
237.076
 30
0.000000
  70
    32
  0
VERTEX
  8
0
  5
7CA
 10
141.664
 20
237.077
 30
0.000000
  70
    32
  0
VERTEX
  8
0
  5
7CB
 10
141.689
 20
237.079
 30
0.000000
  70
    32
  0
VERTEX
  8
0
  5
7CC
 10
141.713
 20
237.081
 30
0.000000
  70
    32
  0
VERTEX
  8
0
  5
7CD
 10
141.737
 20
237.083
 30
0.000000
  70
    32
  0
VERTEX
  8
0
  5
7CE
 10
141.762
 20
237.085
 30
0.000000
  70
    32
  0
VERTEX
  8
0
  5
7CF
 10
141.786
 20
237.086
 30
0.000000
  70
    32
  0
VERTEX
  8
0
  5
7D0
 10
141.811
 20
237.088
 30
0.000000
  70
    32
  0
VERTEX
  8
0
  5
7D1
 10
141.835
 20
237.090
 30
0.000000
  70
    32
  0
VERTEX
  8
0
  5
7D2
 10
141.860
 20
237.092
 30
0.000000
  70
    32
  0
VERTEX
  8
0
  5
7D3
 10
141.884
 20
237.094
 30
0.000000
  70
    32
  0
VERTEX
  8
0
  5
7D4
 10
141.908
 20
237.096
 30
0.000000
  70
    32
  0
VERTEX
  8
0
  5
7D5
 10
141.933
 20
237.097
 30
0.000000
  70
    32
  0
VERTEX
  8
0
  5
7D6
 10
141.957
 20
237.099
 30
0.000000
  70
    32
  0
VERTEX
  8
0
  5
7D7
 10
141.982
 20
237.101
 30
0.000000
  70
    32
  0
VERTEX
  8
0
  5
7D8
 10
142.006
 20
237.103
 30
0.000000
  70
    32
  0
VERTEX
  8
0
  5
7D9
 10
142.030
 20
237.105
 30
0.000000
  70
    32
  0
VERTEX
  8
0
  5
7DA
 10
142.055
 20
237.106
 30
0.000000
  70
    32
  0
VERTEX
  8
0
  5
7DB
 10
142.079
 20
237.108
 30
0.000000
  70
    32
  0
VERTEX
  8
0
  5
7DC
 10
142.104
 20
237.110
 30
0.000000
  70
    32
  0
VERTEX
  8
0
  5
7DD
 10
142.128
 20
237.112
 30
0.000000
  70
    32
  0
VERTEX
  8
0
  5
7DE
 10
142.152
 20
237.114
 30
0.000000
  70
    32
  0
VERTEX
  8
0
  5
7DF
 10
142.177
 20
237.115
 30
0.000000
  70
    32
  0
VERTEX
  8
0
  5
7E0
 10
142.201
 20
237.117
 30
0.000000
  70
    32
  0
VERTEX
  8
0
  5
7E1
 10
142.226
 20
237.119
 30
0.000000
  70
    32
  0
VERTEX
  8
0
  5
7E2
 10
142.250
 20
237.121
 30
0.000000
  70
    32
  0
SEQEND
  8
0
  5
7E3
  0
LINE
  5
388
  8
0
  6
CONTINUOUS
 62
     7
 10
146.25
 20
238.349633
 30
0.0
 11
146.25
 21
229.749633
 31
0.0
  0
LINE
  5
389
  8
0
  6
CONTINUOUS
 62
     7
 10
276.25
 20
245.349633
 30
0.0
 11
276.25
 21
245.252156
 31
0.0
  0
LINE
  5
393
  8
0
  6
CONTINUOUS
 62
     7
 10
146.25
 20
245.349633
 30
0.0
 11
146.25
 21
245.307159
 31
0.0
  0
LINE
  5
394
  8
0
  6
CONTINUOUS
 62
     7
 10
146.25
 20
245.307159
 30
0.0
 11
146.25
 21
241.028417
 31
0.0
  0
LINE
  5
395
  8
0
  6
CONTINUOUS
 62
     7
 10
146.25
 20
241.028417
 30
0.0
 11
146.25
 21
240.949353
 31
0.0
  0
LINE
  5
396
  8
0
  6
CONTINUOUS
 62
     7
 10
146.25
 20
240.949353
 30
0.0
 11
146.25
 21
240.461407
 31
0.0
  0
LINE
  5
397
  8
0
  6
CONTINUOUS
 62
     7
 10
146.25
 20
240.461407
 30
0.0
 11
146.25
 21
240.381555
 31
0.0
  0
LINE
  5
398
  8
0
  6
CONTINUOUS
 62
     7
 10
146.25
 20
240.381555
 30
0.0
 11
146.25
 21
240.341349
 31
0.0
  0
LINE
  5
399
  8
0
  6
CONTINUOUS
 62
     7
 10
146.25
 20
240.341349
 30
0.0
 11
146.25
 21
239.039009
 31
0.0
  0
LINE
  5
39A
  8
0
  6
CONTINUOUS
 62
     7
 10
146.25
 20
239.039009
 30
0.0
 11
146.25
 21
238.349633
 31
0.0
  0
LINE
  5
39B
  8
0
  6
CONTINUOUS
 62
     7
 10
146.25
 20
245.349633
 30
0.0
 11
276.25
 21
245.349633
 31
0.0
  0
LINE
  5
39C
  8
0
  6
CONTINUOUS
 62
     7
 10
146.25
 20
229.349633
 30
0.0
 11
264.259548
 21
229.349633
 31
0.0
  0
LINE
  5
39E
  8
0
  6
CONTINUOUS
 62
     7
 10
146.25
 20
245.349633
 30
0.0
 11
276.25
 21
245.349633
 31
0.0
  0
LINE
  5
39F
  8
0
  6
CONTINUOUS
 62
     7
 10
146.25
 20
228.949633
 30
0.0
 11
146.25
 21
199.849633
 31
0.0
  0
LINE
  5
3A0
  8
0
  6
CONTINUOUS
 62
     7
 10
146.25
 20
199.759339
 30
0.0
 11
146.25
 21
199.849633
 31
0.0
  0
LINE
  5
3A1
  8
0
  6
CONTINUOUS
 62
     7
 10
146.25
 20
198.849633
 30
0.0
 11
146.25
 21
190.349633
 31
0.0
  0
LINE
  5
3A2
  8
0
  6
CONTINUOUS
 62
     7
 10
146.25
 20
190.349633
 30
0.0
 11
146.25
 21
189.660257
 31
0.0
  0
LINE
  5
3A3
  8
0
  6
CONTINUOUS
 62
     7
 10
146.25
 20
189.660257
 30
0.0
 11
146.25
 21
189.604917
 31
0.0
  0
LINE
  5
3A4
  8
0
  6
CONTINUOUS
 62
     7
 10
146.25
 20
189.604917
 30
0.0
 11
146.25
 21
188.357918
 31
0.0
  0
LINE
  5
3A5
  8
0
  6
CONTINUOUS
 62
     7
 10
146.25
 20
188.357918
 30
0.0
 11
146.25
 21
188.317711
 31
0.0
  0
LINE
  5
3A6
  8
0
  6
CONTINUOUS
 62
     7
 10
146.25
 20
188.317711
 30
0.0
 11
146.25
 21
188.237859
 31
0.0
  0
LINE
  5
3A7
  8
0
  6
CONTINUOUS
 62
     7
 10
146.25
 20
188.237859
 30
0.0
 11
146.25
 21
187.749913
 31
0.0
  0
LINE
  5
3A8
  8
0
  6
CONTINUOUS
 62
     7
 10
146.25
 20
187.749913
 30
0.0
 11
146.25
 21
187.670849
 31
0.0
  0
LINE
  5
3A9
  8
0
  6
CONTINUOUS
 62
     7
 10
146.25
 20
187.670849
 30
0.0
 11
146.25
 21
187.049971
 31
0.0
  0
LINE
  5
3AA
  8
0
  6
CONTINUOUS
 62
     7
 10
146.25
 20
187.049971
 30
0.0
 11
146.25
 21
186.849633
 31
0.0
  0
LINE
  5
3AB
  8
0
  6
CONTINUOUS
 62
     7
 10
146.25
 20
186.849633
 30
0.0
 11
146.25
 21
183.349633
 31
0.0
  0
LINE
  5
3AE
  8
0
  6
CONTINUOUS
 62
     7
 10
276.25
 20
190.349633
 30
0.0
 11
276.25
 21
189.660257
 31
0.0
  0
LINE
  5
3AF
  8
0
  6
CONTINUOUS
 62
     7
 10
276.25
 20
189.660257
 30
0.0
 11
276.25
 21
189.233814
 31
0.0
  0
LINE
  5
3B0
  8
0
  6
CONTINUOUS
 62
     7
 10
276.25
 20
189.233814
 30
0.0
 11
276.25
 21
188.357918
 31
0.0
  0
LINE
  5
3B1
  8
0
  6
CONTINUOUS
 62
     7
 10
276.25
 20
188.357918
 30
0.0
 11
276.25
 21
188.317711
 31
0.0
  0
LINE
  5
3B2
  8
0
  6
CONTINUOUS
 62
     7
 10
276.25
 20
188.317711
 30
0.0
 11
276.25
 21
188.237859
 31
0.0
  0
LINE
  5
3B3
  8
0
  6
CONTINUOUS
 62
     7
 10
276.25
 20
188.237859
 30
0.0
 11
276.25
 21
187.749913
 31
0.0
  0
LINE
  5
3B4
  8
0
  6
CONTINUOUS
 62
     7
 10
276.25
 20
187.749913
 30
0.0
 11
276.25
 21
187.670849
 31
0.0
  0
LINE
  5
3B5
  8
0
  6
CONTINUOUS
 62
     7
 10
276.25
 20
187.670849
 30
0.0
 11
276.25
 21
183.349633
 31
0.0
  0
LINE
  5
3B6
  8
0
  6
CONTINUOUS
 62
     7
 10
276.25
 20
198.849633
 30
0.0
 11
276.25
 21
190.349633
 31
0.0
  0
LINE
  5
3B7
  8
0
  6
CONTINUOUS
 62
     7
 10
276.25
 20
199.759339
 30
0.0
 11
276.25
 21
199.849633
 31
0.0
  0
LINE
  5
3B8
  8
0
  6
CONTINUOUS
 62
     7
 10
276.25
 20
245.349633
 30
0.0
 11
276.25
 21
199.849633
 31
0.0
  0
LINE
  5
3B9
  8
0
  6
CONTINUOUS
 62
     7
 10
146.25
 20
183.349633
 30
0.0
 11
276.25
 21
183.349633
 31
0.0
  0
LINE
  5
3BA
  8
0
  6
CONTINUOUS
 62
     7
 10
146.25
 20
198.849633
 30
0.0
 11
263.00361
 21
198.849633
 31
0.0
  0
LINE
  5
3BB
  8
0
  6
CONTINUOUS
 62
     7
 10
146.25
 20
199.849633
 30
0.0
 11
261.538351
 21
199.849633
 31
0.0
  0
ARC
  5
3BD
  8
0
  6
CONTINUOUS
 62
     7
 10
344.971846
 20
214.349633
 30
0.0
 40
2.38
 50
90.0
 51
270.0
  0
ARC
  5
3BF
  8
0
  6
CONTINUOUS
 62
     7
 10
328.971846
 20
214.349633
 30
0.0
 40
2.38
 50
90.0
 51
270.0
  0
ARC
  5
3C0
  8
0
  6
CONTINUOUS
 62
     7
 10
336.971846
 20
206.349633
 30
0.0
 40
2.38
 50
270.0
 51
90.0
  0
ARC
  5
3C1
  8
0
  6
CONTINUOUS
 62
     7
 10
336.971846
 20
206.349633
 30
0.0
 40
2.38
 50
90.0
 51
270.0
  0
ARC
  5
3C2
  8
0
  6
CONTINUOUS
 62
     7
 10
326.789508
 20
226.794713
 30
0.0
 40
0.4
 50
45.0
 51
54.409584
  0
LINE
  5
3C3
  8
0
  6
CONTINUOUS
 62
     7
 10
355.07605
 20
190.349633
 30
0.0
 11
354.08572
 21
190.349633
 31
0.0
  0
LINE
  5
3C4
  8
0
  6
CONTINUOUS
 62
     7
 10
354.557632
 20
192.895218
 30
0.0
 11
353.426261
 21
191.763847
 31
0.0
  0
LINE
  5
3C5
  8
0
  6
CONTINUOUS
 62
     7
 10
353.426261
 20
191.763847
 30
0.0
 11
354.08572
 21
190.349633
 31
0.0
  0
LINE
  5
3C6
  8
0
  6
CONTINUOUS
 62
     7
 10
354.08572
 20
190.349633
 30
0.0
 11
353.426261
 21
188.93542
 31
0.0
  0
LINE
  5
3C7
  8
0
  6
CONTINUOUS
 62
     7
 10
353.426261
 20
188.93542
 30
0.0
 11
354.557632
 21
187.804049
 31
0.0
  0
LINE
  5
3C8
  8
0
  6
CONTINUOUS
 62
     7
 10
354.557632
 20
187.804049
 30
0.0
 11
355.971846
 21
188.463507
 31
0.0
  0
LINE
  5
3C9
  8
0
  6
CONTINUOUS
 62
     7
 10
355.971846
 20
188.463507
 30
0.0
 11
357.386059
 21
187.804049
 31
0.0
  0
LINE
  5
3CA
  8
0
  6
CONTINUOUS
 62
     7
 10
357.386059
 20
187.804049
 30
0.0
 11
358.51743
 21
188.93542
 31
0.0
  0
LINE
  5
3CB
  8
0
  6
CONTINUOUS
 62
     7
 10
358.51743
 20
188.93542
 30
0.0
 11
357.857972
 21
190.349633
 31
0.0
  0
LINE
  5
3CC
  8
0
  6
CONTINUOUS
 62
     7
 10
357.857972
 20
190.349633
 30
0.0
 11
358.51743
 21
191.763847
 31
0.0
  0
LINE
  5
3CD
  8
0
  6
CONTINUOUS
 62
     7
 10
358.51743
 20
191.763847
 30
0.0
 11
357.386059
 21
192.895218
 31
0.0
  0
LINE
  5
3CE
  8
0
  6
CONTINUOUS
 62
     7
 10
357.386059
 20
192.895218
 30
0.0
 11
355.971846
 21
192.235759
 31
0.0
  0
LINE
  5
3CF
  8
0
  6
CONTINUOUS
 62
     7
 10
355.971846
 20
192.235759
 30
0.0
 11
354.557632
 21
192.895218
 31
0.0
  0
LINE
  5
3D0
  8
0
  6
CONTINUOUS
 62
     7
 10
355.971846
 20
189.453838
 30
0.0
 11
355.971846
 21
188.463507
 31
0.0
  0
LINE
  5
3D1
  8
0
  6
CONTINUOUS
 62
     7
 10
356.867641
 20
190.349633
 30
0.0
 11
357.857972
 21
190.349633
 31
0.0
  0
LINE
  5
3D2
  8
0
  6
CONTINUOUS
 62
     7
 10
355.971846
 20
191.245429
 30
0.0
 11
355.971846
 21
192.235759
 31
0.0
  0
LINE
  5
3D3
  8
0
  6
CONTINUOUS
 62
     7
 10
355.07605
 20
190.349633
 30
0.0
 11
354.911186
 21
189.99608
 31
0.0
  0
LINE
  5
3D4
  8
0
  6
CONTINUOUS
 62
     7
 10
354.911186
 20
190.703187
 30
0.0
 11
355.07605
 21
190.349633
 31
0.0
  0
LINE
  5
3D5
  8
0
  6
CONTINUOUS
 62
     7
 10
355.618292
 20
191.410293
 30
0.0
 11
354.911186
 21
190.703187
 31
0.0
  0
LINE
  5
3D6
  8
0
  6
CONTINUOUS
 62
     7
 10
355.971846
 20
191.245429
 30
0.0
 11
355.618292
 21
191.410293
 31
0.0
  0
LINE
  5
3D7
  8
0
  6
CONTINUOUS
 62
     7
 10
356.325399
 20
191.410293
 30
0.0
 11
355.971846
 21
191.245429
 31
0.0
  0
LINE
  5
3D8
  8
0
  6
CONTINUOUS
 62
     7
 10
357.032506
 20
190.703187
 30
0.0
 11
356.325399
 21
191.410293
 31
0.0
  0
LINE
  5
3D9
  8
0
  6
CONTINUOUS
 62
     7
 10
356.867641
 20
190.349633
 30
0.0
 11
357.032506
 21
190.703187
 31
0.0
  0
LINE
  5
3DA
  8
0
  6
CONTINUOUS
 62
     7
 10
357.032506
 20
189.99608
 30
0.0
 11
356.867641
 21
190.349633
 31
0.0
  0
LINE
  5
3DB
  8
0
  6
CONTINUOUS
 62
     7
 10
356.325399
 20
189.288973
 30
0.0
 11
357.032506
 21
189.99608
 31
0.0
  0
LINE
  5
3DC
  8
0
  6
CONTINUOUS
 62
     7
 10
355.971846
 20
189.453838
 30
0.0
 11
356.325399
 21
189.288973
 31
0.0
  0
LINE
  5
3DD
  8
0
  6
CONTINUOUS
 62
     7
 10
355.618292
 20
189.288973
 30
0.0
 11
355.971846
 21
189.453838
 31
0.0
  0
LINE
  5
3DE
  8
0
  6
CONTINUOUS
 62
     7
 10
354.911186
 20
189.99608
 30
0.0
 11
355.618292
 21
189.288973
 31
0.0
  0
LINE
  5
3DF
  8
0
  6
CONTINUOUS
 62
     7
 10
317.07605
 20
238.349633
 30
0.0
 11
316.08572
 21
238.349633
 31
0.0
  0
LINE
  5
3E0
  8
0
  6
CONTINUOUS
 62
     7
 10
316.557632
 20
240.895218
 30
0.0
 11
315.426261
 21
239.763847
 31
0.0
  0
LINE
  5
3E1
  8
0
  6
CONTINUOUS
 62
     7
 10
315.426261
 20
239.763847
 30
0.0
 11
316.08572
 21
238.349633
 31
0.0
  0
LINE
  5
3E2
  8
0
  6
CONTINUOUS
 62
     7
 10
316.08572
 20
238.349633
 30
0.0
 11
315.426261
 21
236.93542
 31
0.0
  0
LINE
  5
3E3
  8
0
  6
CONTINUOUS
 62
     7
 10
315.426261
 20
236.93542
 30
0.0
 11
316.557632
 21
235.804049
 31
0.0
  0
LINE
  5
3E4
  8
0
  6
CONTINUOUS
 62
     7
 10
316.557632
 20
235.804049
 30
0.0
 11
317.971846
 21
236.463507
 31
0.0
  0
LINE
  5
3E5
  8
0
  6
CONTINUOUS
 62
     7
 10
317.971846
 20
236.463507
 30
0.0
 11
319.386059
 21
235.804049
 31
0.0
  0
LINE
  5
3E6
  8
0
  6
CONTINUOUS
 62
     7
 10
319.386059
 20
235.804049
 30
0.0
 11
320.51743
 21
236.93542
 31
0.0
  0
LINE
  5
3E7
  8
0
  6
CONTINUOUS
 62
     7
 10
320.51743
 20
236.93542
 30
0.0
 11
319.857972
 21
238.349633
 31
0.0
  0
LINE
  5
3E8
  8
0
  6
CONTINUOUS
 62
     7
 10
319.857972
 20
238.349633
 30
0.0
 11
320.51743
 21
239.763847
 31
0.0
  0
LINE
  5
3E9
  8
0
  6
CONTINUOUS
 62
     7
 10
320.51743
 20
239.763847
 30
0.0
 11
319.386059
 21
240.895218
 31
0.0
  0
LINE
  5
3EA
  8
0
  6
CONTINUOUS
 62
     7
 10
319.386059
 20
240.895218
 30
0.0
 11
317.971846
 21
240.235759
 31
0.0
  0
LINE
  5
3EB
  8
0
  6
CONTINUOUS
 62
     7
 10
317.971846
 20
240.235759
 30
0.0
 11
316.557632
 21
240.895218
 31
0.0
  0
LINE
  5
3EC
  8
0
  6
CONTINUOUS
 62
     7
 10
317.971846
 20
237.453838
 30
0.0
 11
317.971846
 21
236.463507
 31
0.0
  0
LINE
  5
3ED
  8
0
  6
CONTINUOUS
 62
     7
 10
318.867641
 20
238.349633
 30
0.0
 11
319.857972
 21
238.349633
 31
0.0
  0
LINE
  5
3EE
  8
0
  6
CONTINUOUS
 62
     7
 10
317.971846
 20
239.245429
 30
0.0
 11
317.971846
 21
240.235759
 31
0.0
  0
LINE
  5
3EF
  8
0
  6
CONTINUOUS
 62
     7
 10
317.07605
 20
238.349633
 30
0.0
 11
316.911186
 21
237.99608
 31
0.0
  0
LINE
  5
3F0
  8
0
  6
CONTINUOUS
 62
     7
 10
316.911186
 20
238.703187
 30
0.0
 11
317.07605
 21
238.349633
 31
0.0
  0
LINE
  5
3F1
  8
0
  6
CONTINUOUS
 62
     7
 10
317.618292
 20
239.410293
 30
0.0
 11
316.911186
 21
238.703187
 31
0.0
  0
LINE
  5
3F2
  8
0
  6
CONTINUOUS
 62
     7
 10
317.971846
 20
239.245429
 30
0.0
 11
317.618292
 21
239.410293
 31
0.0
  0
LINE
  5
3F3
  8
0
  6
CONTINUOUS
 62
     7
 10
318.325399
 20
239.410293
 30
0.0
 11
317.971846
 21
239.245429
 31
0.0
  0
LINE
  5
3F4
  8
0
  6
CONTINUOUS
 62
     7
 10
319.032506
 20
238.703187
 30
0.0
 11
318.325399
 21
239.410293
 31
0.0
  0
LINE
  5
3F5
  8
0
  6
CONTINUOUS
 62
     7
 10
318.867641
 20
238.349633
 30
0.0
 11
319.032506
 21
238.703187
 31
0.0
  0
LINE
  5
3F6
  8
0
  6
CONTINUOUS
 62
     7
 10
319.032506
 20
237.99608
 30
0.0
 11
318.867641
 21
238.349633
 31
0.0
  0
LINE
  5
3F7
  8
0
  6
CONTINUOUS
 62
     7
 10
318.325399
 20
237.288973
 30
0.0
 11
319.032506
 21
237.99608
 31
0.0
  0
LINE
  5
3F8
  8
0
  6
CONTINUOUS
 62
     7
 10
317.971846
 20
237.453838
 30
0.0
 11
318.325399
 21
237.288973
 31
0.0
  0
LINE
  5
3F9
  8
0
  6
CONTINUOUS
 62
     7
 10
317.618292
 20
237.288973
 30
0.0
 11
317.971846
 21
237.453838
 31
0.0
  0
LINE
  5
3FA
  8
0
  6
CONTINUOUS
 62
     7
 10
316.911186
 20
237.99608
 30
0.0
 11
317.618292
 21
237.288973
 31
0.0
  0
ARC
  5
3FB
  8
0
  6
CONTINUOUS
 62
     7
 10
348.002712
 20
225.380499
 30
0.0
 40
2.0
 50
84.020288
 51
121.015071
  0
LINE
  5
3FC
  8
0
  6
CONTINUOUS
 62
     7
 10
337.703096
 20
199.860271
 30
0.0
 11
337.746846
 21
200.051761
 31
0.0
  0
LINE
  5
3FD
  8
0
  6
CONTINUOUS
 62
     7
 10
337.746846
 20
200.051761
 30
0.0
 11
337.746846
 21
200.30708
 31
0.0
  0
LINE
  5
3FE
  8
0
  6
CONTINUOUS
 62
     7
 10
337.746846
 20
200.30708
 30
0.0
 11
337.703096
 21
200.562399
 31
0.0
  0
LINE
  5
3FF
  8
0
  6
CONTINUOUS
 62
     7
 10
337.703096
 20
200.562399
 30
0.0
 11
337.615596
 21
200.753888
 31
0.0
  0
LINE
  5
400
  8
0
  6
CONTINUOUS
 62
     7
 10
337.615596
 20
200.753888
 30
0.0
 11
337.396846
 21
200.881548
 31
0.0
  0
LINE
  5
401
  8
0
  6
CONTINUOUS
 62
     7
 10
337.396846
 20
200.881548
 30
0.0
 11
337.571846
 21
201.073037
 31
0.0
  0
LINE
  5
402
  8
0
  6
CONTINUOUS
 62
     7
 10
337.571846
 20
201.073037
 30
0.0
 11
337.659346
 21
201.264526
 31
0.0
  0
LINE
  5
403
  8
0
  6
CONTINUOUS
 62
     7
 10
337.659346
 20
201.264526
 30
0.0
 11
337.703096
 21
201.519846
 31
0.0
  0
LINE
  5
404
  8
0
  6
CONTINUOUS
 62
     7
 10
337.703096
 20
201.519846
 30
0.0
 11
337.703096
 21
201.647506
 31
0.0
  0
LINE
  5
405
  8
0
  6
CONTINUOUS
 62
     7
 10
337.703096
 20
201.647506
 30
0.0
 11
337.659346
 21
201.902824
 31
0.0
  0
LINE
  5
406
  8
0
  6
CONTINUOUS
 62
     7
 10
337.659346
 20
201.902824
 30
0.0
 11
337.484346
 21
202.158144
 31
0.0
  0
LINE
  5
407
  8
0
  6
CONTINUOUS
 62
     7
 10
337.484346
 20
202.158144
 30
0.0
 11
337.309346
 21
202.285804
 31
0.0
  0
LINE
  5
408
  8
0
  6
CONTINUOUS
 62
     7
 10
337.309346
 20
202.285804
 30
0.0
 11
337.003096
 21
202.349633
 31
0.0
  0
LINE
  5
409
  8
0
  6
CONTINUOUS
 62
     7
 10
337.003096
 20
202.349633
 30
0.0
 11
336.915596
 21
202.349633
 31
0.0
  0
LINE
  5
40A
  8
0
  6
CONTINUOUS
 62
     7
 10
336.915596
 20
202.349633
 30
0.0
 11
336.609346
 21
202.285804
 31
0.0
  0
LINE
  5
40B
  8
0
  6
CONTINUOUS
 62
     7
 10
336.609346
 20
202.285804
 30
0.0
 11
336.434346
 21
202.158144
 31
0.0
  0
LINE
  5
40C
  8
0
  6
CONTINUOUS
 62
     7
 10
336.434346
 20
202.158144
 30
0.0
 11
336.259346
 21
201.902824
 31
0.0
  0
LINE
  5
40D
  8
0
  6
CONTINUOUS
 62
     7
 10
336.259346
 20
201.902824
 30
0.0
 11
336.215596
 21
201.647506
 31
0.0
  0
LINE
  5
40E
  8
0
  6
CONTINUOUS
 62
     7
 10
336.215596
 20
201.647506
 30
0.0
 11
336.434346
 21
201.647506
 31
0.0
  0
LINE
  5
40F
  8
0
  6
CONTINUOUS
 62
     7
 10
336.434346
 20
201.647506
 30
0.0
 11
336.521846
 21
201.838995
 31
0.0
  0
LINE
  5
410
  8
0
  6
CONTINUOUS
 62
     7
 10
336.521846
 20
201.838995
 30
0.0
 11
336.653096
 21
201.966655
 31
0.0
  0
LINE
  5
411
  8
0
  6
CONTINUOUS
 62
     7
 10
336.653096
 20
201.966655
 30
0.0
 11
336.871846
 21
202.030484
 31
0.0
  0
LINE
  5
412
  8
0
  6
CONTINUOUS
 62
     7
 10
336.871846
 20
202.030484
 30
0.0
 11
337.046846
 21
202.030484
 31
0.0
  0
LINE
  5
413
  8
0
  6
CONTINUOUS
 62
     7
 10
337.046846
 20
202.030484
 30
0.0
 11
337.265596
 21
201.966655
 31
0.0
  0
LINE
  5
414
  8
0
  6
CONTINUOUS
 62
     7
 10
337.265596
 20
201.966655
 30
0.0
 11
337.396846
 21
201.838995
 31
0.0
  0
LINE
  5
415
  8
0
  6
CONTINUOUS
 62
     7
 10
337.396846
 20
201.838995
 30
0.0
 11
337.484346
 21
201.647506
 31
0.0
  0
LINE
  5
416
  8
0
  6
CONTINUOUS
 62
     7
 10
337.484346
 20
201.647506
 30
0.0
 11
337.484346
 21
201.519846
 31
0.0
  0
LINE
  5
417
  8
0
  6
CONTINUOUS
 62
     7
 10
337.484346
 20
201.519846
 30
0.0
 11
337.396846
 21
201.264526
 31
0.0
  0
LINE
  5
418
  8
0
  6
CONTINUOUS
 62
     7
 10
337.396846
 20
201.264526
 30
0.0
 11
337.309346
 21
201.136868
 31
0.0
  0
LINE
  5
419
  8
0
  6
CONTINUOUS
 62
     7
 10
337.309346
 20
201.136868
 30
0.0
 11
337.046846
 21
201.009208
 31
0.0
  0
LINE
  5
41A
  8
0
  6
CONTINUOUS
 62
     7
 10
337.046846
 20
201.009208
 30
0.0
 11
336.871846
 21
201.009208
 31
0.0
  0
LINE
  5
41B
  8
0
  6
CONTINUOUS
 62
     7
 10
336.871846
 20
201.009208
 30
0.0
 11
336.871846
 21
200.753888
 31
0.0
  0
LINE
  5
41C
  8
0
  6
CONTINUOUS
 62
     7
 10
336.871846
 20
200.753888
 30
0.0
 11
337.046846
 21
200.753888
 31
0.0
  0
LINE
  5
41D
  8
0
  6
CONTINUOUS
 62
     7
 10
337.046846
 20
200.753888
 30
0.0
 11
337.309346
 21
200.690059
 31
0.0
  0
LINE
  5
41E
  8
0
  6
CONTINUOUS
 62
     7
 10
337.309346
 20
200.690059
 30
0.0
 11
337.440596
 21
200.562399
 31
0.0
  0
LINE
  5
41F
  8
0
  6
CONTINUOUS
 62
     7
 10
337.440596
 20
200.562399
 30
0.0
 11
337.528096
 21
200.30708
 31
0.0
  0
LINE
  5
420
  8
0
  6
CONTINUOUS
 62
     7
 10
337.528096
 20
200.30708
 30
0.0
 11
337.528096
 21
200.051761
 31
0.0
  0
LINE
  5
421
  8
0
  6
CONTINUOUS
 62
     7
 10
337.528096
 20
200.051761
 30
0.0
 11
337.484346
 21
199.924101
 31
0.0
  0
LINE
  5
422
  8
0
  6
CONTINUOUS
 62
     7
 10
337.484346
 20
199.924101
 30
0.0
 11
337.396846
 21
199.796442
 31
0.0
  0
LINE
  5
423
  8
0
  6
CONTINUOUS
 62
     7
 10
337.396846
 20
199.796442
 30
0.0
 11
337.309346
 21
199.732612
 31
0.0
  0
LINE
  5
424
  8
0
  6
CONTINUOUS
 62
     7
 10
337.309346
 20
199.732612
 30
0.0
 11
337.090596
 21
199.668782
 31
0.0
  0
LINE
  5
425
  8
0
  6
CONTINUOUS
 62
     7
 10
337.090596
 20
199.668782
 30
0.0
 11
336.828096
 21
199.668782
 31
0.0
  0
LINE
  5
426
  8
0
  6
CONTINUOUS
 62
     7
 10
336.828096
 20
199.668782
 30
0.0
 11
336.609346
 21
199.732612
 31
0.0
  0
LINE
  5
427
  8
0
  6
CONTINUOUS
 62
     7
 10
336.609346
 20
199.732612
 30
0.0
 11
336.521846
 21
199.796442
 31
0.0
  0
LINE
  5
428
  8
0
  6
CONTINUOUS
 62
     7
 10
336.521846
 20
199.796442
 30
0.0
 11
336.434346
 21
199.924101
 31
0.0
  0
LINE
  5
429
  8
0
  6
CONTINUOUS
 62
     7
 10
336.434346
 20
199.924101
 30
0.0
 11
336.390596
 21
200.051761
 31
0.0
  0
LINE
  5
42A
  8
0
  6
CONTINUOUS
 62
     7
 10
336.390596
 20
200.051761
 30
0.0
 11
336.171846
 21
200.051761
 31
0.0
  0
LINE
  5
42B
  8
0
  6
CONTINUOUS
 62
     7
 10
336.171846
 20
200.051761
 30
0.0
 11
336.215596
 21
199.860271
 31
0.0
  0
LINE
  5
42C
  8
0
  6
CONTINUOUS
 62
     7
 10
336.215596
 20
199.860271
 30
0.0
 11
336.303096
 21
199.668782
 31
0.0
  0
LINE
  5
42D
  8
0
  6
CONTINUOUS
 62
     7
 10
336.303096
 20
199.668782
 30
0.0
 11
336.434346
 21
199.541122
 31
0.0
  0
LINE
  5
42E
  8
0
  6
CONTINUOUS
 62
     7
 10
336.434346
 20
199.541122
 30
0.0
 11
336.609346
 21
199.413463
 31
0.0
  0
LINE
  5
42F
  8
0
  6
CONTINUOUS
 62
     7
 10
336.609346
 20
199.413463
 30
0.0
 11
336.784346
 21
199.349633
 31
0.0
  0
LINE
  5
430
  8
0
  6
CONTINUOUS
 62
     7
 10
336.784346
 20
199.349633
 30
0.0
 11
337.134346
 21
199.349633
 31
0.0
  0
LINE
  5
431
  8
0
  6
CONTINUOUS
 62
     7
 10
337.134346
 20
199.349633
 30
0.0
 11
337.309346
 21
199.413463
 31
0.0
  0
LINE
  5
432
  8
0
  6
CONTINUOUS
 62
     7
 10
337.309346
 20
199.413463
 30
0.0
 11
337.484346
 21
199.541122
 31
0.0
  0
LINE
  5
433
  8
0
  6
CONTINUOUS
 62
     7
 10
337.484346
 20
199.541122
 30
0.0
 11
337.615596
 21
199.668782
 31
0.0
  0
LINE
  5
434
  8
0
  6
CONTINUOUS
 62
     7
 10
337.615596
 20
199.668782
 30
0.0
 11
337.703096
 21
199.860271
 31
0.0
  0
LINE
  5
435
  8
0
  6
CONTINUOUS
 62
     7
 10
348.571846
 20
212.849633
 30
0.0
 11
349.921846
 21
212.849633
 31
0.0
  0
LINE
  5
436
  8
0
  6
CONTINUOUS
 62
     7
 10
349.921846
 20
212.849633
 30
0.0
 11
349.921846
 21
213.168782
 31
0.0
  0
LINE
  5
437
  8
0
  6
CONTINUOUS
 62
     7
 10
349.921846
 20
213.168782
 30
0.0
 11
348.871845
 21
213.168782
 31
0.0
  0
LINE
  5
438
  8
0
  6
CONTINUOUS
 62
     7
 10
348.871845
 20
213.168782
 30
0.0
 11
349.809345
 21
214.573038
 31
0.0
  0
LINE
  5
439
  8
0
  6
CONTINUOUS
 62
     7
 10
349.809345
 20
214.573038
 30
0.0
 11
349.884346
 21
214.764527
 31
0.0
  0
LINE
  5
43A
  8
0
  6
CONTINUOUS
 62
     7
 10
349.884346
 20
214.764527
 30
0.0
 11
349.921846
 21
215.019846
 31
0.0
  0
LINE
  5
43B
  8
0
  6
CONTINUOUS
 62
     7
 10
349.921846
 20
215.019846
 30
0.0
 11
349.921846
 21
215.147506
 31
0.0
  0
LINE
  5
43C
  8
0
  6
CONTINUOUS
 62
     7
 10
349.921846
 20
215.147506
 30
0.0
 11
349.884346
 21
215.402825
 31
0.0
  0
LINE
  5
43D
  8
0
  6
CONTINUOUS
 62
     7
 10
349.884346
 20
215.402825
 30
0.0
 11
349.734346
 21
215.658144
 31
0.0
  0
LINE
  5
43E
  8
0
  6
CONTINUOUS
 62
     7
 10
349.734346
 20
215.658144
 30
0.0
 11
349.584346
 21
215.785803
 31
0.0
  0
LINE
  5
43F
  8
0
  6
CONTINUOUS
 62
     7
 10
349.584346
 20
215.785803
 30
0.0
 11
349.359346
 21
215.849633
 31
0.0
  0
LINE
  5
440
  8
0
  6
CONTINUOUS
 62
     7
 10
349.359346
 20
215.849633
 30
0.0
 11
349.209346
 21
215.849633
 31
0.0
  0
LINE
  5
441
  8
0
  6
CONTINUOUS
 62
     7
 10
349.209346
 20
215.849633
 30
0.0
 11
348.946846
 21
215.785803
 31
0.0
  0
LINE
  5
442
  8
0
  6
CONTINUOUS
 62
     7
 10
348.946846
 20
215.785803
 30
0.0
 11
348.796846
 21
215.658144
 31
0.0
  0
LINE
  5
443
  8
0
  6
CONTINUOUS
 62
     7
 10
348.796846
 20
215.658144
 30
0.0
 11
348.646846
 21
215.402825
 31
0.0
  0
LINE
  5
444
  8
0
  6
CONTINUOUS
 62
     7
 10
348.646846
 20
215.402825
 30
0.0
 11
348.609346
 21
215.147506
 31
0.0
  0
LINE
  5
445
  8
0
  6
CONTINUOUS
 62
     7
 10
348.609346
 20
215.147506
 30
0.0
 11
348.796846
 21
215.147506
 31
0.0
  0
LINE
  5
446
  8
0
  6
CONTINUOUS
 62
     7
 10
348.796846
 20
215.147506
 30
0.0
 11
348.871845
 21
215.338995
 31
0.0
  0
LINE
  5
447
  8
0
  6
CONTINUOUS
 62
     7
 10
348.871845
 20
215.338995
 30
0.0
 11
348.984346
 21
215.466655
 31
0.0
  0
LINE
  5
448
  8
0
  6
CONTINUOUS
 62
     7
 10
348.984346
 20
215.466655
 30
0.0
 11
349.171846
 21
215.530484
 31
0.0
  0
LINE
  5
449
  8
0
  6
CONTINUOUS
 62
     7
 10
349.171846
 20
215.530484
 30
0.0
 11
349.321846
 21
215.530484
 31
0.0
  0
LINE
  5
44A
  8
0
  6
CONTINUOUS
 62
     7
 10
349.321846
 20
215.530484
 30
0.0
 11
349.509346
 21
215.466655
 31
0.0
  0
LINE
  5
44B
  8
0
  6
CONTINUOUS
 62
     7
 10
349.509346
 20
215.466655
 30
0.0
 11
349.621845
 21
215.338995
 31
0.0
  0
LINE
  5
44C
  8
0
  6
CONTINUOUS
 62
     7
 10
349.621845
 20
215.338995
 30
0.0
 11
349.696846
 21
215.147506
 31
0.0
  0
LINE
  5
44D
  8
0
  6
CONTINUOUS
 62
     7
 10
349.696846
 20
215.147506
 30
0.0
 11
349.696846
 21
215.019846
 31
0.0
  0
LINE
  5
44E
  8
0
  6
CONTINUOUS
 62
     7
 10
349.696846
 20
215.019846
 30
0.0
 11
349.621845
 21
214.764527
 31
0.0
  0
LINE
  5
44F
  8
0
  6
CONTINUOUS
 62
     7
 10
349.621845
 20
214.764527
 30
0.0
 11
348.571846
 21
213.168782
 31
0.0
  0
LINE
  5
450
  8
0
  6
CONTINUOUS
 62
     7
 10
348.571846
 20
213.168782
 30
0.0
 11
348.571846
 21
212.849633
 31
0.0
  0
LINE
  5
451
  8
0
  6
CONTINUOUS
 62
     7
 10
324.496845
 20
215.849633
 30
0.0
 11
324.234346
 21
215.849633
 31
0.0
  0
LINE
  5
452
  8
0
  6
CONTINUOUS
 62
     7
 10
324.234346
 20
215.849633
 30
0.0
 11
323.971846
 21
215.402825
 31
0.0
  0
LINE
  5
453
  8
0
  6
CONTINUOUS
 62
     7
 10
323.971846
 20
215.402825
 30
0.0
 11
323.971846
 21
214.892186
 31
0.0
  0
LINE
  5
454
  8
0
  6
CONTINUOUS
 62
     7
 10
323.971846
 20
214.892186
 30
0.0
 11
324.234346
 21
215.338995
 31
0.0
  0
LINE
  5
455
  8
0
  6
CONTINUOUS
 62
     7
 10
324.234346
 20
215.338995
 30
0.0
 11
324.234346
 21
212.849633
 31
0.0
  0
LINE
  5
456
  8
0
  6
CONTINUOUS
 62
     7
 10
324.234346
 20
212.849633
 30
0.0
 11
324.496845
 21
212.849633
 31
0.0
  0
LINE
  5
457
  8
0
  6
CONTINUOUS
 62
     7
 10
324.496845
 20
212.849633
 30
0.0
 11
324.496845
 21
215.849633
 31
0.0
  0
ARC
  5
45A
  8
0
  6
CONTINUOUS
 62
     7
 10
336.971846
 20
214.349633
 30
0.0
 40
19.5
 50
17.631815
 51
17.863857
  0
ARC
  5
45B
  8
0
  6
CONTINUOUS
 62
     7
 10
336.971846
 20
214.349633
 30
0.0
 40
19.5
 50
17.863857
 51
17.920213
  0
ARC
  5
45C
  8
0
  6
CONTINUOUS
 62
     7
 10
336.971846
 20
214.349633
 30
0.0
 40
19.5
 50
342.079787
 51
342.865164
  0
ARC
  5
45D
  8
0
  6
CONTINUOUS
 62
     7
 10
336.971846
 20
214.349633
 30
0.0
 40
19.5
 50
342.865164
 51
343.921623
  0
ARC
  5
45F
  8
0
  6
CONTINUOUS
 62
     7
 10
336.971846
 20
214.349633
 30
0.0
 40
19.5
 50
347.095656
 51
347.825663
  0
ARC
  5
460
  8
0
  6
CONTINUOUS
 62
     7
 10
336.971846
 20
214.349633
 30
0.0
 40
19.5
 50
282.542232
 51
283.552479
  0
ARC
  5
461
  8
0
  6
CONTINUOUS
 62
     7
 10
336.971846
 20
214.349633
 30
0.0
 40
19.5
 50
283.552479
 51
286.639451
  0
ARC
  5
462
  8
0
  6
CONTINUOUS
 62
     7
 10
336.971846
 20
214.349633
 30
0.0
 40
19.5
 50
286.639451
 51
287.250067
  0
ARC
  5
463
  8
0
  6
CONTINUOUS
 62
     7
 10
336.971846
 20
214.349633
 30
0.0
 40
19.5
 50
287.250067
 51
287.514269
  0
ARC
  5
464
  8
0
  6
CONTINUOUS
 62
     7
 10
336.971846
 20
214.349633
 30
0.0
 40
19.5
 50
287.514269
 51
287.920213
  0
ARC
  5
469
  8
0
  6
CONTINUOUS
 62
     7
 10
328.971846
 20
214.349633
 30
0.0
 40
2.4
 50
270.0284
 51
0.0
  0
ARC
  5
46C
  8
0
  6
CONTINUOUS
 62
     7
 10
328.971846
 20
214.349633
 30
0.0
 40
2.4
 50
0.0
 51
90.0284
  0
ARC
  5
471
  8
0
  6
CONTINUOUS
 62
     7
 10
336.971846
 20
214.349633
 30
0.0
 40
19.5
 50
252.079787
 51
252.484393
  0
ARC
  5
472
  8
0
  6
CONTINUOUS
 62
     7
 10
336.971846
 20
214.349633
 30
0.0
 40
19.5
 50
252.484393
 51
253.358024
  0
ARC
  5
473
  8
0
  6
CONTINUOUS
 62
     7
 10
336.971846
 20
214.349633
 30
0.0
 40
19.5
 50
253.358024
 51
256.445583
  0
ARC
  5
474
  8
0
  6
CONTINUOUS
 62
     7
 10
336.971846
 20
214.349633
 30
0.0
 40
19.5
 50
256.445583
 51
257.456345
  0
LINE
  5
47D
  8
0
  6
CONTINUOUS
 62
     7
 10
319.083302
 20
216.349633
 30
0.0
 11
317.584577
 21
216.349633
 31
0.0
  0
LINE
  5
47E
  8
0
  6
CONTINUOUS
 62
     7
 10
317.584577
 20
216.349633
 30
0.0
 11
317.574681
 21
216.349633
 31
0.0
  0
LINE
  5
47F
  8
0
  6
CONTINUOUS
 62
     7
 10
317.574681
 20
212.349633
 30
0.0
 11
317.588566
 21
212.349633
 31
0.0
  0
LINE
  5
480
  8
0
  6
CONTINUOUS
 62
     7
 10
317.588566
 20
212.349633
 30
0.0
 11
319.083302
 21
212.349633
 31
0.0
  0
LINE
  5
481
  8
0
  6
CONTINUOUS
 62
     7
 10
334.971846
 20
196.461089
 30
0.0
 11
334.971846
 21
194.965349
 31
0.0
  0
LINE
  5
482
  8
0
  6
CONTINUOUS
 62
     7
 10
334.971846
 20
194.965349
 30
0.0
 11
334.971846
 21
194.952469
 31
0.0
  0
LINE
  5
483
  8
0
  6
CONTINUOUS
 62
     7
 10
338.971846
 20
194.952469
 30
0.0
 11
338.971846
 21
194.965357
 31
0.0
  0
LINE
  5
484
  8
0
  6
CONTINUOUS
 62
     7
 10
338.971846
 20
194.965357
 30
0.0
 11
338.971846
 21
196.461089
 31
0.0
  0
LINE
  5
485
  8
0
  6
CONTINUOUS
 62
     7
 10
354.86039
 20
212.349633
 30
0.0
 11
356.355125
 21
212.349633
 31
0.0
  0
LINE
  5
486
  8
0
  6
CONTINUOUS
 62
     7
 10
356.355125
 20
212.349633
 30
0.0
 11
356.369011
 21
212.349633
 31
0.0
  0
LINE
  5
487
  8
0
  6
CONTINUOUS
 62
     7
 10
356.369011
 20
216.349633
 30
0.0
 11
356.3591
 21
216.349633
 31
0.0
  0
LINE
  5
488
  8
0
  6
CONTINUOUS
 62
     7
 10
356.3591
 20
216.349633
 30
0.0
 11
354.86039
 21
216.349633
 31
0.0
  0
ARC
  5
48A
  8
0
  6
CONTINUOUS
 62
     7
 10
336.971846
 20
214.349633
 30
0.0
 40
19.5
 50
70.201692
 51
72.932798
  0
ARC
  5
48B
  8
0
  6
CONTINUOUS
 62
     7
 10
336.971846
 20
214.349633
 30
0.0
 40
19.5
 50
72.932798
 51
73.982723
  0
ARC
  5
48C
  8
0
  6
CONTINUOUS
 62
     7
 10
336.971846
 20
214.349633
 30
0.0
 40
19.5
 50
73.982723
 51
106.017277
  0
ARC
  5
48D
  8
0
  6
CONTINUOUS
 62
     7
 10
336.971846
 20
214.349633
 30
0.0
 40
19.5
 50
106.017277
 51
107.067202
  0
ARC
  5
48E
  8
0
  6
CONTINUOUS
 62
     7
 10
336.971846
 20
214.349633
 30
0.0
 40
19.5
 50
107.067202
 51
109.798279
  0
ARC
  5
490
  8
0
  6
CONTINUOUS
 62
     7
 10
336.971846
 20
214.349633
 30
0.0
 40
19.5
 50
287.920213
 51
290.58756
  0
ARC
  5
492
  8
0
  6
CONTINUOUS
 62
     7
 10
336.971846
 20
214.349633
 30
0.0
 40
19.5
 50
249.406964
 51
252.079787
  0
ARC
  5
494
  8
0
  6
CONTINUOUS
 62
     7
 10
348.002712
 20
225.380499
 30
0.0
 40
2.0
 50
5.979712
 51
84.020288
  0
LINE
  5
495
  8
0
  6
CONTINUOUS
 62
     7
 10
320.001283
 20
220.349633
 30
0.0
 11
318.41787
 21
220.349633
 31
0.0
  0
ARC
  5
496
  8
0
  6
CONTINUOUS
 62
     7
 10
336.971846
 20
214.349633
 30
0.0
 40
18.0
 50
160.528779
 51
199.471221
  0
LINE
  5
498
  8
0
  6
CONTINUOUS
 62
     7
 10
318.429858
 20
208.349633
 30
0.0
 11
320.001283
 21
208.349633
 31
0.0
  0
LINE
  5
499
  8
0
  6
CONTINUOUS
 62
     7
 10
330.971846
 20
197.379071
 30
0.0
 11
330.971846
 21
195.795658
 31
0.0
  0
ARC
  5
49A
  8
0
  6
CONTINUOUS
 62
     7
 10
336.971846
 20
214.349633
 30
0.0
 40
18.0
 50
250.528779
 51
289.471221
  0
LINE
  5
49B
  8
0
  6
CONTINUOUS
 62
     7
 10
342.971846
 20
195.795658
 30
0.0
 11
342.971846
 21
197.379071
 31
0.0
  0
LINE
  5
49C
  8
0
  6
CONTINUOUS
 62
     7
 10
353.942409
 20
208.349633
 30
0.0
 11
355.513845
 21
208.349633
 31
0.0
  0
LINE
  5
49D
  8
0
  6
CONTINUOUS
 62
     7
 10
355.513845
 20
208.349633
 30
0.0
 11
355.525821
 21
208.349633
 31
0.0
  0
ARC
  5
49E
  8
0
  6
CONTINUOUS
 62
     7
 10
336.971846
 20
214.349633
 30
0.0
 40
18.0
 50
340.528779
 51
19.471221
  0
LINE
  5
49F
  8
0
  6
CONTINUOUS
 62
     7
 10
355.525821
 20
220.349633
 30
0.0
 11
353.942409
 21
220.349633
 31
0.0
  0
ARC
  5
4A0
  8
0
  6
CONTINUOUS
 62
     7
 10
348.002712
 20
225.380499
 30
0.0
 40
2.0
 50
328.984929
 51
5.979712
  0
ARC
  5
4A1
  8
0
  6
CONTINUOUS
 62
     7
 10
336.971846
 20
214.349633
 30
0.0
 40
16.2
 50
51.880413
 51
233.656021
  0
ARC
  5
4A2
  8
0
  6
CONTINUOUS
 62
     7
 10
336.971846
 20
214.349633
 30
0.0
 40
16.2
 50
233.656021
 51
38.119587
  0
ARC
  5
4A3
  8
0
  6
CONTINUOUS
 62
     7
 10
355.971846
 20
190.349633
 30
0.0
 40
7.0
 50
270.0
 51
275.195554
  0
ARC
  5
4A4
  8
0
  6
CONTINUOUS
 62
     7
 10
355.971846
 20
190.349633
 30
0.0
 40
7.0
 50
275.195554
 51
354.798848
  0
ARC
  5
4A5
  8
0
  6
CONTINUOUS
 62
     7
 10
355.971846
 20
190.349633
 30
0.0
 40
7.0
 50
354.798848
 51
0.0
  0
ARC
  5
4A6
  8
0
  6
CONTINUOUS
 62
     7
 10
317.971846
 20
190.349633
 30
0.0
 40
7.0
 50
180.0
 51
185.195554
  0
ARC
  5
4A7
  8
0
  6
CONTINUOUS
 62
     7
 10
317.971846
 20
190.349633
 30
0.0
 40
7.0
 50
185.195554
 51
264.798848
  0
ARC
  5
4A8
  8
0
  6
CONTINUOUS
 62
     7
 10
317.971846
 20
190.349633
 30
0.0
 40
7.0
 50
264.798848
 51
270.0
  0
ARC
  5
4A9
  8
0
  6
CONTINUOUS
 62
     7
 10
317.971846
 20
238.349633
 30
0.0
 40
7.0
 50
90.0
 51
95.195554
  0
ARC
  5
4AA
  8
0
  6
CONTINUOUS
 62
     7
 10
317.971846
 20
238.349633
 30
0.0
 40
7.0
 50
95.195554
 51
174.798848
  0
ARC
  5
4AB
  8
0
  6
CONTINUOUS
 62
     7
 10
317.971846
 20
238.349633
 30
0.0
 40
7.0
 50
174.798848
 51
180.0
  0
ARC
  5
4AC
  8
0
  6
CONTINUOUS
 62
     7
 10
355.971846
 20
238.349633
 30
0.0
 40
7.0
 50
0.0
 51
5.195554
  0
ARC
  5
4AD
  8
0
  6
CONTINUOUS
 62
     7
 10
355.971846
 20
238.349633
 30
0.0
 40
7.0
 50
5.195554
 51
84.798848
  0
ARC
  5
4AE
  8
0
  6
CONTINUOUS
 62
     7
 10
355.971846
 20
238.349633
 30
0.0
 40
7.0
 50
84.798848
 51
90.0
  0
LINE
  5
4AF
  8
0
  6
CONTINUOUS
 62
     7
 10
341.148211
 20
234.349633
 30
0.0
 11
332.79548
 21
234.349633
 31
0.0
  0
LINE
  5
4B0
  8
0
  6
CONTINUOUS
 62
     7
 10
342.271846
 20
235.149633
 30
0.0
 11
342.271846
 21
233.564211
 31
0.0
  0
ARC
  5
4B1
  8
0
  6
CONTINUOUS
 62
     7
 10
342.871846
 20
233.564211
 30
0.0
 40
0.6
 50
180.0
 51
216.722443
  0
ARC
  5
4B2
  8
0
  6
CONTINUOUS
 62
     7
 10
336.971846
 20
214.349633
 30
0.0
 40
19.5
 50
107.069551
 51
287.251641
  0
ARC
  5
4B3
  8
0
  6
CONTINUOUS
 62
     7
 10
331.071846
 20
233.564211
 30
0.0
 40
0.6
 50
323.277557
 51
0.0
  0
LINE
  5
4B4
  8
0
  6
CONTINUOUS
 62
     7
 10
331.671846
 20
233.564211
 30
0.0
 11
331.671846
 21
235.149633
 31
0.0
  0
ARC
  5
4B5
  8
0
  6
CONTINUOUS
 62
     7
 10
355.971846
 20
190.349633
 30
0.0
 40
7.0
 50
270.0
 51
275.190681
  0
ARC
  5
4B6
  8
0
  6
CONTINUOUS
 62
     7
 10
355.971846
 20
190.349633
 30
0.0
 40
7.0
 50
275.190681
 51
354.80353
  0
ARC
  5
4B7
  8
0
  6
CONTINUOUS
 62
     7
 10
355.971846
 20
190.349633
 30
0.0
 40
7.0
 50
354.80353
 51
0.0
  0
LINE
  5
4B8
  8
0
  6
CONTINUOUS
 62
     7
 10
317.971846
 20
183.349633
 30
0.0
 11
355.971846
 21
183.349633
 31
0.0
  0
ARC
  5
4B9
  8
0
  6
CONTINUOUS
 62
     7
 10
317.971846
 20
190.349633
 30
0.0
 40
7.0
 50
180.0
 51
185.190681
  0
ARC
  5
4BA
  8
0
  6
CONTINUOUS
 62
     7
 10
317.971846
 20
190.349633
 30
0.0
 40
7.0
 50
185.190681
 51
264.80353
  0
ARC
  5
4BB
  8
0
  6
CONTINUOUS
 62
     7
 10
317.971846
 20
190.349633
 30
0.0
 40
7.0
 50
264.80353
 51
270.0
  0
LINE
  5
4BC
  8
0
  6
CONTINUOUS
 62
     7
 10
310.971846
 20
238.349633
 30
0.0
 11
310.971846
 21
190.349633
 31
0.0
  0
ARC
  5
4BD
  8
0
  6
CONTINUOUS
 62
     7
 10
317.971846
 20
238.349633
 30
0.0
 40
7.0
 50
90.0
 51
95.190681
  0
ARC
  5
4BE
  8
0
  6
CONTINUOUS
 62
     7
 10
317.971846
 20
238.349633
 30
0.0
 40
7.0
 50
95.190681
 51
174.80353
  0
ARC
  5
4BF
  8
0
  6
CONTINUOUS
 62
     7
 10
317.971846
 20
238.349633
 30
0.0
 40
7.0
 50
174.80353
 51
180.0
  0
LINE
  5
4C0
  8
0
  6
CONTINUOUS
 62
     7
 10
355.971846
 20
245.349633
 30
0.0
 11
317.971846
 21
245.349633
 31
0.0
  0
ARC
  5
4C1
  8
0
  6
CONTINUOUS
 62
     7
 10
355.971846
 20
238.349633
 30
0.0
 40
7.0
 50
0.0
 51
5.190681
  0
ARC
  5
4C2
  8
0
  6
CONTINUOUS
 62
     7
 10
355.971846
 20
238.349633
 30
0.0
 40
7.0
 50
5.190681
 51
84.80353
  0
ARC
  5
4C3
  8
0
  6
CONTINUOUS
 62
     7
 10
355.971846
 20
238.349633
 30
0.0
 40
7.0
 50
84.80353
 51
90.0
  0
LINE
  5
4C4
  8
0
  6
CONTINUOUS
 62
     7
 10
362.971846
 20
190.349633
 30
0.0
 11
362.971846
 21
238.349633
 31
0.0
  0
ARC
  5
4C5
  8
0
  6
CONTINUOUS
 62
     7
 10
331.071846
 20
233.564211
 30
0.0
 40
0.6
 50
287.069551
 51
323.277557
  0
ARC
  5
4C6
  8
0
  6
CONTINUOUS
 62
     7
 10
342.871846
 20
233.564211
 30
0.0
 40
0.6
 50
216.722443
 51
252.930449
  0
LINE
  5
4C7
  8
0
  6
CONTINUOUS
 62
     7
 10
331.671846
 20
237.149633
 30
0.0
 11
331.671846
 21
235.149633
 31
0.0
  0
ARC
  5
4C8
  8
0
  6
CONTINUOUS
 62
     7
 10
336.971846
 20
214.349633
 30
0.0
 40
23.6
 50
104.96009
 51
105.231036
  0
ARC
  5
4C9
  8
0
  6
CONTINUOUS
 62
     7
 10
336.971846
 20
214.349633
 30
0.0
 40
23.6
 50
74.768964
 51
75.03991
  0
LINE
  5
4CA
  8
0
  6
CONTINUOUS
 62
     7
 10
342.271846
 20
235.149633
 30
0.0
 11
342.271846
 21
237.149633
 31
0.0
  0
ARC
  5
4CB
  8
0
  6
CONTINUOUS
 62
     7
 10
336.971846
 20
214.349633
 30
0.0
 40
23.6
 50
71.602534
 51
74.768964
  0
ARC
  5
4CC
  8
0
  6
CONTINUOUS
 62
     7
 10
336.971846
 20
214.349633
 30
0.0
 40
23.6
 50
105.231036
 51
108.397466
  0
LINE
  5
4CD
  8
0
  6
CONTINUOUS
 62
     7
 10
330.771846
 20
237.149633
 30
0.0
 11
343.171846
 21
237.149633
 31
0.0
  0
ARC
  5
4CE
  8
0
  6
CONTINUOUS
 62
     7
 10
336.971846
 20
214.349633
 30
0.0
 40
23.6
 50
69.11238
 51
71.602534
  0
ARC
  5
4CF
  8
0
  6
CONTINUOUS
 62
     7
 10
336.971846
 20
214.349633
 30
0.0
 40
23.6
 50
110.88762
 51
290.940098
  0
ARC
  5
4D0
  8
0
  6
CONTINUOUS
 62
     7
 10
336.971846
 20
214.349633
 30
0.0
 40
23.6
 50
108.397466
 51
110.88762
  0
ARC
  5
4D1
  8
0
  6
CONTINUOUS
 62
     7
 10
355.971846
 20
238.349633
 30
0.0
 40
5.0
 50
0.0
 51
180.0
  0
ARC
  5
4D2
  8
0
  6
CONTINUOUS
 62
     7
 10
355.971846
 20
238.349633
 30
0.0
 40
5.0
 50
180.0
 51
0.0
  0
ARC
  5
4D3
  8
0
  6
CONTINUOUS
 62
     7
 10
317.971846
 20
190.349633
 30
0.0
 40
5.0
 50
0.0
 51
180.0
  0
ARC
  5
4D4
  8
0
  6
CONTINUOUS
 62
     7
 10
317.971846
 20
190.349633
 30
0.0
 40
5.0
 50
180.0
 51
0.0
  0
ARC
  5
4D5
  8
0
  6
CONTINUOUS
 62
     7
 10
355.971846
 20
190.349633
 30
0.0
 40
6.0
 50
180.0
 51
0.0
  0
ARC
  5
4D6
  8
0
  6
CONTINUOUS
 62
     7
 10
355.971846
 20
190.349633
 30
0.0
 40
6.0
 50
0.0
 51
180.0
  0
ARC
  5
4D7
  8
0
  6
CONTINUOUS
 62
     7
 10
317.971846
 20
238.349633
 30
0.0
 40
6.0
 50
180.0
 51
0.0
  0
ARC
  5
4D8
  8
0
  6
CONTINUOUS
 62
     7
 10
317.971846
 20
238.349633
 30
0.0
 40
6.0
 50
0.0
 51
180.0
  0
LINE
  5
4D9
  8
0
  6
CONTINUOUS
 62
     7
 10
330.771846
 20
237.149633
 30
0.0
 11
330.771846
 21
237.120667
 31
0.0
  0
LINE
  5
4DA
  8
0
  6
CONTINUOUS
 62
     7
 10
343.171846
 20
237.120667
 30
0.0
 11
343.171846
 21
237.149633
 31
0.0
  0
ARC
  5
4DB
  8
0
  6
CONTINUOUS
 62
     7
 10
353.041793
 20
240.0413
 30
0.0
 40
0.483333
 50
60.0
 51
150.0
  0
ARC
  5
4DC
  8
0
  6
CONTINUOUS
 62
     7
 10
355.971846
 20
238.349633
 30
0.0
 40
3.866667
 50
150.0
 51
210.0
  0
ARC
  5
4DD
  8
0
  6
CONTINUOUS
 62
     7
 10
353.041793
 20
236.657967
 30
0.0
 40
0.483333
 50
210.0
 51
30.0
  0
ARC
  5
4DE
  8
0
  6
CONTINUOUS
 62
     7
 10
355.971846
 20
238.349633
 30
0.0
 40
2.9
 50
159.594068
 51
210.0
  0
LINE
  5
4DF
  8
0
  6
CONTINUOUS
 62
     7
 10
354.268958
 20
238.774691
 30
0.0
 11
353.253833
 21
239.360774
 31
0.0
  0
ARC
  5
4E0
  8
0
  6
CONTINUOUS
 62
     7
 10
354.510625
 20
239.19327
 30
0.0
 40
0.483333
 50
240.0
 51
60.0
  0
LINE
  5
4E1
  8
0
  6
CONTINUOUS
 62
     7
 10
353.28346
 20
240.459879
 30
0.0
 11
354.752291
 21
239.611849
 31
0.0
  0
LINE
  5
4E2
  8
0
  6
CONTINUOUS
 62
     7
 10
355.488512
 20
234.9663
 30
0.0
 11
355.488512
 21
241.209072
 31
0.0
  0
ARC
  5
4E3
  8
0
  6
CONTINUOUS
 62
     7
 10
355.971846
 20
234.9663
 30
0.0
 40
0.483333
 50
180.0
 51
0.0
  0
LINE
  5
4E4
  8
0
  6
CONTINUOUS
 62
     7
 10
356.455179
 20
241.209072
 30
0.0
 11
356.455179
 21
234.9663
 31
0.0
  0
ARC
  5
4E5
  8
0
  6
CONTINUOUS
 62
     7
 10
355.971846
 20
238.349633
 30
0.0
 40
2.9
 50
60.0
 51
80.405932
  0
ARC
  5
4E6
  8
0
  6
CONTINUOUS
 62
     7
 10
357.663512
 20
241.279686
 30
0.0
 40
0.483333
 50
240.0
 51
60.0
  0
ARC
  5
4E7
  8
0
  6
CONTINUOUS
 62
     7
 10
355.971846
 20
238.349633
 30
0.0
 40
3.866667
 50
60.0
 51
125.0
  0
ARC
  5
4E8
  8
0
  6
CONTINUOUS
 62
     7
 10
354.031245
 20
241.121098
 30
0.0
 40
0.483333
 50
125.0
 51
305.0
  0
ARC
  5
4E9
  8
0
  6
CONTINUOUS
 62
     7
 10
355.971846
 20
238.349633
 30
0.0
 40
2.9
 50
99.594068
 51
125.0
  0
LINE
  5
4EA
  8
0
  6
CONTINUOUS
 62
     7
 10
357.678569
 20
237.922361
 30
0.0
 11
358.689859
 21
237.338493
 31
0.0
  0
ARC
  5
4EB
  8
0
  6
CONTINUOUS
 62
     7
 10
357.436903
 20
237.503782
 30
0.0
 40
0.483333
 50
60.0
 51
240.0
  0
LINE
  5
4EC
  8
0
  6
CONTINUOUS
 62
     7
 10
358.660232
 20
236.239388
 30
0.0
 11
357.195236
 21
237.085203
 31
0.0
  0
ARC
  5
4ED
  8
0
  6
CONTINUOUS
 62
     7
 10
358.901898
 20
236.657967
 30
0.0
 40
0.483333
 50
240.0
 51
330.0
  0
ARC
  5
4EE
  8
0
  6
CONTINUOUS
 62
     7
 10
355.971846
 20
238.349633
 30
0.0
 40
3.866667
 50
330.0
 51
30.0
  0
ARC
  5
4EF
  8
0
  6
CONTINUOUS
 62
     7
 10
358.901898
 20
240.0413
 30
0.0
 40
0.483333
 50
30.0
 51
210.0
  0
ARC
  5
4F0
  8
0
  6
CONTINUOUS
 62
     7
 10
355.971846
 20
238.349633
 30
0.0
 40
2.9
 50
339.594068
 51
30.0
  0
ARC
  5
4F1
  8
0
  6
CONTINUOUS
 62
     7
 10
336.971846
 20
214.349633
 30
0.0
 40
19.5
 50
287.251641
 51
72.930449
  0
ARC
  5
4F2
  8
0
  6
CONTINUOUS
 62
     7
 10
336.971846
 20
214.349633
 30
0.0
 40
23.6
 50
290.940098
 51
69.11238
  0
LINE
  5
4F3
  8
0
  6
CONTINUOUS
 62
     7
 10
341.271846
 20
234.885532
 30
0.0
 11
332.671846
 21
234.885532
 31
0.0
  0
LINE
  5
4F4
  8
0
  6
CONTINUOUS
 62
     7
 10
332.79548
 20
234.349633
 30
0.0
 11
331.671846
 21
234.349633
 31
0.0
  0
POLYLINE
  8
0
  5
7E4
  62
7
  66
     1
 10
0.000000
 20
0.000000
 30
0.000000
  70
     8
  0
VERTEX
  8
0
  5
7E5
 10
342.272
 20
235.153
 30
0.000000
  70
    32
  0
VERTEX
  8
0
  5
7E6
 10
342.272
 20
235.149
 30
0.000000
  70
    32
  0
VERTEX
  8
0
  5
7E7
 10
342.271
 20
235.145
 30
0.000000
  70
    32
  0
VERTEX
  8
0
  5
7E8
 10
342.271
 20
235.141
 30
0.000000
  70
    32
  0
VERTEX
  8
0
  5
7E9
 10
342.270
 20
235.137
 30
0.000000
  70
    32
  0
VERTEX
  8
0
  5
7EA
 10
342.269
 20
235.133
 30
0.000000
  70
    32
  0
VERTEX
  8
0
  5
7EB
 10
342.267
 20
235.129
 30
0.000000
  70
    32
  0
VERTEX
  8
0
  5
7EC
 10
342.266
 20
235.125
 30
0.000000
  70
    32
  0
VERTEX
  8
0
  5
7ED
 10
342.264
 20
235.121
 30
0.000000
  70
    32
  0
VERTEX
  8
0
  5
7EE
 10
342.262
 20
235.117
 30
0.000000
  70
    32
  0
VERTEX
  8
0
  5
7EF
 10
342.260
 20
235.114
 30
0.000000
  70
    32
  0
VERTEX
  8
0
  5
7F0
 10
342.258
 20
235.110
 30
0.000000
  70
    32
  0
VERTEX
  8
0
  5
7F1
 10
342.256
 20
235.106
 30
0.000000
  70
    32
  0
VERTEX
  8
0
  5
7F2
 10
342.253
 20
235.103
 30
0.000000
  70
    32
  0
VERTEX
  8
0
  5
7F3
 10
342.250
 20
235.099
 30
0.000000
  70
    32
  0
VERTEX
  8
0
  5
7F4
 10
342.248
 20
235.096
 30
0.000000
  70
    32
  0
VERTEX
  8
0
  5
7F5
 10
342.245
 20
235.092
 30
0.000000
  70
    32
  0
VERTEX
  8
0
  5
7F6
 10
342.242
 20
235.089
 30
0.000000
  70
    32
  0
VERTEX
  8
0
  5
7F7
 10
342.239
 20
235.086
 30
0.000000
  70
    32
  0
VERTEX
  8
0
  5
7F8
 10
342.235
 20
235.082
 30
0.000000
  70
    32
  0
VERTEX
  8
0
  5
7F9
 10
342.232
 20
235.079
 30
0.000000
  70
    32
  0
VERTEX
  8
0
  5
7FA
 10
342.229
 20
235.076
 30
0.000000
  70
    32
  0
VERTEX
  8
0
  5
7FB
 10
342.226
 20
235.073
 30
0.000000
  70
    32
  0
VERTEX
  8
0
  5
7FC
 10
342.222
 20
235.070
 30
0.000000
  70
    32
  0
VERTEX
  8
0
  5
7FD
 10
342.219
 20
235.067
 30
0.000000
  70
    32
  0
VERTEX
  8
0
  5
7FE
 10
342.215
 20
235.064
 30
0.000000
  70
    32
  0
VERTEX
  8
0
  5
7FF
 10
342.212
 20
235.062
 30
0.000000
  70
    32
  0
VERTEX
  8
0
  5
800
 10
342.208
 20
235.059
 30
0.000000
  70
    32
  0
VERTEX
  8
0
  5
801
 10
342.205
 20
235.056
 30
0.000000
  70
    32
  0
VERTEX
  8
0
  5
802
 10
342.201
 20
235.054
 30
0.000000
  70
    32
  0
VERTEX
  8
0
  5
803
 10
342.198
 20
235.051
 30
0.000000
  70
    32
  0
VERTEX
  8
0
  5
804
 10
342.194
 20
235.049
 30
0.000000
  70
    32
  0
VERTEX
  8
0
  5
805
 10
342.191
 20
235.046
 30
0.000000
  70
    32
  0
VERTEX
  8
0
  5
806
 10
342.187
 20
235.044
 30
0.000000
  70
    32
  0
VERTEX
  8
0
  5
807
 10
342.183
 20
235.042
 30
0.000000
  70
    32
  0
VERTEX
  8
0
  5
808
 10
342.180
 20
235.040
 30
0.000000
  70
    32
  0
VERTEX
  8
0
  5
809
 10
342.176
 20
235.037
 30
0.000000
  70
    32
  0
VERTEX
  8
0
  5
80A
 10
342.173
 20
235.035
 30
0.000000
  70
    32
  0
VERTEX
  8
0
  5
80B
 10
342.169
 20
235.033
 30
0.000000
  70
    32
  0
VERTEX
  8
0
  5
80C
 10
342.165
 20
235.031
 30
0.000000
  70
    32
  0
VERTEX
  8
0
  5
80D
 10
342.161
 20
235.029
 30
0.000000
  70
    32
  0
VERTEX
  8
0
  5
80E
 10
342.158
 20
235.027
 30
0.000000
  70
    32
  0
VERTEX
  8
0
  5
80F
 10
342.154
 20
235.025
 30
0.000000
  70
    32
  0
VERTEX
  8
0
  5
810
 10
342.150
 20
235.024
 30
0.000000
  70
    32
  0
VERTEX
  8
0
  5
811
 10
342.146
 20
235.022
 30
0.000000
  70
    32
  0
VERTEX
  8
0
  5
812
 10
342.142
 20
235.020
 30
0.000000
  70
    32
  0
VERTEX
  8
0
  5
813
 10
342.139
 20
235.018
 30
0.000000
  70
    32
  0
VERTEX
  8
0
  5
814
 10
342.135
 20
235.017
 30
0.000000
  70
    32
  0
VERTEX
  8
0
  5
815
 10
342.131
 20
235.015
 30
0.000000
  70
    32
  0
VERTEX
  8
0
  5
816
 10
342.127
 20
235.013
 30
0.000000
  70
    32
  0
VERTEX
  8
0
  5
817
 10
342.123
 20
235.012
 30
0.000000
  70
    32
  0
VERTEX
  8
0
  5
818
 10
342.119
 20
235.010
 30
0.000000
  70
    32
  0
VERTEX
  8
0
  5
819
 10
342.115
 20
235.009
 30
0.000000
  70
    32
  0
VERTEX
  8
0
  5
81A
 10
342.112
 20
235.007
 30
0.000000
  70
    32
  0
VERTEX
  8
0
  5
81B
 10
342.108
 20
235.006
 30
0.000000
  70
    32
  0
VERTEX
  8
0
  5
81C
 10
342.104
 20
235.004
 30
0.000000
  70
    32
  0
VERTEX
  8
0
  5
81D
 10
342.100
 20
235.003
 30
0.000000
  70
    32
  0
VERTEX
  8
0
  5
81E
 10
342.096
 20
235.001
 30
0.000000
  70
    32
  0
VERTEX
  8
0
  5
81F
 10
342.092
 20
235.000
 30
0.000000
  70
    32
  0
VERTEX
  8
0
  5
820
 10
342.088
 20
234.998
 30
0.000000
  70
    32
  0
VERTEX
  8
0
  5
821
 10
342.084
 20
234.997
 30
0.000000
  70
    32
  0
VERTEX
  8
0
  5
822
 10
342.080
 20
234.996
 30
0.000000
  70
    32
  0
VERTEX
  8
0
  5
823
 10
342.076
 20
234.994
 30
0.000000
  70
    32
  0
VERTEX
  8
0
  5
824
 10
342.072
 20
234.993
 30
0.000000
  70
    32
  0
VERTEX
  8
0
  5
825
 10
342.068
 20
234.992
 30
0.000000
  70
    32
  0
VERTEX
  8
0
  5
826
 10
342.064
 20
234.990
 30
0.000000
  70
    32
  0
VERTEX
  8
0
  5
827
 10
342.060
 20
234.989
 30
0.000000
  70
    32
  0
VERTEX
  8
0
  5
828
 10
342.056
 20
234.988
 30
0.000000
  70
    32
  0
VERTEX
  8
0
  5
829
 10
342.052
 20
234.986
 30
0.000000
  70
    32
  0
VERTEX
  8
0
  5
82A
 10
342.048
 20
234.985
 30
0.000000
  70
    32
  0
VERTEX
  8
0
  5
82B
 10
342.044
 20
234.984
 30
0.000000
  70
    32
  0
VERTEX
  8
0
  5
82C
 10
342.040
 20
234.982
 30
0.000000
  70
    32
  0
VERTEX
  8
0
  5
82D
 10
342.036
 20
234.981
 30
0.000000
  70
    32
  0
VERTEX
  8
0
  5
82E
 10
342.032
 20
234.980
 30
0.000000
  70
    32
  0
VERTEX
  8
0
  5
82F
 10
342.028
 20
234.979
 30
0.000000
  70
    32
  0
VERTEX
  8
0
  5
830
 10
342.024
 20
234.978
 30
0.000000
  70
    32
  0
VERTEX
  8
0
  5
831
 10
342.020
 20
234.976
 30
0.000000
  70
    32
  0
VERTEX
  8
0
  5
832
 10
342.016
 20
234.975
 30
0.000000
  70
    32
  0
VERTEX
  8
0
  5
833
 10
342.012
 20
234.974
 30
0.000000
  70
    32
  0
VERTEX
  8
0
  5
834
 10
342.008
 20
234.973
 30
0.000000
  70
    32
  0
VERTEX
  8
0
  5
835
 10
342.004
 20
234.972
 30
0.000000
  70
    32
  0
VERTEX
  8
0
  5
836
 10
342.000
 20
234.970
 30
0.000000
  70
    32
  0
VERTEX
  8
0
  5
837
 10
341.996
 20
234.969
 30
0.000000
  70
    32
  0
VERTEX
  8
0
  5
838
 10
341.992
 20
234.968
 30
0.000000
  70
    32
  0
VERTEX
  8
0
  5
839
 10
341.987
 20
234.967
 30
0.000000
  70
    32
  0
VERTEX
  8
0
  5
83A
 10
341.983
 20
234.966
 30
0.000000
  70
    32
  0
VERTEX
  8
0
  5
83B
 10
341.979
 20
234.965
 30
0.000000
  70
    32
  0
VERTEX
  8
0
  5
83C
 10
341.975
 20
234.964
 30
0.000000
  70
    32
  0
VERTEX
  8
0
  5
83D
 10
341.971
 20
234.963
 30
0.000000
  70
    32
  0
VERTEX
  8
0
  5
83E
 10
341.967
 20
234.962
 30
0.000000
  70
    32
  0
VERTEX
  8
0
  5
83F
 10
341.963
 20
234.960
 30
0.000000
  70
    32
  0
VERTEX
  8
0
  5
840
 10
341.959
 20
234.959
 30
0.000000
  70
    32
  0
VERTEX
  8
0
  5
841
 10
341.955
 20
234.958
 30
0.000000
  70
    32
  0
VERTEX
  8
0
  5
842
 10
341.951
 20
234.957
 30
0.000000
  70
    32
  0
VERTEX
  8
0
  5
843
 10
341.947
 20
234.956
 30
0.000000
  70
    32
  0
VERTEX
  8
0
  5
844
 10
341.942
 20
234.955
 30
0.000000
  70
    32
  0
VERTEX
  8
0
  5
845
 10
341.938
 20
234.954
 30
0.000000
  70
    32
  0
VERTEX
  8
0
  5
846
 10
341.934
 20
234.953
 30
0.000000
  70
    32
  0
VERTEX
  8
0
  5
847
 10
341.930
 20
234.952
 30
0.000000
  70
    32
  0
VERTEX
  8
0
  5
848
 10
341.926
 20
234.951
 30
0.000000
  70
    32
  0
VERTEX
  8
0
  5
849
 10
341.922
 20
234.950
 30
0.000000
  70
    32
  0
VERTEX
  8
0
  5
84A
 10
341.918
 20
234.949
 30
0.000000
  70
    32
  0
VERTEX
  8
0
  5
84B
 10
341.914
 20
234.948
 30
0.000000
  70
    32
  0
VERTEX
  8
0
  5
84C
 10
341.910
 20
234.947
 30
0.000000
  70
    32
  0
VERTEX
  8
0
  5
84D
 10
341.905
 20
234.946
 30
0.000000
  70
    32
  0
VERTEX
  8
0
  5
84E
 10
341.901
 20
234.946
 30
0.000000
  70
    32
  0
VERTEX
  8
0
  5
84F
 10
341.897
 20
234.945
 30
0.000000
  70
    32
  0
VERTEX
  8
0
  5
850
 10
341.893
 20
234.944
 30
0.000000
  70
    32
  0
VERTEX
  8
0
  5
851
 10
341.889
 20
234.943
 30
0.000000
  70
    32
  0
VERTEX
  8
0
  5
852
 10
341.885
 20
234.942
 30
0.000000
  70
    32
  0
VERTEX
  8
0
  5
853
 10
341.881
 20
234.941
 30
0.000000
  70
    32
  0
VERTEX
  8
0
  5
854
 10
341.876
 20
234.940
 30
0.000000
  70
    32
  0
VERTEX
  8
0
  5
855
 10
341.872
 20
234.939
 30
0.000000
  70
    32
  0
VERTEX
  8
0
  5
856
 10
341.868
 20
234.938
 30
0.000000
  70
    32
  0
VERTEX
  8
0
  5
857
 10
341.864
 20
234.938
 30
0.000000
  70
    32
  0
VERTEX
  8
0
  5
858
 10
341.860
 20
234.937
 30
0.000000
  70
    32
  0
VERTEX
  8
0
  5
859
 10
341.856
 20
234.936
 30
0.000000
  70
    32
  0
VERTEX
  8
0
  5
85A
 10
341.852
 20
234.935
 30
0.000000
  70
    32
  0
VERTEX
  8
0
  5
85B
 10
341.847
 20
234.934
 30
0.000000
  70
    32
  0
VERTEX
  8
0
  5
85C
 10
341.843
 20
234.934
 30
0.000000
  70
    32
  0
VERTEX
  8
0
  5
85D
 10
341.839
 20
234.933
 30
0.000000
  70
    32
  0
VERTEX
  8
0
  5
85E
 10
341.835
 20
234.932
 30
0.000000
  70
    32
  0
VERTEX
  8
0
  5
85F
 10
341.831
 20
234.931
 30
0.000000
  70
    32
  0
VERTEX
  8
0
  5
860
 10
341.827
 20
234.930
 30
0.000000
  70
    32
  0
VERTEX
  8
0
  5
861
 10
341.822
 20
234.930
 30
0.000000
  70
    32
  0
VERTEX
  8
0
  5
862
 10
341.818
 20
234.929
 30
0.000000
  70
    32
  0
VERTEX
  8
0
  5
863
 10
341.814
 20
234.928
 30
0.000000
  70
    32
  0
VERTEX
  8
0
  5
864
 10
341.810
 20
234.927
 30
0.000000
  70
    32
  0
VERTEX
  8
0
  5
865
 10
341.806
 20
234.927
 30
0.000000
  70
    32
  0
VERTEX
  8
0
  5
866
 10
341.802
 20
234.926
 30
0.000000
  70
    32
  0
VERTEX
  8
0
  5
867
 10
341.798
 20
234.925
 30
0.000000
  70
    32
  0
VERTEX
  8
0
  5
868
 10
341.793
 20
234.925
 30
0.000000
  70
    32
  0
VERTEX
  8
0
  5
869
 10
341.789
 20
234.924
 30
0.000000
  70
    32
  0
VERTEX
  8
0
  5
86A
 10
341.785
 20
234.923
 30
0.000000
  70
    32
  0
VERTEX
  8
0
  5
86B
 10
341.781
 20
234.923
 30
0.000000
  70
    32
  0
VERTEX
  8
0
  5
86C
 10
341.777
 20
234.922
 30
0.000000
  70
    32
  0
VERTEX
  8
0
  5
86D
 10
341.772
 20
234.921
 30
0.000000
  70
    32
  0
VERTEX
  8
0
  5
86E
 10
341.768
 20
234.921
 30
0.000000
  70
    32
  0
VERTEX
  8
0
  5
86F
 10
341.764
 20
234.920
 30
0.000000
  70
    32
  0
VERTEX
  8
0
  5
870
 10
341.760
 20
234.919
 30
0.000000
  70
    32
  0
VERTEX
  8
0
  5
871
 10
341.756
 20
234.919
 30
0.000000
  70
    32
  0
VERTEX
  8
0
  5
872
 10
341.752
 20
234.918
 30
0.000000
  70
    32
  0
VERTEX
  8
0
  5
873
 10
341.747
 20
234.917
 30
0.000000
  70
    32
  0
VERTEX
  8
0
  5
874
 10
341.743
 20
234.917
 30
0.000000
  70
    32
  0
VERTEX
  8
0
  5
875
 10
341.739
 20
234.916
 30
0.000000
  70
    32
  0
VERTEX
  8
0
  5
876
 10
341.735
 20
234.916
 30
0.000000
  70
    32
  0
VERTEX
  8
0
  5
877
 10
341.731
 20
234.915
 30
0.000000
  70
    32
  0
VERTEX
  8
0
  5
878
 10
341.727
 20
234.915
 30
0.000000
  70
    32
  0
VERTEX
  8
0
  5
879
 10
341.722
 20
234.914
 30
0.000000
  70
    32
  0
VERTEX
  8
0
  5
87A
 10
341.718
 20
234.913
 30
0.000000
  70
    32
  0
VERTEX
  8
0
  5
87B
 10
341.714
 20
234.913
 30
0.000000
  70
    32
  0
VERTEX
  8
0
  5
87C
 10
341.710
 20
234.912
 30
0.000000
  70
    32
  0
VERTEX
  8
0
  5
87D
 10
341.706
 20
234.912
 30
0.000000
  70
    32
  0
VERTEX
  8
0
  5
87E
 10
341.701
 20
234.911
 30
0.000000
  70
    32
  0
VERTEX
  8
0
  5
87F
 10
341.697
 20
234.911
 30
0.000000
  70
    32
  0
VERTEX
  8
0
  5
880
 10
341.693
 20
234.910
 30
0.000000
  70
    32
  0
VERTEX
  8
0
  5
881
 10
341.689
 20
234.910
 30
0.000000
  70
    32
  0
VERTEX
  8
0
  5
882
 10
341.685
 20
234.909
 30
0.000000
  70
    32
  0
VERTEX
  8
0
  5
883
 10
341.680
 20
234.909
 30
0.000000
  70
    32
  0
VERTEX
  8
0
  5
884
 10
341.676
 20
234.908
 30
0.000000
  70
    32
  0
VERTEX
  8
0
  5
885
 10
341.672
 20
234.908
 30
0.000000
  70
    32
  0
VERTEX
  8
0
  5
886
 10
341.668
 20
234.907
 30
0.000000
  70
    32
  0
VERTEX
  8
0
  5
887
 10
341.664
 20
234.907
 30
0.000000
  70
    32
  0
VERTEX
  8
0
  5
888
 10
341.660
 20
234.906
 30
0.000000
  70
    32
  0
VERTEX
  8
0
  5
889
 10
341.655
 20
234.906
 30
0.000000
  70
    32
  0
VERTEX
  8
0
  5
88A
 10
341.651
 20
234.905
 30
0.000000
  70
    32
  0
VERTEX
  8
0
  5
88B
 10
341.647
 20
234.905
 30
0.000000
  70
    32
  0
VERTEX
  8
0
  5
88C
 10
341.643
 20
234.904
 30
0.000000
  70
    32
  0
VERTEX
  8
0
  5
88D
 10
341.639
 20
234.904
 30
0.000000
  70
    32
  0
VERTEX
  8
0
  5
88E
 10
341.634
 20
234.904
 30
0.000000
  70
    32
  0
VERTEX
  8
0
  5
88F
 10
341.630
 20
234.903
 30
0.000000
  70
    32
  0
VERTEX
  8
0
  5
890
 10
341.626
 20
234.903
 30
0.000000
  70
    32
  0
VERTEX
  8
0
  5
891
 10
341.622
 20
234.902
 30
0.000000
  70
    32
  0
VERTEX
  8
0
  5
892
 10
341.618
 20
234.902
 30
0.000000
  70
    32
  0
VERTEX
  8
0
  5
893
 10
341.613
 20
234.902
 30
0.000000
  70
    32
  0
VERTEX
  8
0
  5
894
 10
341.609
 20
234.901
 30
0.000000
  70
    32
  0
VERTEX
  8
0
  5
895
 10
341.605
 20
234.901
 30
0.000000
  70
    32
  0
VERTEX
  8
0
  5
896
 10
341.601
 20
234.900
 30
0.000000
  70
    32
  0
VERTEX
  8
0
  5
897
 10
341.597
 20
234.900
 30
0.000000
  70
    32
  0
VERTEX
  8
0
  5
898
 10
341.592
 20
234.900
 30
0.000000
  70
    32
  0
VERTEX
  8
0
  5
899
 10
341.588
 20
234.899
 30
0.000000
  70
    32
  0
VERTEX
  8
0
  5
89A
 10
341.584
 20
234.899
 30
0.000000
  70
    32
  0
VERTEX
  8
0
  5
89B
 10
341.580
 20
234.899
 30
0.000000
  70
    32
  0
VERTEX
  8
0
  5
89C
 10
341.575
 20
234.898
 30
0.000000
  70
    32
  0
VERTEX
  8
0
  5
89D
 10
341.571
 20
234.898
 30
0.000000
  70
    32
  0
VERTEX
  8
0
  5
89E
 10
341.567
 20
234.897
 30
0.000000
  70
    32
  0
VERTEX
  8
0
  5
89F
 10
341.563
 20
234.897
 30
0.000000
  70
    32
  0
VERTEX
  8
0
  5
8A0
 10
341.559
 20
234.897
 30
0.000000
  70
    32
  0
VERTEX
  8
0
  5
8A1
 10
341.554
 20
234.896
 30
0.000000
  70
    32
  0
VERTEX
  8
0
  5
8A2
 10
341.550
 20
234.896
 30
0.000000
  70
    32
  0
VERTEX
  8
0
  5
8A3
 10
341.546
 20
234.896
 30
0.000000
  70
    32
  0
VERTEX
  8
0
  5
8A4
 10
341.542
 20
234.896
 30
0.000000
  70
    32
  0
VERTEX
  8
0
  5
8A5
 10
341.538
 20
234.895
 30
0.000000
  70
    32
  0
VERTEX
  8
0
  5
8A6
 10
341.533
 20
234.895
 30
0.000000
  70
    32
  0
VERTEX
  8
0
  5
8A7
 10
341.529
 20
234.895
 30
0.000000
  70
    32
  0
VERTEX
  8
0
  5
8A8
 10
341.525
 20
234.894
 30
0.000000
  70
    32
  0
VERTEX
  8
0
  5
8A9
 10
341.521
 20
234.894
 30
0.000000
  70
    32
  0
VERTEX
  8
0
  5
8AA
 10
341.517
 20
234.894
 30
0.000000
  70
    32
  0
VERTEX
  8
0
  5
8AB
 10
341.512
 20
234.893
 30
0.000000
  70
    32
  0
VERTEX
  8
0
  5
8AC
 10
341.508
 20
234.893
 30
0.000000
  70
    32
  0
VERTEX
  8
0
  5
8AD
 10
341.504
 20
234.893
 30
0.000000
  70
    32
  0
VERTEX
  8
0
  5
8AE
 10
341.500
 20
234.893
 30
0.000000
  70
    32
  0
VERTEX
  8
0
  5
8AF
 10
341.495
 20
234.892
 30
0.000000
  70
    32
  0
VERTEX
  8
0
  5
8B0
 10
341.491
 20
234.892
 30
0.000000
  70
    32
  0
VERTEX
  8
0
  5
8B1
 10
341.487
 20
234.892
 30
0.000000
  70
    32
  0
VERTEX
  8
0
  5
8B2
 10
341.483
 20
234.892
 30
0.000000
  70
    32
  0
VERTEX
  8
0
  5
8B3
 10
341.479
 20
234.891
 30
0.000000
  70
    32
  0
VERTEX
  8
0
  5
8B4
 10
341.474
 20
234.891
 30
0.000000
  70
    32
  0
VERTEX
  8
0
  5
8B5
 10
341.470
 20
234.891
 30
0.000000
  70
    32
  0
VERTEX
  8
0
  5
8B6
 10
341.466
 20
234.891
 30
0.000000
  70
    32
  0
VERTEX
  8
0
  5
8B7
 10
341.462
 20
234.890
 30
0.000000
  70
    32
  0
VERTEX
  8
0
  5
8B8
 10
341.458
 20
234.890
 30
0.000000
  70
    32
  0
VERTEX
  8
0
  5
8B9
 10
341.453
 20
234.890
 30
0.000000
  70
    32
  0
VERTEX
  8
0
  5
8BA
 10
341.449
 20
234.890
 30
0.000000
  70
    32
  0
VERTEX
  8
0
  5
8BB
 10
341.445
 20
234.890
 30
0.000000
  70
    32
  0
VERTEX
  8
0
  5
8BC
 10
341.441
 20
234.889
 30
0.000000
  70
    32
  0
VERTEX
  8
0
  5
8BD
 10
341.436
 20
234.889
 30
0.000000
  70
    32
  0
VERTEX
  8
0
  5
8BE
 10
341.432
 20
234.889
 30
0.000000
  70
    32
  0
VERTEX
  8
0
  5
8BF
 10
341.428
 20
234.889
 30
0.000000
  70
    32
  0
VERTEX
  8
0
  5
8C0
 10
341.424
 20
234.889
 30
0.000000
  70
    32
  0
VERTEX
  8
0
  5
8C1
 10
341.420
 20
234.889
 30
0.000000
  70
    32
  0
VERTEX
  8
0
  5
8C2
 10
341.415
 20
234.888
 30
0.000000
  70
    32
  0
VERTEX
  8
0
  5
8C3
 10
341.411
 20
234.888
 30
0.000000
  70
    32
  0
VERTEX
  8
0
  5
8C4
 10
341.407
 20
234.888
 30
0.000000
  70
    32
  0
VERTEX
  8
0
  5
8C5
 10
341.403
 20
234.888
 30
0.000000
  70
    32
  0
VERTEX
  8
0
  5
8C6
 10
341.398
 20
234.888
 30
0.000000
  70
    32
  0
VERTEX
  8
0
  5
8C7
 10
341.394
 20
234.888
 30
0.000000
  70
    32
  0
VERTEX
  8
0
  5
8C8
 10
341.390
 20
234.887
 30
0.000000
  70
    32
  0
VERTEX
  8
0
  5
8C9
 10
341.386
 20
234.887
 30
0.000000
  70
    32
  0
VERTEX
  8
0
  5
8CA
 10
341.382
 20
234.887
 30
0.000000
  70
    32
  0
VERTEX
  8
0
  5
8CB
 10
341.377
 20
234.887
 30
0.000000
  70
    32
  0
VERTEX
  8
0
  5
8CC
 10
341.373
 20
234.887
 30
0.000000
  70
    32
  0
VERTEX
  8
0
  5
8CD
 10
341.369
 20
234.887
 30
0.000000
  70
    32
  0
VERTEX
  8
0
  5
8CE
 10
341.365
 20
234.887
 30
0.000000
  70
    32
  0
VERTEX
  8
0
  5
8CF
 10
341.360
 20
234.887
 30
0.000000
  70
    32
  0
VERTEX
  8
0
  5
8D0
 10
341.356
 20
234.887
 30
0.000000
  70
    32
  0
VERTEX
  8
0
  5
8D1
 10
341.352
 20
234.886
 30
0.000000
  70
    32
  0
VERTEX
  8
0
  5
8D2
 10
341.348
 20
234.886
 30
0.000000
  70
    32
  0
VERTEX
  8
0
  5
8D3
 10
341.344
 20
234.886
 30
0.000000
  70
    32
  0
VERTEX
  8
0
  5
8D4
 10
341.339
 20
234.886
 30
0.000000
  70
    32
  0
VERTEX
  8
0
  5
8D5
 10
341.335
 20
234.886
 30
0.000000
  70
    32
  0
VERTEX
  8
0
  5
8D6
 10
341.331
 20
234.886
 30
0.000000
  70
    32
  0
VERTEX
  8
0
  5
8D7
 10
341.327
 20
234.886
 30
0.000000
  70
    32
  0
VERTEX
  8
0
  5
8D8
 10
341.322
 20
234.886
 30
0.000000
  70
    32
  0
VERTEX
  8
0
  5
8D9
 10
341.318
 20
234.886
 30
0.000000
  70
    32
  0
VERTEX
  8
0
  5
8DA
 10
341.314
 20
234.886
 30
0.000000
  70
    32
  0
VERTEX
  8
0
  5
8DB
 10
341.310
 20
234.886
 30
0.000000
  70
    32
  0
VERTEX
  8
0
  5
8DC
 10
341.306
 20
234.886
 30
0.000000
  70
    32
  0
VERTEX
  8
0
  5
8DD
 10
341.301
 20
234.886
 30
0.000000
  70
    32
  0
VERTEX
  8
0
  5
8DE
 10
341.297
 20
234.886
 30
0.000000
  70
    32
  0
VERTEX
  8
0
  5
8DF
 10
341.293
 20
234.886
 30
0.000000
  70
    32
  0
VERTEX
  8
0
  5
8E0
 10
341.289
 20
234.886
 30
0.000000
  70
    32
  0
VERTEX
  8
0
  5
8E1
 10
341.285
 20
234.886
 30
0.000000
  70
    32
  0
VERTEX
  8
0
  5
8E2
 10
341.280
 20
234.886
 30
0.000000
  70
    32
  0
VERTEX
  8
0
  5
8E3
 10
341.276
 20
234.886
 30
0.000000
  70
    32
  0
VERTEX
  8
0
  5
8E4
 10
341.272
 20
234.886
 30
0.000000
  70
    32
  0
SEQEND
  8
0
  5
8E5
  0
LINE
  5
4F6
  8
0
  6
CONTINUOUS
 62
     7
 10
342.271846
 20
234.349633
 30
0.0
 11
341.148211
 21
234.349633
 31
0.0
  0
POLYLINE
  8
0
  5
8E6
  62
7
  66
     1
 10
0.000000
 20
0.000000
 30
0.000000
  70
     8
  0
VERTEX
  8
0
  5
8E7
 10
332.672
 20
234.886
 30
0.000000
  70
    32
  0
VERTEX
  8
0
  5
8E8
 10
332.668
 20
234.886
 30
0.000000
  70
    32
  0
VERTEX
  8
0
  5
8E9
 10
332.663
 20
234.886
 30
0.000000
  70
    32
  0
VERTEX
  8
0
  5
8EA
 10
332.659
 20
234.886
 30
0.000000
  70
    32
  0
VERTEX
  8
0
  5
8EB
 10
332.655
 20
234.886
 30
0.000000
  70
    32
  0
VERTEX
  8
0
  5
8EC
 10
332.651
 20
234.886
 30
0.000000
  70
    32
  0
VERTEX
  8
0
  5
8ED
 10
332.647
 20
234.886
 30
0.000000
  70
    32
  0
VERTEX
  8
0
  5
8EE
 10
332.642
 20
234.886
 30
0.000000
  70
    32
  0
VERTEX
  8
0
  5
8EF
 10
332.638
 20
234.886
 30
0.000000
  70
    32
  0
VERTEX
  8
0
  5
8F0
 10
332.634
 20
234.886
 30
0.000000
  70
    32
  0
VERTEX
  8
0
  5
8F1
 10
332.630
 20
234.886
 30
0.000000
  70
    32
  0
VERTEX
  8
0
  5
8F2
 10
332.625
 20
234.886
 30
0.000000
  70
    32
  0
VERTEX
  8
0
  5
8F3
 10
332.621
 20
234.886
 30
0.000000
  70
    32
  0
VERTEX
  8
0
  5
8F4
 10
332.617
 20
234.886
 30
0.000000
  70
    32
  0
VERTEX
  8
0
  5
8F5
 10
332.613
 20
234.886
 30
0.000000
  70
    32
  0
VERTEX
  8
0
  5
8F6
 10
332.609
 20
234.886
 30
0.000000
  70
    32
  0
VERTEX
  8
0
  5
8F7
 10
332.604
 20
234.886
 30
0.000000
  70
    32
  0
VERTEX
  8
0
  5
8F8
 10
332.600
 20
234.886
 30
0.000000
  70
    32
  0
VERTEX
  8
0
  5
8F9
 10
332.596
 20
234.886
 30
0.000000
  70
    32
  0
VERTEX
  8
0
  5
8FA
 10
332.592
 20
234.886
 30
0.000000
  70
    32
  0
VERTEX
  8
0
  5
8FB
 10
332.587
 20
234.887
 30
0.000000
  70
    32
  0
VERTEX
  8
0
  5
8FC
 10
332.583
 20
234.887
 30
0.000000
  70
    32
  0
VERTEX
  8
0
  5
8FD
 10
332.579
 20
234.887
 30
0.000000
  70
    32
  0
VERTEX
  8
0
  5
8FE
 10
332.575
 20
234.887
 30
0.000000
  70
    32
  0
VERTEX
  8
0
  5
8FF
 10
332.571
 20
234.887
 30
0.000000
  70
    32
  0
VERTEX
  8
0
  5
900
 10
332.566
 20
234.887
 30
0.000000
  70
    32
  0
VERTEX
  8
0
  5
901
 10
332.562
 20
234.887
 30
0.000000
  70
    32
  0
VERTEX
  8
0
  5
902
 10
332.558
 20
234.887
 30
0.000000
  70
    32
  0
VERTEX
  8
0
  5
903
 10
332.554
 20
234.887
 30
0.000000
  70
    32
  0
VERTEX
  8
0
  5
904
 10
332.549
 20
234.888
 30
0.000000
  70
    32
  0
VERTEX
  8
0
  5
905
 10
332.545
 20
234.888
 30
0.000000
  70
    32
  0
VERTEX
  8
0
  5
906
 10
332.541
 20
234.888
 30
0.000000
  70
    32
  0
VERTEX
  8
0
  5
907
 10
332.537
 20
234.888
 30
0.000000
  70
    32
  0
VERTEX
  8
0
  5
908
 10
332.533
 20
234.888
 30
0.000000
  70
    32
  0
VERTEX
  8
0
  5
909
 10
332.528
 20
234.888
 30
0.000000
  70
    32
  0
VERTEX
  8
0
  5
90A
 10
332.524
 20
234.889
 30
0.000000
  70
    32
  0
VERTEX
  8
0
  5
90B
 10
332.520
 20
234.889
 30
0.000000
  70
    32
  0
VERTEX
  8
0
  5
90C
 10
332.516
 20
234.889
 30
0.000000
  70
    32
  0
VERTEX
  8
0
  5
90D
 10
332.511
 20
234.889
 30
0.000000
  70
    32
  0
VERTEX
  8
0
  5
90E
 10
332.507
 20
234.889
 30
0.000000
  70
    32
  0
VERTEX
  8
0
  5
90F
 10
332.503
 20
234.889
 30
0.000000
  70
    32
  0
VERTEX
  8
0
  5
910
 10
332.499
 20
234.890
 30
0.000000
  70
    32
  0
VERTEX
  8
0
  5
911
 10
332.495
 20
234.890
 30
0.000000
  70
    32
  0
VERTEX
  8
0
  5
912
 10
332.490
 20
234.890
 30
0.000000
  70
    32
  0
VERTEX
  8
0
  5
913
 10
332.486
 20
234.890
 30
0.000000
  70
    32
  0
VERTEX
  8
0
  5
914
 10
332.482
 20
234.890
 30
0.000000
  70
    32
  0
VERTEX
  8
0
  5
915
 10
332.478
 20
234.891
 30
0.000000
  70
    32
  0
VERTEX
  8
0
  5
916
 10
332.474
 20
234.891
 30
0.000000
  70
    32
  0
VERTEX
  8
0
  5
917
 10
332.469
 20
234.891
 30
0.000000
  70
    32
  0
VERTEX
  8
0
  5
918
 10
332.465
 20
234.891
 30
0.000000
  70
    32
  0
VERTEX
  8
0
  5
919
 10
332.461
 20
234.892
 30
0.000000
  70
    32
  0
VERTEX
  8
0
  5
91A
 10
332.457
 20
234.892
 30
0.000000
  70
    32
  0
VERTEX
  8
0
  5
91B
 10
332.452
 20
234.892
 30
0.000000
  70
    32
  0
VERTEX
  8
0
  5
91C
 10
332.448
 20
234.892
 30
0.000000
  70
    32
  0
VERTEX
  8
0
  5
91D
 10
332.444
 20
234.893
 30
0.000000
  70
    32
  0
VERTEX
  8
0
  5
91E
 10
332.440
 20
234.893
 30
0.000000
  70
    32
  0
VERTEX
  8
0
  5
91F
 10
332.436
 20
234.893
 30
0.000000
  70
    32
  0
VERTEX
  8
0
  5
920
 10
332.431
 20
234.893
 30
0.000000
  70
    32
  0
VERTEX
  8
0
  5
921
 10
332.427
 20
234.894
 30
0.000000
  70
    32
  0
VERTEX
  8
0
  5
922
 10
332.423
 20
234.894
 30
0.000000
  70
    32
  0
VERTEX
  8
0
  5
923
 10
332.419
 20
234.894
 30
0.000000
  70
    32
  0
VERTEX
  8
0
  5
924
 10
332.415
 20
234.895
 30
0.000000
  70
    32
  0
VERTEX
  8
0
  5
925
 10
332.410
 20
234.895
 30
0.000000
  70
    32
  0
VERTEX
  8
0
  5
926
 10
332.406
 20
234.895
 30
0.000000
  70
    32
  0
VERTEX
  8
0
  5
927
 10
332.402
 20
234.896
 30
0.000000
  70
    32
  0
VERTEX
  8
0
  5
928
 10
332.398
 20
234.896
 30
0.000000
  70
    32
  0
VERTEX
  8
0
  5
929
 10
332.393
 20
234.896
 30
0.000000
  70
    32
  0
VERTEX
  8
0
  5
92A
 10
332.389
 20
234.896
 30
0.000000
  70
    32
  0
VERTEX
  8
0
  5
92B
 10
332.385
 20
234.897
 30
0.000000
  70
    32
  0
VERTEX
  8
0
  5
92C
 10
332.381
 20
234.897
 30
0.000000
  70
    32
  0
VERTEX
  8
0
  5
92D
 10
332.377
 20
234.897
 30
0.000000
  70
    32
  0
VERTEX
  8
0
  5
92E
 10
332.372
 20
234.898
 30
0.000000
  70
    32
  0
VERTEX
  8
0
  5
92F
 10
332.368
 20
234.898
 30
0.000000
  70
    32
  0
VERTEX
  8
0
  5
930
 10
332.364
 20
234.899
 30
0.000000
  70
    32
  0
VERTEX
  8
0
  5
931
 10
332.360
 20
234.899
 30
0.000000
  70
    32
  0
VERTEX
  8
0
  5
932
 10
332.356
 20
234.899
 30
0.000000
  70
    32
  0
VERTEX
  8
0
  5
933
 10
332.351
 20
234.900
 30
0.000000
  70
    32
  0
VERTEX
  8
0
  5
934
 10
332.347
 20
234.900
 30
0.000000
  70
    32
  0
VERTEX
  8
0
  5
935
 10
332.343
 20
234.900
 30
0.000000
  70
    32
  0
VERTEX
  8
0
  5
936
 10
332.339
 20
234.901
 30
0.000000
  70
    32
  0
VERTEX
  8
0
  5
937
 10
332.335
 20
234.901
 30
0.000000
  70
    32
  0
VERTEX
  8
0
  5
938
 10
332.330
 20
234.902
 30
0.000000
  70
    32
  0
VERTEX
  8
0
  5
939
 10
332.326
 20
234.902
 30
0.000000
  70
    32
  0
VERTEX
  8
0
  5
93A
 10
332.322
 20
234.902
 30
0.000000
  70
    32
  0
VERTEX
  8
0
  5
93B
 10
332.318
 20
234.903
 30
0.000000
  70
    32
  0
VERTEX
  8
0
  5
93C
 10
332.314
 20
234.903
 30
0.000000
  70
    32
  0
VERTEX
  8
0
  5
93D
 10
332.309
 20
234.904
 30
0.000000
  70
    32
  0
VERTEX
  8
0
  5
93E
 10
332.305
 20
234.904
 30
0.000000
  70
    32
  0
VERTEX
  8
0
  5
93F
 10
332.301
 20
234.904
 30
0.000000
  70
    32
  0
VERTEX
  8
0
  5
940
 10
332.297
 20
234.905
 30
0.000000
  70
    32
  0
VERTEX
  8
0
  5
941
 10
332.293
 20
234.905
 30
0.000000
  70
    32
  0
VERTEX
  8
0
  5
942
 10
332.288
 20
234.906
 30
0.000000
  70
    32
  0
VERTEX
  8
0
  5
943
 10
332.284
 20
234.906
 30
0.000000
  70
    32
  0
VERTEX
  8
0
  5
944
 10
332.280
 20
234.907
 30
0.000000
  70
    32
  0
VERTEX
  8
0
  5
945
 10
332.276
 20
234.907
 30
0.000000
  70
    32
  0
VERTEX
  8
0
  5
946
 10
332.272
 20
234.908
 30
0.000000
  70
    32
  0
VERTEX
  8
0
  5
947
 10
332.267
 20
234.908
 30
0.000000
  70
    32
  0
VERTEX
  8
0
  5
948
 10
332.263
 20
234.909
 30
0.000000
  70
    32
  0
VERTEX
  8
0
  5
949
 10
332.259
 20
234.909
 30
0.000000
  70
    32
  0
VERTEX
  8
0
  5
94A
 10
332.255
 20
234.910
 30
0.000000
  70
    32
  0
VERTEX
  8
0
  5
94B
 10
332.251
 20
234.910
 30
0.000000
  70
    32
  0
VERTEX
  8
0
  5
94C
 10
332.246
 20
234.911
 30
0.000000
  70
    32
  0
VERTEX
  8
0
  5
94D
 10
332.242
 20
234.911
 30
0.000000
  70
    32
  0
VERTEX
  8
0
  5
94E
 10
332.238
 20
234.912
 30
0.000000
  70
    32
  0
VERTEX
  8
0
  5
94F
 10
332.234
 20
234.912
 30
0.000000
  70
    32
  0
VERTEX
  8
0
  5
950
 10
332.230
 20
234.913
 30
0.000000
  70
    32
  0
VERTEX
  8
0
  5
951
 10
332.226
 20
234.913
 30
0.000000
  70
    32
  0
VERTEX
  8
0
  5
952
 10
332.221
 20
234.914
 30
0.000000
  70
    32
  0
VERTEX
  8
0
  5
953
 10
332.217
 20
234.915
 30
0.000000
  70
    32
  0
VERTEX
  8
0
  5
954
 10
332.213
 20
234.915
 30
0.000000
  70
    32
  0
VERTEX
  8
0
  5
955
 10
332.209
 20
234.916
 30
0.000000
  70
    32
  0
VERTEX
  8
0
  5
956
 10
332.205
 20
234.916
 30
0.000000
  70
    32
  0
VERTEX
  8
0
  5
957
 10
332.200
 20
234.917
 30
0.000000
  70
    32
  0
VERTEX
  8
0
  5
958
 10
332.196
 20
234.917
 30
0.000000
  70
    32
  0
VERTEX
  8
0
  5
959
 10
332.192
 20
234.918
 30
0.000000
  70
    32
  0
VERTEX
  8
0
  5
95A
 10
332.188
 20
234.919
 30
0.000000
  70
    32
  0
VERTEX
  8
0
  5
95B
 10
332.184
 20
234.919
 30
0.000000
  70
    32
  0
VERTEX
  8
0
  5
95C
 10
332.180
 20
234.920
 30
0.000000
  70
    32
  0
VERTEX
  8
0
  5
95D
 10
332.175
 20
234.921
 30
0.000000
  70
    32
  0
VERTEX
  8
0
  5
95E
 10
332.171
 20
234.921
 30
0.000000
  70
    32
  0
VERTEX
  8
0
  5
95F
 10
332.167
 20
234.922
 30
0.000000
  70
    32
  0
VERTEX
  8
0
  5
960
 10
332.163
 20
234.923
 30
0.000000
  70
    32
  0
VERTEX
  8
0
  5
961
 10
332.159
 20
234.923
 30
0.000000
  70
    32
  0
VERTEX
  8
0
  5
962
 10
332.155
 20
234.924
 30
0.000000
  70
    32
  0
VERTEX
  8
0
  5
963
 10
332.150
 20
234.925
 30
0.000000
  70
    32
  0
VERTEX
  8
0
  5
964
 10
332.146
 20
234.925
 30
0.000000
  70
    32
  0
VERTEX
  8
0
  5
965
 10
332.142
 20
234.926
 30
0.000000
  70
    32
  0
VERTEX
  8
0
  5
966
 10
332.138
 20
234.927
 30
0.000000
  70
    32
  0
VERTEX
  8
0
  5
967
 10
332.134
 20
234.927
 30
0.000000
  70
    32
  0
VERTEX
  8
0
  5
968
 10
332.130
 20
234.928
 30
0.000000
  70
    32
  0
VERTEX
  8
0
  5
969
 10
332.125
 20
234.929
 30
0.000000
  70
    32
  0
VERTEX
  8
0
  5
96A
 10
332.121
 20
234.930
 30
0.000000
  70
    32
  0
VERTEX
  8
0
  5
96B
 10
332.117
 20
234.930
 30
0.000000
  70
    32
  0
VERTEX
  8
0
  5
96C
 10
332.113
 20
234.931
 30
0.000000
  70
    32
  0
VERTEX
  8
0
  5
96D
 10
332.109
 20
234.932
 30
0.000000
  70
    32
  0
VERTEX
  8
0
  5
96E
 10
332.105
 20
234.933
 30
0.000000
  70
    32
  0
VERTEX
  8
0
  5
96F
 10
332.100
 20
234.934
 30
0.000000
  70
    32
  0
VERTEX
  8
0
  5
970
 10
332.096
 20
234.934
 30
0.000000
  70
    32
  0
VERTEX
  8
0
  5
971
 10
332.092
 20
234.935
 30
0.000000
  70
    32
  0
VERTEX
  8
0
  5
972
 10
332.088
 20
234.936
 30
0.000000
  70
    32
  0
VERTEX
  8
0
  5
973
 10
332.084
 20
234.937
 30
0.000000
  70
    32
  0
VERTEX
  8
0
  5
974
 10
332.080
 20
234.938
 30
0.000000
  70
    32
  0
VERTEX
  8
0
  5
975
 10
332.076
 20
234.938
 30
0.000000
  70
    32
  0
VERTEX
  8
0
  5
976
 10
332.071
 20
234.939
 30
0.000000
  70
    32
  0
VERTEX
  8
0
  5
977
 10
332.067
 20
234.940
 30
0.000000
  70
    32
  0
VERTEX
  8
0
  5
978
 10
332.063
 20
234.941
 30
0.000000
  70
    32
  0
VERTEX
  8
0
  5
979
 10
332.059
 20
234.942
 30
0.000000
  70
    32
  0
VERTEX
  8
0
  5
97A
 10
332.055
 20
234.943
 30
0.000000
  70
    32
  0
VERTEX
  8
0
  5
97B
 10
332.051
 20
234.944
 30
0.000000
  70
    32
  0
VERTEX
  8
0
  5
97C
 10
332.047
 20
234.945
 30
0.000000
  70
    32
  0
VERTEX
  8
0
  5
97D
 10
332.042
 20
234.946
 30
0.000000
  70
    32
  0
VERTEX
  8
0
  5
97E
 10
332.038
 20
234.946
 30
0.000000
  70
    32
  0
VERTEX
  8
0
  5
97F
 10
332.034
 20
234.947
 30
0.000000
  70
    32
  0
VERTEX
  8
0
  5
980
 10
332.030
 20
234.948
 30
0.000000
  70
    32
  0
VERTEX
  8
0
  5
981
 10
332.026
 20
234.949
 30
0.000000
  70
    32
  0
VERTEX
  8
0
  5
982
 10
332.022
 20
234.950
 30
0.000000
  70
    32
  0
VERTEX
  8
0
  5
983
 10
332.018
 20
234.951
 30
0.000000
  70
    32
  0
VERTEX
  8
0
  5
984
 10
332.014
 20
234.952
 30
0.000000
  70
    32
  0
VERTEX
  8
0
  5
985
 10
332.009
 20
234.953
 30
0.000000
  70
    32
  0
VERTEX
  8
0
  5
986
 10
332.005
 20
234.954
 30
0.000000
  70
    32
  0
VERTEX
  8
0
  5
987
 10
332.001
 20
234.955
 30
0.000000
  70
    32
  0
VERTEX
  8
0
  5
988
 10
331.997
 20
234.956
 30
0.000000
  70
    32
  0
VERTEX
  8
0
  5
989
 10
331.993
 20
234.957
 30
0.000000
  70
    32
  0
VERTEX
  8
0
  5
98A
 10
331.989
 20
234.958
 30
0.000000
  70
    32
  0
VERTEX
  8
0
  5
98B
 10
331.985
 20
234.959
 30
0.000000
  70
    32
  0
VERTEX
  8
0
  5
98C
 10
331.981
 20
234.960
 30
0.000000
  70
    32
  0
VERTEX
  8
0
  5
98D
 10
331.977
 20
234.962
 30
0.000000
  70
    32
  0
VERTEX
  8
0
  5
98E
 10
331.973
 20
234.963
 30
0.000000
  70
    32
  0
VERTEX
  8
0
  5
98F
 10
331.968
 20
234.964
 30
0.000000
  70
    32
  0
VERTEX
  8
0
  5
990
 10
331.964
 20
234.965
 30
0.000000
  70
    32
  0
VERTEX
  8
0
  5
991
 10
331.960
 20
234.966
 30
0.000000
  70
    32
  0
VERTEX
  8
0
  5
992
 10
331.956
 20
234.967
 30
0.000000
  70
    32
  0
VERTEX
  8
0
  5
993
 10
331.952
 20
234.968
 30
0.000000
  70
    32
  0
VERTEX
  8
0
  5
994
 10
331.948
 20
234.969
 30
0.000000
  70
    32
  0
VERTEX
  8
0
  5
995
 10
331.944
 20
234.970
 30
0.000000
  70
    32
  0
VERTEX
  8
0
  5
996
 10
331.940
 20
234.972
 30
0.000000
  70
    32
  0
VERTEX
  8
0
  5
997
 10
331.936
 20
234.973
 30
0.000000
  70
    32
  0
VERTEX
  8
0
  5
998
 10
331.932
 20
234.974
 30
0.000000
  70
    32
  0
VERTEX
  8
0
  5
999
 10
331.928
 20
234.975
 30
0.000000
  70
    32
  0
VERTEX
  8
0
  5
99A
 10
331.924
 20
234.976
 30
0.000000
  70
    32
  0
VERTEX
  8
0
  5
99B
 10
331.920
 20
234.978
 30
0.000000
  70
    32
  0
VERTEX
  8
0
  5
99C
 10
331.916
 20
234.979
 30
0.000000
  70
    32
  0
VERTEX
  8
0
  5
99D
 10
331.912
 20
234.980
 30
0.000000
  70
    32
  0
VERTEX
  8
0
  5
99E
 10
331.908
 20
234.981
 30
0.000000
  70
    32
  0
VERTEX
  8
0
  5
99F
 10
331.904
 20
234.982
 30
0.000000
  70
    32
  0
VERTEX
  8
0
  5
9A0
 10
331.900
 20
234.984
 30
0.000000
  70
    32
  0
VERTEX
  8
0
  5
9A1
 10
331.896
 20
234.985
 30
0.000000
  70
    32
  0
VERTEX
  8
0
  5
9A2
 10
331.892
 20
234.986
 30
0.000000
  70
    32
  0
VERTEX
  8
0
  5
9A3
 10
331.888
 20
234.988
 30
0.000000
  70
    32
  0
VERTEX
  8
0
  5
9A4
 10
331.884
 20
234.989
 30
0.000000
  70
    32
  0
VERTEX
  8
0
  5
9A5
 10
331.880
 20
234.990
 30
0.000000
  70
    32
  0
VERTEX
  8
0
  5
9A6
 10
331.876
 20
234.992
 30
0.000000
  70
    32
  0
VERTEX
  8
0
  5
9A7
 10
331.872
 20
234.993
 30
0.000000
  70
    32
  0
VERTEX
  8
0
  5
9A8
 10
331.868
 20
234.994
 30
0.000000
  70
    32
  0
VERTEX
  8
0
  5
9A9
 10
331.864
 20
234.996
 30
0.000000
  70
    32
  0
VERTEX
  8
0
  5
9AA
 10
331.860
 20
234.997
 30
0.000000
  70
    32
  0
VERTEX
  8
0
  5
9AB
 10
331.856
 20
234.998
 30
0.000000
  70
    32
  0
VERTEX
  8
0
  5
9AC
 10
331.852
 20
235.000
 30
0.000000
  70
    32
  0
VERTEX
  8
0
  5
9AD
 10
331.848
 20
235.001
 30
0.000000
  70
    32
  0
VERTEX
  8
0
  5
9AE
 10
331.844
 20
235.003
 30
0.000000
  70
    32
  0
VERTEX
  8
0
  5
9AF
 10
331.840
 20
235.004
 30
0.000000
  70
    32
  0
VERTEX
  8
0
  5
9B0
 10
331.836
 20
235.006
 30
0.000000
  70
    32
  0
VERTEX
  8
0
  5
9B1
 10
331.832
 20
235.007
 30
0.000000
  70
    32
  0
VERTEX
  8
0
  5
9B2
 10
331.828
 20
235.009
 30
0.000000
  70
    32
  0
VERTEX
  8
0
  5
9B3
 10
331.824
 20
235.010
 30
0.000000
  70
    32
  0
VERTEX
  8
0
  5
9B4
 10
331.820
 20
235.012
 30
0.000000
  70
    32
  0
VERTEX
  8
0
  5
9B5
 10
331.817
 20
235.013
 30
0.000000
  70
    32
  0
VERTEX
  8
0
  5
9B6
 10
331.813
 20
235.015
 30
0.000000
  70
    32
  0
VERTEX
  8
0
  5
9B7
 10
331.809
 20
235.017
 30
0.000000
  70
    32
  0
VERTEX
  8
0
  5
9B8
 10
331.805
 20
235.018
 30
0.000000
  70
    32
  0
VERTEX
  8
0
  5
9B9
 10
331.801
 20
235.020
 30
0.000000
  70
    32
  0
VERTEX
  8
0
  5
9BA
 10
331.797
 20
235.022
 30
0.000000
  70
    32
  0
VERTEX
  8
0
  5
9BB
 10
331.794
 20
235.024
 30
0.000000
  70
    32
  0
VERTEX
  8
0
  5
9BC
 10
331.790
 20
235.025
 30
0.000000
  70
    32
  0
VERTEX
  8
0
  5
9BD
 10
331.786
 20
235.027
 30
0.000000
  70
    32
  0
VERTEX
  8
0
  5
9BE
 10
331.782
 20
235.029
 30
0.000000
  70
    32
  0
VERTEX
  8
0
  5
9BF
 10
331.779
 20
235.031
 30
0.000000
  70
    32
  0
VERTEX
  8
0
  5
9C0
 10
331.775
 20
235.033
 30
0.000000
  70
    32
  0
VERTEX
  8
0
  5
9C1
 10
331.771
 20
235.035
 30
0.000000
  70
    32
  0
VERTEX
  8
0
  5
9C2
 10
331.768
 20
235.037
 30
0.000000
  70
    32
  0
VERTEX
  8
0
  5
9C3
 10
331.764
 20
235.040
 30
0.000000
  70
    32
  0
VERTEX
  8
0
  5
9C4
 10
331.760
 20
235.042
 30
0.000000
  70
    32
  0
VERTEX
  8
0
  5
9C5
 10
331.757
 20
235.044
 30
0.000000
  70
    32
  0
VERTEX
  8
0
  5
9C6
 10
331.753
 20
235.046
 30
0.000000
  70
    32
  0
VERTEX
  8
0
  5
9C7
 10
331.749
 20
235.049
 30
0.000000
  70
    32
  0
VERTEX
  8
0
  5
9C8
 10
331.746
 20
235.051
 30
0.000000
  70
    32
  0
VERTEX
  8
0
  5
9C9
 10
331.742
 20
235.054
 30
0.000000
  70
    32
  0
VERTEX
  8
0
  5
9CA
 10
331.739
 20
235.056
 30
0.000000
  70
    32
  0
VERTEX
  8
0
  5
9CB
 10
331.735
 20
235.059
 30
0.000000
  70
    32
  0
VERTEX
  8
0
  5
9CC
 10
331.732
 20
235.062
 30
0.000000
  70
    32
  0
VERTEX
  8
0
  5
9CD
 10
331.728
 20
235.064
 30
0.000000
  70
    32
  0
VERTEX
  8
0
  5
9CE
 10
331.725
 20
235.067
 30
0.000000
  70
    32
  0
VERTEX
  8
0
  5
9CF
 10
331.722
 20
235.070
 30
0.000000
  70
    32
  0
VERTEX
  8
0
  5
9D0
 10
331.718
 20
235.073
 30
0.000000
  70
    32
  0
VERTEX
  8
0
  5
9D1
 10
331.715
 20
235.076
 30
0.000000
  70
    32
  0
VERTEX
  8
0
  5
9D2
 10
331.712
 20
235.079
 30
0.000000
  70
    32
  0
VERTEX
  8
0
  5
9D3
 10
331.708
 20
235.082
 30
0.000000
  70
    32
  0
VERTEX
  8
0
  5
9D4
 10
331.705
 20
235.086
 30
0.000000
  70
    32
  0
VERTEX
  8
0
  5
9D5
 10
331.702
 20
235.089
 30
0.000000
  70
    32
  0
VERTEX
  8
0
  5
9D6
 10
331.699
 20
235.092
 30
0.000000
  70
    32
  0
VERTEX
  8
0
  5
9D7
 10
331.696
 20
235.096
 30
0.000000
  70
    32
  0
VERTEX
  8
0
  5
9D8
 10
331.693
 20
235.099
 30
0.000000
  70
    32
  0
VERTEX
  8
0
  5
9D9
 10
331.691
 20
235.103
 30
0.000000
  70
    32
  0
VERTEX
  8
0
  5
9DA
 10
331.688
 20
235.106
 30
0.000000
  70
    32
  0
VERTEX
  8
0
  5
9DB
 10
331.686
 20
235.110
 30
0.000000
  70
    32
  0
VERTEX
  8
0
  5
9DC
 10
331.684
 20
235.114
 30
0.000000
  70
    32
  0
VERTEX
  8
0
  5
9DD
 10
331.681
 20
235.117
 30
0.000000
  70
    32
  0
VERTEX
  8
0
  5
9DE
 10
331.680
 20
235.121
 30
0.000000
  70
    32
  0
VERTEX
  8
0
  5
9DF
 10
331.678
 20
235.125
 30
0.000000
  70
    32
  0
VERTEX
  8
0
  5
9E0
 10
331.676
 20
235.129
 30
0.000000
  70
    32
  0
VERTEX
  8
0
  5
9E1
 10
331.675
 20
235.133
 30
0.000000
  70
    32
  0
VERTEX
  8
0
  5
9E2
 10
331.674
 20
235.137
 30
0.000000
  70
    32
  0
VERTEX
  8
0
  5
9E3
 10
331.673
 20
235.141
 30
0.000000
  70
    32
  0
VERTEX
  8
0
  5
9E4
 10
331.672
 20
235.145
 30
0.000000
  70
    32
  0
VERTEX
  8
0
  5
9E5
 10
331.672
 20
235.149
 30
0.000000
  70
    32
  0
VERTEX
  8
0
  5
9E6
 10
331.672
 20
235.153
 30
0.000000
  70
    32
  0
SEQEND
  8
0
  5
9E7
  0
ARC
  5
4F8
  8
0
  6
CONTINUOUS
 62
     7
 10
87.952426
 20
214.349633
 30
0.0
 40
2.0
 50
90.0
 51
270.0
  0
ARC
  5
4F9
  8
0
  6
CONTINUOUS
 62
     7
 10
87.952426
 20
214.349633
 30
0.0
 40
2.0
 50
270.0
 51
90.0
  0
LINE
  5
4FA
  8
0
  6
CONTINUOUS
 62
     7
 10
106.056631
 20
190.349633
 30
0.0
 11
105.066301
 21
190.349633
 31
0.0
  0
LINE
  5
4FB
  8
0
  6
CONTINUOUS
 62
     7
 10
105.538213
 20
192.895218
 30
0.0
 11
104.406842
 21
191.763847
 31
0.0
  0
LINE
  5
4FC
  8
0
  6
CONTINUOUS
 62
     7
 10
104.406842
 20
191.763847
 30
0.0
 11
105.066301
 21
190.349633
 31
0.0
  0
LINE
  5
4FD
  8
0
  6
CONTINUOUS
 62
     7
 10
105.066301
 20
190.349633
 30
0.0
 11
104.406842
 21
188.93542
 31
0.0
  0
LINE
  5
4FE
  8
0
  6
CONTINUOUS
 62
     7
 10
104.406842
 20
188.93542
 30
0.0
 11
105.538213
 21
187.804049
 31
0.0
  0
LINE
  5
4FF
  8
0
  6
CONTINUOUS
 62
     7
 10
105.538213
 20
187.804049
 30
0.0
 11
106.952426
 21
188.463507
 31
0.0
  0
LINE
  5
500
  8
0
  6
CONTINUOUS
 62
     7
 10
106.952426
 20
188.463507
 30
0.0
 11
108.36664
 21
187.804049
 31
0.0
  0
LINE
  5
501
  8
0
  6
CONTINUOUS
 62
     7
 10
108.36664
 20
187.804049
 30
0.0
 11
109.498011
 21
188.93542
 31
0.0
  0
LINE
  5
502
  8
0
  6
CONTINUOUS
 62
     7
 10
109.498011
 20
188.93542
 30
0.0
 11
108.838552
 21
190.349633
 31
0.0
  0
LINE
  5
503
  8
0
  6
CONTINUOUS
 62
     7
 10
108.838552
 20
190.349633
 30
0.0
 11
109.498011
 21
191.763847
 31
0.0
  0
LINE
  5
504
  8
0
  6
CONTINUOUS
 62
     7
 10
109.498011
 20
191.763847
 30
0.0
 11
108.36664
 21
192.895218
 31
0.0
  0
LINE
  5
505
  8
0
  6
CONTINUOUS
 62
     7
 10
108.36664
 20
192.895218
 30
0.0
 11
106.952426
 21
192.235759
 31
0.0
  0
LINE
  5
506
  8
0
  6
CONTINUOUS
 62
     7
 10
106.952426
 20
192.235759
 30
0.0
 11
105.538213
 21
192.895218
 31
0.0
  0
LINE
  5
507
  8
0
  6
CONTINUOUS
 62
     7
 10
106.952426
 20
189.453838
 30
0.0
 11
106.952426
 21
188.463507
 31
0.0
  0
LINE
  5
508
  8
0
  6
CONTINUOUS
 62
     7
 10
107.848222
 20
190.349633
 30
0.0
 11
108.838552
 21
190.349633
 31
0.0
  0
LINE
  5
509
  8
0
  6
CONTINUOUS
 62
     7
 10
106.952426
 20
191.245429
 30
0.0
 11
106.952426
 21
192.235759
 31
0.0
  0
LINE
  5
50A
  8
0
  6
CONTINUOUS
 62
     7
 10
106.056631
 20
190.349633
 30
0.0
 11
105.891766
 21
189.99608
 31
0.0
  0
LINE
  5
50B
  8
0
  6
CONTINUOUS
 62
     7
 10
105.891766
 20
190.703187
 30
0.0
 11
106.056631
 21
190.349633
 31
0.0
  0
LINE
  5
50C
  8
0
  6
CONTINUOUS
 62
     7
 10
106.598873
 20
191.410293
 30
0.0
 11
105.891766
 21
190.703187
 31
0.0
  0
LINE
  5
50D
  8
0
  6
CONTINUOUS
 62
     7
 10
106.952426
 20
191.245429
 30
0.0
 11
106.598873
 21
191.410293
 31
0.0
  0
LINE
  5
50E
  8
0
  6
CONTINUOUS
 62
     7
 10
107.30598
 20
191.410293
 30
0.0
 11
106.952426
 21
191.245429
 31
0.0
  0
LINE
  5
50F
  8
0
  6
CONTINUOUS
 62
     7
 10
108.013087
 20
190.703187
 30
0.0
 11
107.30598
 21
191.410293
 31
0.0
  0
LINE
  5
510
  8
0
  6
CONTINUOUS
 62
     7
 10
107.848222
 20
190.349633
 30
0.0
 11
108.013087
 21
190.703187
 31
0.0
  0
LINE
  5
511
  8
0
  6
CONTINUOUS
 62
     7
 10
108.013087
 20
189.99608
 30
0.0
 11
107.848222
 21
190.349633
 31
0.0
  0
LINE
  5
512
  8
0
  6
CONTINUOUS
 62
     7
 10
107.30598
 20
189.288973
 30
0.0
 11
108.013087
 21
189.99608
 31
0.0
  0
LINE
  5
513
  8
0
  6
CONTINUOUS
 62
     7
 10
106.952426
 20
189.453838
 30
0.0
 11
107.30598
 21
189.288973
 31
0.0
  0
LINE
  5
514
  8
0
  6
CONTINUOUS
 62
     7
 10
106.598873
 20
189.288973
 30
0.0
 11
106.952426
 21
189.453838
 31
0.0
  0
LINE
  5
515
  8
0
  6
CONTINUOUS
 62
     7
 10
105.891766
 20
189.99608
 30
0.0
 11
106.598873
 21
189.288973
 31
0.0
  0
LINE
  5
516
  8
0
  6
CONTINUOUS
 62
     7
 10
68.056631
 20
238.349633
 30
0.0
 11
67.066301
 21
238.349633
 31
0.0
  0
LINE
  5
517
  8
0
  6
CONTINUOUS
 62
     7
 10
67.538213
 20
240.895218
 30
0.0
 11
66.406842
 21
239.763847
 31
0.0
  0
LINE
  5
518
  8
0
  6
CONTINUOUS
 62
     7
 10
66.406842
 20
239.763847
 30
0.0
 11
67.066301
 21
238.349633
 31
0.0
  0
LINE
  5
519
  8
0
  6
CONTINUOUS
 62
     7
 10
67.066301
 20
238.349633
 30
0.0
 11
66.406842
 21
236.93542
 31
0.0
  0
LINE
  5
51A
  8
0
  6
CONTINUOUS
 62
     7
 10
66.406842
 20
236.93542
 30
0.0
 11
67.538213
 21
235.804049
 31
0.0
  0
LINE
  5
51B
  8
0
  6
CONTINUOUS
 62
     7
 10
67.538213
 20
235.804049
 30
0.0
 11
68.952426
 21
236.463507
 31
0.0
  0
LINE
  5
51C
  8
0
  6
CONTINUOUS
 62
     7
 10
68.952426
 20
236.463507
 30
0.0
 11
70.36664
 21
235.804049
 31
0.0
  0
LINE
  5
51D
  8
0
  6
CONTINUOUS
 62
     7
 10
70.36664
 20
235.804049
 30
0.0
 11
71.498011
 21
236.93542
 31
0.0
  0
LINE
  5
51E
  8
0
  6
CONTINUOUS
 62
     7
 10
71.498011
 20
236.93542
 30
0.0
 11
70.838552
 21
238.349633
 31
0.0
  0
LINE
  5
51F
  8
0
  6
CONTINUOUS
 62
     7
 10
70.838552
 20
238.349633
 30
0.0
 11
71.498011
 21
239.763847
 31
0.0
  0
LINE
  5
520
  8
0
  6
CONTINUOUS
 62
     7
 10
71.498011
 20
239.763847
 30
0.0
 11
70.36664
 21
240.895218
 31
0.0
  0
LINE
  5
521
  8
0
  6
CONTINUOUS
 62
     7
 10
70.36664
 20
240.895218
 30
0.0
 11
68.952426
 21
240.235759
 31
0.0
  0
LINE
  5
522
  8
0
  6
CONTINUOUS
 62
     7
 10
68.952426
 20
240.235759
 30
0.0
 11
67.538213
 21
240.895218
 31
0.0
  0
LINE
  5
523
  8
0
  6
CONTINUOUS
 62
     7
 10
68.952426
 20
237.453838
 30
0.0
 11
68.952426
 21
236.463507
 31
0.0
  0
LINE
  5
524
  8
0
  6
CONTINUOUS
 62
     7
 10
69.848222
 20
238.349633
 30
0.0
 11
70.838552
 21
238.349633
 31
0.0
  0
LINE
  5
526
  8
0
  6
CONTINUOUS
 62
     7
 10
68.056631
 20
238.349633
 30
0.0
 11
67.891766
 21
237.99608
 31
0.0
  0
LINE
  5
527
  8
0
  6
CONTINUOUS
 62
     7
 10
67.891766
 20
238.703187
 30
0.0
 11
68.056631
 21
238.349633
 31
0.0
  0
LINE
  5
528
  8
0
  6
CONTINUOUS
 62
     7
 10
68.598873
 20
239.410293
 30
0.0
 11
67.891766
 21
238.703187
 31
0.0
  0
LINE
  5
529
  8
0
  6
CONTINUOUS
 62
     7
 10
68.952426
 20
239.245429
 30
0.0
 11
68.598873
 21
239.410293
 31
0.0
  0
LINE
  5
52A
  8
0
  6
CONTINUOUS
 62
     7
 10
69.30598
 20
239.410293
 30
0.0
 11
68.952426
 21
239.245429
 31
0.0
  0
LINE
  5
52B
  8
0
  6
CONTINUOUS
 62
     7
 10
70.013087
 20
238.703187
 30
0.0
 11
69.30598
 21
239.410293
 31
0.0
  0
LINE
  5
52C
  8
0
  6
CONTINUOUS
 62
     7
 10
69.848222
 20
238.349633
 30
0.0
 11
70.013087
 21
238.703187
 31
0.0
  0
LINE
  5
52D
  8
0
  6
CONTINUOUS
 62
     7
 10
70.013087
 20
237.99608
 30
0.0
 11
69.848222
 21
238.349633
 31
0.0
  0
LINE
  5
52E
  8
0
  6
CONTINUOUS
 62
     7
 10
69.30598
 20
237.288973
 30
0.0
 11
70.013087
 21
237.99608
 31
0.0
  0
LINE
  5
52F
  8
0
  6
CONTINUOUS
 62
     7
 10
68.952426
 20
237.453838
 30
0.0
 11
69.30598
 21
237.288973
 31
0.0
  0
LINE
  5
530
  8
0
  6
CONTINUOUS
 62
     7
 10
68.598873
 20
237.288973
 30
0.0
 11
68.952426
 21
237.453838
 31
0.0
  0
LINE
  5
531
  8
0
  6
CONTINUOUS
 62
     7
 10
67.891766
 20
237.99608
 30
0.0
 11
68.598873
 21
237.288973
 31
0.0
  0
ARC
  5
532
  8
0
  6
CONTINUOUS
 62
     7
 10
87.952426
 20
214.349633
 30
0.0
 40
7.0
 50
354.822734
 51
0.0
  0
ARC
  5
534
  8
0
  6
CONTINUOUS
 62
     7
 10
87.952426
 20
214.349633
 30
0.0
 40
7.0
 50
180.0
 51
185.177266
  0
ARC
  5
535
  8
0
  6
CONTINUOUS
 62
     7
 10
87.952426
 20
214.349633
 30
0.0
 40
7.0
 50
0.0
 51
5.177266
  0
ARC
  5
536
  8
0
  6
CONTINUOUS
 62
     7
 10
87.952426
 20
214.349633
 30
0.0
 40
7.0
 50
5.177266
 51
174.822734
  0
ARC
  5
537
  8
0
  6
CONTINUOUS
 62
     7
 10
87.952426
 20
214.349633
 30
0.0
 40
7.0
 50
174.822734
 51
180.0
  0
ARC
  5
538
  8
0
  6
CONTINUOUS
 62
     7
 10
87.952426
 20
214.349633
 30
0.0
 40
3.0
 50
0.0
 51
180.0
  0
ARC
  5
539
  8
0
  6
CONTINUOUS
 62
     7
 10
87.952426
 20
214.349633
 30
0.0
 40
3.0
 50
180.0
 51
0.0
  0
ARC
  5
53B
  8
0
  6
CONTINUOUS
 62
     7
 10
87.952426
 20
214.349633
 30
0.0
 40
10.0
 50
0.0
 51
180.0
  0
ARC
  5
53C
  8
0
  6
CONTINUOUS
 62
     7
 10
87.952426
 20
214.349633
 30
0.0
 40
12.0
 50
0.0
 51
180.0
  0
ARC
  5
53D
  8
0
  6
CONTINUOUS
 62
     7
 10
87.952426
 20
214.349633
 30
0.0
 40
12.0
 50
180.0
 51
0.0
  0
ARC
  5
53E
  8
0
  6
CONTINUOUS
 62
     7
 10
87.952426
 20
214.349633
 30
0.0
 40
10.0
 50
180.0
 51
0.0
  0
ARC
  5
540
  8
0
  6
CONTINUOUS
 62
     7
 10
87.952426
 20
214.349633
 30
0.0
 40
7.0
 50
174.822762
 51
180.0
  0
ARC
  5
541
  8
0
  6
CONTINUOUS
 62
     7
 10
87.952426
 20
214.349633
 30
0.0
 40
7.0
 50
5.177238
 51
174.822762
  0
ARC
  5
542
  8
0
  6
CONTINUOUS
 62
     7
 10
87.952426
 20
214.349633
 30
0.0
 40
7.0
 50
0.0
 51
5.177238
  0
ARC
  5
543
  8
0
  6
CONTINUOUS
 62
     7
 10
87.952426
 20
214.349633
 30
0.0
 40
7.0
 50
180.0
 51
0.0
  0
ARC
  5
544
  8
0
  6
CONTINUOUS
 62
     7
 10
87.952426
 20
214.349633
 30
0.0
 40
15.5
 50
0.0
 51
180.0
  0
ARC
  5
545
  8
0
  6
CONTINUOUS
 62
     7
 10
87.952426
 20
214.349633
 30
0.0
 40
15.5
 50
180.0
 51
0.0
  0
LINE
  5
546
  8
0
  6
CONTINUOUS
 62
     7
 10
113.952426
 20
199.749633
 30
0.0
 11
113.952426
 21
228.849633
 31
0.0
  0
LINE
  5
547
  8
0
  6
CONTINUOUS
 62
     7
 10
113.952426
 20
229.849633
 30
0.0
 11
113.952426
 21
238.349633
 31
0.0
  0
ARC
  5
549
  8
0
  6
CONTINUOUS
 62
     7
 10
106.952426
 20
238.349633
 30
0.0
 40
7.0
 50
80.815041
 51
90.0
  0
LINE
  5
54A
  8
0
  6
CONTINUOUS
 62
     7
 10
106.952426
 20
245.349633
 30
0.0
 11
102.152426
 21
245.349633
 31
0.0
  0
LINE
  5
54B
  8
0
  6
CONTINUOUS
 62
     7
 10
73.752426
 20
245.349633
 30
0.0
 11
68.952426
 21
245.349633
 31
0.0
  0
LINE
  5
54D
  8
0
  6
CONTINUOUS
 62
     7
 10
61.952426
 20
238.349633
 30
0.0
 11
61.952426
 21
229.749633
 31
0.0
  0
LINE
  5
54E
  8
0
  6
CONTINUOUS
 62
     7
 10
61.952426
 20
228.949633
 30
0.0
 11
61.952426
 21
199.849633
 31
0.0
  0
LINE
  5
54F
  8
0
  6
CONTINUOUS
 62
     7
 10
61.952426
 20
198.849633
 30
0.0
 11
61.952426
 21
190.349633
 31
0.0
  0
ARC
  5
551
  8
0
  6
CONTINUOUS
 62
     7
 10
68.952426
 20
190.349633
 30
0.0
 40
7.0
 50
260.815042
 51
270.0
  0
LINE
  5
552
  8
0
  6
CONTINUOUS
 62
     7
 10
68.952426
 20
183.349633
 30
0.0
 11
73.752426
 21
183.349633
 31
0.0
  0
LINE
  5
553
  8
0
  6
CONTINUOUS
 62
     7
 10
102.152426
 20
183.349633
 30
0.0
 11
106.952426
 21
183.349633
 31
0.0
  0
LINE
  5
555
  8
0
  6
CONTINUOUS
 62
     7
 10
113.952426
 20
190.349633
 30
0.0
 11
113.952426
 21
198.949633
 31
0.0
  0
ARC
  5
556
  8
0
  6
CONTINUOUS
 62
     7
 10
106.952426
 20
238.349633
 30
0.0
 40
7.0
 50
0.0
 51
9.184957
  0
ARC
  5
557
  8
0
  6
CONTINUOUS
 62
     7
 10
106.952426
 20
238.349633
 30
0.0
 40
7.0
 50
9.184957
 51
80.815043
  0
ARC
  5
558
  8
0
  6
CONTINUOUS
 62
     7
 10
106.952426
 20
238.349633
 30
0.0
 40
7.0
 50
80.815043
 51
90.0
  0
LINE
  5
559
  8
0
  6
CONTINUOUS
 62
     7
 10
106.952426
 20
245.349633
 30
0.0
 11
102.152426
 21
245.349633
 31
0.0
  0
LINE
  5
55A
  8
0
  6
CONTINUOUS
 62
     7
 10
102.152426
 20
245.349633
 30
0.0
 11
73.752426
 21
245.349633
 31
0.0
  0
LINE
  5
55B
  8
0
  6
CONTINUOUS
 62
     7
 10
73.752426
 20
245.349633
 30
0.0
 11
68.952426
 21
245.349633
 31
0.0
  0
ARC
  5
55D
  8
0
  6
CONTINUOUS
 62
     7
 10
68.952426
 20
238.349633
 30
0.0
 40
7.0
 50
90.0
 51
180.0
  0
LINE
  5
55F
  8
0
  6
CONTINUOUS
 62
     7
 10
61.952426
 20
238.349633
 30
0.0
 11
61.952426
 21
229.749633
 31
0.0
  0
LINE
  5
560
  8
0
  6
CONTINUOUS
 62
     7
 10
61.952426
 20
229.749633
 30
0.0
 11
61.952426
 21
228.949633
 31
0.0
  0
LINE
  5
561
  8
0
  6
CONTINUOUS
 62
     7
 10
61.952426
 20
228.949633
 30
0.0
 11
61.952426
 21
199.849633
 31
0.0
  0
LINE
  5
562
  8
0
  6
CONTINUOUS
 62
     7
 10
61.952426
 20
199.849633
 30
0.0
 11
61.952426
 21
198.849633
 31
0.0
  0
LINE
  5
563
  8
0
  6
CONTINUOUS
 62
     7
 10
61.952426
 20
198.849633
 30
0.0
 11
61.952426
 21
190.349633
 31
0.0
  0
ARC
  5
564
  8
0
  6
CONTINUOUS
 62
     7
 10
68.952426
 20
190.349633
 30
0.0
 40
7.0
 50
180.0
 51
189.184957
  0
ARC
  5
565
  8
0
  6
CONTINUOUS
 62
     7
 10
68.952426
 20
190.349633
 30
0.0
 40
7.0
 50
189.184957
 51
260.815043
  0
ARC
  5
566
  8
0
  6
CONTINUOUS
 62
     7
 10
68.952426
 20
190.349633
 30
0.0
 40
7.0
 50
260.815043
 51
270.0
  0
LINE
  5
567
  8
0
  6
CONTINUOUS
 62
     7
 10
68.952426
 20
183.349633
 30
0.0
 11
73.752426
 21
183.349633
 31
0.0
  0
LINE
  5
568
  8
0
  6
CONTINUOUS
 62
     7
 10
73.752426
 20
183.349633
 30
0.0
 11
102.152426
 21
183.349633
 31
0.0
  0
LINE
  5
569
  8
0
  6
CONTINUOUS
 62
     7
 10
102.152426
 20
183.349633
 30
0.0
 11
106.952426
 21
183.349633
 31
0.0
  0
ARC
  5
56A
  8
0
  6
CONTINUOUS
 62
     7
 10
106.952426
 20
190.349633
 30
0.0
 40
7.0
 50
270.0
 51
279.184957
  0
ARC
  5
56B
  8
0
  6
CONTINUOUS
 62
     7
 10
106.952426
 20
190.349633
 30
0.0
 40
7.0
 50
279.184957
 51
350.815043
  0
ARC
  5
56C
  8
0
  6
CONTINUOUS
 62
     7
 10
106.952426
 20
190.349633
 30
0.0
 40
7.0
 50
350.815043
 51
0.0
  0
LINE
  5
56D
  8
0
  6
CONTINUOUS
 62
     7
 10
113.952426
 20
190.349633
 30
0.0
 11
113.952426
 21
198.949633
 31
0.0
  0
LINE
  5
56E
  8
0
  6
CONTINUOUS
 62
     7
 10
113.952426
 20
198.949633
 30
0.0
 11
113.952426
 21
199.749633
 31
0.0
  0
LINE
  5
56F
  8
0
  6
CONTINUOUS
 62
     7
 10
113.952426
 20
199.749633
 30
0.0
 11
113.952426
 21
228.849633
 31
0.0
  0
LINE
  5
570
  8
0
  6
CONTINUOUS
 62
     7
 10
113.952426
 20
228.849633
 30
0.0
 11
113.952426
 21
229.849633
 31
0.0
  0
LINE
  5
571
  8
0
  6
CONTINUOUS
 62
     7
 10
113.952426
 20
229.849633
 30
0.0
 11
113.952426
 21
238.349633
 31
0.0
  0
ARC
  5
572
  8
0
  6
CONTINUOUS
 62
     7
 10
106.952426
 20
238.349633
 30
0.0
 40
2.9
 50
339.594068
 51
30.0
  0
ARC
  5
573
  8
0
  6
CONTINUOUS
 62
     7
 10
109.882479
 20
240.0413
 30
0.0
 40
0.483333
 50
30.0
 51
210.0
  0
ARC
  5
574
  8
0
  6
CONTINUOUS
 62
     7
 10
106.952426
 20
238.349633
 30
0.0
 40
3.866667
 50
330.0
 51
30.0
  0
ARC
  5
575
  8
0
  6
CONTINUOUS
 62
     7
 10
109.882479
 20
236.657967
 30
0.0
 40
0.483333
 50
240.0
 51
330.0
  0
LINE
  5
576
  8
0
  6
CONTINUOUS
 62
     7
 10
109.640812
 20
236.239388
 30
0.0
 11
108.175817
 21
237.085203
 31
0.0
  0
ARC
  5
577
  8
0
  6
CONTINUOUS
 62
     7
 10
108.417483
 20
237.503782
 30
0.0
 40
0.483333
 50
60.0
 51
240.0
  0
LINE
  5
578
  8
0
  6
CONTINUOUS
 62
     7
 10
108.65915
 20
237.922361
 30
0.0
 11
109.67044
 21
237.338493
 31
0.0
  0
ARC
  5
579
  8
0
  6
CONTINUOUS
 62
     7
 10
106.952426
 20
238.349633
 30
0.0
 40
2.9
 50
99.594068
 51
125.0
  0
ARC
  5
57A
  8
0
  6
CONTINUOUS
 62
     7
 10
105.011826
 20
241.121098
 30
0.0
 40
0.483333
 50
125.0
 51
305.0
  0
ARC
  5
57B
  8
0
  6
CONTINUOUS
 62
     7
 10
106.952426
 20
238.349633
 30
0.0
 40
3.866667
 50
60.0
 51
125.0
  0
ARC
  5
57C
  8
0
  6
CONTINUOUS
 62
     7
 10
108.644093
 20
241.279686
 30
0.0
 40
0.483333
 50
240.0
 51
60.0
  0
ARC
  5
57D
  8
0
  6
CONTINUOUS
 62
     7
 10
106.952426
 20
238.349633
 30
0.0
 40
2.9
 50
60.0
 51
80.405932
  0
LINE
  5
57E
  8
0
  6
CONTINUOUS
 62
     7
 10
107.43576
 20
241.209072
 30
0.0
 11
107.43576
 21
234.9663
 31
0.0
  0
ARC
  5
57F
  8
0
  6
CONTINUOUS
 62
     7
 10
106.952426
 20
234.9663
 30
0.0
 40
0.483333
 50
180.0
 51
0.0
  0
LINE
  5
580
  8
0
  6
CONTINUOUS
 62
     7
 10
106.469093
 20
234.9663
 30
0.0
 11
106.469093
 21
241.209072
 31
0.0
  0
LINE
  5
581
  8
0
  6
CONTINUOUS
 62
     7
 10
104.264041
 20
240.459879
 30
0.0
 11
105.732872
 21
239.611849
 31
0.0
  0
ARC
  5
582
  8
0
  6
CONTINUOUS
 62
     7
 10
105.491205
 20
239.19327
 30
0.0
 40
0.483333
 50
240.0
 51
60.0
  0
LINE
  5
583
  8
0
  6
CONTINUOUS
 62
     7
 10
105.249539
 20
238.774691
 30
0.0
 11
104.234413
 21
239.360774
 31
0.0
  0
ARC
  5
584
  8
0
  6
CONTINUOUS
 62
     7
 10
106.952426
 20
238.349633
 30
0.0
 40
2.9
 50
159.594068
 51
210.0
  0
ARC
  5
585
  8
0
  6
CONTINUOUS
 62
     7
 10
104.022374
 20
236.657967
 30
0.0
 40
0.483333
 50
210.0
 51
30.0
  0
ARC
  5
586
  8
0
  6
CONTINUOUS
 62
     7
 10
106.952426
 20
238.349633
 30
0.0
 40
3.866667
 50
150.0
 51
210.0
  0
ARC
  5
587
  8
0
  6
CONTINUOUS
 62
     7
 10
104.022374
 20
240.0413
 30
0.0
 40
0.483333
 50
60.0
 51
150.0
  0
ARC
  5
588
  8
0
  6
CONTINUOUS
 62
     7
 10
68.952426
 20
238.349633
 30
0.0
 40
6.0
 50
0.0
 51
90.0
  0
ARC
  5
589
  8
0
  6
CONTINUOUS
 62
     7
 10
68.952426
 20
238.349633
 30
0.0
 40
6.0
 50
90.0
 51
180.0
  0
ARC
  5
58A
  8
0
  6
CONTINUOUS
 62
     7
 10
68.952426
 20
238.349633
 30
0.0
 40
6.0
 50
180.0
 51
0.0
  0
ARC
  5
58B
  8
0
  6
CONTINUOUS
 62
     7
 10
106.952426
 20
190.349633
 30
0.0
 40
6.0
 50
0.0
 51
180.0
  0
ARC
  5
58C
  8
0
  6
CONTINUOUS
 62
     7
 10
106.952426
 20
190.349633
 30
0.0
 40
6.0
 50
180.0
 51
270.0
  0
ARC
  5
58D
  8
0
  6
CONTINUOUS
 62
     7
 10
106.952426
 20
190.349633
 30
0.0
 40
6.0
 50
270.0
 51
0.0
  0
ARC
  5
58E
  8
0
  6
CONTINUOUS
 62
     7
 10
68.952426
 20
190.349633
 30
0.0
 40
5.0
 50
180.0
 51
0.0
  0
ARC
  5
58F
  8
0
  6
CONTINUOUS
 62
     7
 10
68.952426
 20
190.349633
 30
0.0
 40
5.0
 50
0.0
 51
180.0
  0
ARC
  5
590
  8
0
  6
CONTINUOUS
 62
     7
 10
106.952426
 20
238.349633
 30
0.0
 40
5.0
 50
180.0
 51
0.0
  0
ARC
  5
591
  8
0
  6
CONTINUOUS
 62
     7
 10
106.952426
 20
238.349633
 30
0.0
 40
5.0
 50
0.0
 51
180.0
  0
ARC
  5
592
  8
0
  6
CONTINUOUS
 62
     9
 10
87.952426
 20
214.349633
 30
0.0
 40
23.438389
 50
0.0
 51
180.0
  0
ARC
  5
593
  8
0
  6
CONTINUOUS
 62
     9
 10
87.952426
 20
214.349633
 30
0.0
 40
23.438389
 50
180.0
 51
0.0
  0
ARC
  5
595
  8
0
  6
CONTINUOUS
 62
     9
 10
87.952426
 20
214.349633
 30
0.0
 40
19.584621
 50
270.0
 51
90.0
  0
ARC
  5
596
  8
0
  6
CONTINUOUS
 62
     9
 10
87.952426
 20
214.349633
 30
0.0
 40
19.584621
 50
90.0
 51
270.0
  0
LINE
  5
5A2
  8
DEFAULT_1
  6
CENTER
 62
     7
 10
285.878904
 20
214.349633
 30
0.0
 11
136.231834
 21
214.349633
 31
0.0
  0
LINE
  5
5A3
  8
DEFAULT_1
  6
CENTER
 62
     7
 10
87.952426
 20
214.349633
 30
0.0
 11
114.552426
 21
214.349633
 31
0.0
  0
LINE
  5
5A4
  8
DEFAULT_1
  6
CENTER
 62
     7
 10
87.952426
 20
214.349633
 30
0.0
 11
61.352426
 21
214.349633
 31
0.0
  0
LINE
  5
5A5
  8
DEFAULT_1
  6
CENTER
 62
     7
 10
87.952426
 20
214.349633
 30
0.0
 11
87.952426
 21
240.949633
 31
0.0
  0
LINE
  5
5A6
  8
DEFAULT_1
  6
CENTER
 62
     7
 10
87.952426
 20
214.349633
 30
0.0
 11
87.952426
 21
187.749633
 31
0.0
  0
LINE
  5
5A7
  8
DEFAULT_1
  6
CENTER
 62
     7
 10
336.971846
 20
214.349633
 30
0.0
 11
363.571846
 21
214.349633
 31
0.0
  0
LINE
  5
5A8
  8
DEFAULT_1
  6
CENTER
 62
     7
 10
336.971846
 20
214.349633
 30
0.0
 11
310.371846
 21
214.349633
 31
0.0
  0
LINE
  5
5A9
  8
DEFAULT_1
  6
CENTER
 62
     7
 10
336.971846
 20
214.349633
 30
0.0
 11
336.971846
 21
240.949633
 31
0.0
  0
LINE
  5
5AA
  8
DEFAULT_1
  6
CENTER
 62
     7
 10
336.971846
 20
214.349633
 30
0.0
 11
336.971846
 21
187.749633
 31
0.0
  0
LINE
  5
5BB
  8
0
  6
CONTINUOUS
 62
     7
 10
277.0
 20
56.0
 30
0.0
 11
410.0
 21
56.0
 31
0.0
  0
LINE
  5
5BC
  8
0
  6
CONTINUOUS
 62
     7
 10
277.0
 20
56.0
 30
0.0
 11
277.0
 21
10.0
 31
0.0
  0
LINE
  5
5BD
  8
0
  6
CONTINUOUS
 62
     7
 10
359.0
 20
51.0
 30
0.0
 11
410.0
 21
51.0
 31
0.0
  0
LINE
  5
5BE
  8
0
  6
CONTINUOUS
 62
     7
 10
277.0
 20
46.0
 30
0.0
 11
318.0
 21
46.0
 31
0.0
  0
LINE
  5
5BF
  8
0
  6
CONTINUOUS
 62
     7
 10
359.0
 20
46.0
 30
0.0
 11
410.0
 21
46.0
 31
0.0
  0
LINE
  5
5C0
  8
0
  6
CONTINUOUS
 62
     7
 10
359.0
 20
41.0
 30
0.0
 11
410.0
 21
41.0
 31
0.0
  0
LINE
  5
5C1
  8
0
  6
CONTINUOUS
 62
     7
 10
277.0
 20
36.0
 30
0.0
 11
410.0
 21
36.0
 31
0.0
  0
LINE
  5
5C2
  8
0
  6
CONTINUOUS
 62
     7
 10
359.0
 20
28.0
 30
0.0
 11
410.0
 21
28.0
 31
0.0
  0
LINE
  5
5C3
  8
0
  6
CONTINUOUS
 62
     7
 10
277.0
 20
19.0
 30
0.0
 11
410.0
 21
19.0
 31
0.0
  0
LINE
  5
5C4
  8
0
  6
CONTINUOUS
 62
     7
 10
277.0
 20
10.0
 30
0.0
 11
410.0
 21
10.0
 31
0.0
  0
LINE
  5
5C5
  8
0
  6
CONTINUOUS
 62
     7
 10
318.0
 20
56.0
 30
0.0
 11
318.0
 21
36.0
 31
0.0
  0
LINE
  5
5C6
  8
0
  6
CONTINUOUS
 62
     7
 10
341.0
 20
56.0
 30
0.0
 11
341.0
 21
36.0
 31
0.0
  0
LINE
  5
5C7
  8
0
  6
CONTINUOUS
 62
     7
 10
359.0
 20
56.0
 30
0.0
 11
359.0
 21
10.0
 31
0.0
  0
LINE
  5
5C8
  8
0
  6
CONTINUOUS
 62
     7
 10
378.0
 20
56.0
 30
0.0
 11
378.0
 21
36.0
 31
0.0
  0
LINE
  5
5C9
  8
0
  6
CONTINUOUS
 62
     7
 10
393.0
 20
56.0
 30
0.0
 11
393.0
 21
19.0
 31
0.0
  0
LINE
  5
5CA
  8
0
  6
CONTINUOUS
 62
     7
 10
410.0
 20
56.0
 30
0.0
 11
410.0
 21
10.0
 31
0.0
  0
TEXT
  5
5CB
  8
0
  6
CONTINUOUS
 62
     5
 10
277.0625
 20
51.465874
 30
0.0
 40
1.8
  1
 Allgemeintoleranzen
 41
0.683333
 51
15.0
  0
TEXT
  5
5CC
  8
0
  6
CONTINUOUS
 62
     5
 10
277.0625
 20
48.670629
 30
0.0
 40
1.8
  1
 ISO 2768-m
 41
0.779221
 51
15.0
  0
TEXT
  5
5CD
  8
0
  6
CONTINUOUS
 62
     5
 10
322.928571
 20
52.464724
 30
0.0
 40
2.0
  1
Werkstoff
 41
0.730159
 51
15.0
 72
     1
 11
329.5
 21
52.464724
 31
0.0
  0
TEXT
  5
5CE
  8
0
  6
CONTINUOUS
 62
     5
 10
344.603175
 20
52.464724
 30
0.0
 40
2.0
  1
Massstab:
 41
0.674603
 51
15.0
 72
     1
 11
350.0
 21
52.464724
 31
0.0
  0
TEXT
  5
5CF
  8
0
  6
CONTINUOUS
 62
     5
 10
381.922222
 20
52.464724
 30
0.0
 40
2.0
  1
Datum
 41
0.766667
 51
15.0
 72
     1
 11
385.5
 21
52.464724
 31
0.0
  0
TEXT
  5
5D0
  8
0
  6
CONTINUOUS
 62
     5
 10
398.619048
 20
52.464724
 30
0.0
 40
2.0
  1
Name
 41
0.785714
 51
15.0
 72
     1
 11
401.5
 21
52.464724
 31
0.0
  0
TEXT
  5
5D1
  8
0
  6
CONTINUOUS
 62
     5
 10
359.0625
 20
47.464724
 30
0.0
 40
2.0
  1
 Gezeichnet
 41
0.690476
 51
15.0
  0
TEXT
  5
5D2
  8
0
  6
CONTINUOUS
 62
     5
 10
381.553571
 20
47.464724
 30
0.0
 40
2.0
  1
16.07.03
 41
0.696429
 51
15.0
 72
     1
 11
385.5
 21
47.464724
 31
0.0
  0
TEXT
  5
5D3
  8
0
  6
CONTINUOUS
 62
     5
 10
396.911817
 20
47.464724
 30
0.0
 40
2.0
  1
Mijatovic
 41
0.640212
 51
15.0
 72
     1
 11
401.5
 21
47.464724
 31
0.0
  0
TEXT
  5
5D4
  8
0
  6
CONTINUOUS
 62
     5
 10
277.0625
 20
41.465874
 30
0.0
 40
1.8
  1
 Zeichnung urheberrechtlich
 41
0.679012
 51
15.0
  0
TEXT
  5
5D5
  8
0
  6
CONTINUOUS
 62
     5
 10
277.0625
 20
38.670629
 30
0.0
 40
1.8
  1
 geschuetzt (DIN 34) (C)
 41
0.679563
 51
15.0
  0
TEXT
  5
5D6
  8
0
  6
CONTINUOUS
 62
     5
 10
329.02381
 20
42.464724
 30
0.0
 40
2.0
  1
-
 41
0.714286
 51
15.0
 72
     1
 11
329.5
 21
42.464724
 31
0.0
  0
TEXT
  5
5D7
  8
0
  6
CONTINUOUS
 62
     5
 10
348.333333
 20
42.298408
 30
0.0
 40
3.5
  1
2:1
 41
0.571429
 51
15.0
 72
     1
 11
350.0
 21
42.298408
 31
0.0
  0
TEXT
  5
5D8
  8
0
  6
CONTINUOUS
 62
     5
 10
359.0625
 20
42.464724
 30
0.0
 40
2.0
  1
 Freigegeben
 41
0.698413
 51
15.0
  0
TEXT
  5
5D9
  8
0
  6
CONTINUOUS
 62
     5
 10
385.02381
 20
42.464724
 30
0.0
 40
2.0
  1
-
 41
0.714286
 51
15.0
 72
     1
 11
385.5
 21
42.464724
 31
0.0
  0
TEXT
  5
5DA
  8
0
  6
CONTINUOUS
 62
     5
 10
401.02381
 20
42.464724
 30
0.0
 40
2.0
  1
-
 41
0.714286
 51
15.0
 72
     1
 11
401.5
 21
42.464724
 31
0.0
  0
TEXT
  5
5DB
  8
0
  6
CONTINUOUS
 62
     5
 10
329.02381
 20
37.464724
 30
0.0
 40
2.0
  1
-
 41
0.714286
 51
15.0
 72
     1
 11
329.5
 21
37.464724
 31
0.0
  0
TEXT
  5
5DC
  8
0
  6
CONTINUOUS
 62
     5
 10
347.857143
 20
37.464724
 30
0.0
 40
2.0
  1
(
 41
0.428571
 72
     1
 11
348.0
 21
37.464724
 31
0.0
  0
TEXT
  5
5DD
  8
0
  6
CONTINUOUS
 62
     5
 10
348.690476
 20
37.464724
 30
0.0
 40
2.0
  1
A3
 41
0.785714
 51
15.0
 72
     1
 11
350.0
 21
37.464724
 31
0.0
  0
TEXT
  5
5DE
  8
0
  6
CONTINUOUS
 62
     5
 10
351.857143
 20
37.464724
 30
0.0
 40
2.0
  1
)
 41
0.428571
 72
     1
 11
352.0
 21
37.464724
 31
0.0
  0
TEXT
  5
5DF
  8
0
  6
CONTINUOUS
 62
     5
 10
359.0625
 20
37.464724
 30
0.0
 40
2.0
  1
 Geaendert
 41
0.707143
 51
15.0
  0
TEXT
  5
5E0
  8
0
  6
CONTINUOUS
 62
     5
 10
385.02381
 20
37.464724
 30
0.0
 40
2.0
  1
-
 41
0.714286
 51
15.0
 72
     1
 11
385.5
 21
37.464724
 31
0.0
  0
TEXT
  5
5E1
  8
0
  6
CONTINUOUS
 62
     5
 10
401.02381
 20
37.464724
 30
0.0
 40
2.0
  1
-
 41
0.714286
 51
15.0
 72
     1
 11
401.5
 21
37.464724
 31
0.0
  0
TEXT
  5
5E2
  8
0
  6
CONTINUOUS
 62
     5
 10
277.0625
 20
33.078125
 30
0.0
 40
2.0
  1
 Benennung
 41
0.728571
 51
15.0
  0
TEXT
  5
5E3
  8
0
  6
CONTINUOUS
 62
     5
 10
359.0625
 20
33.035276
 30
0.0
 40
2.0
  1
 Aend.-Nr.
 41
0.707143
 51
15.0
  0
TEXT
  5
5E4
  8
0
  6
CONTINUOUS
 62
     5
 10
359.0625
 20
28.894171
 30
0.0
 40
2.0
  1
 
 41
0.785714
 51
15.0
  0
TEXT
  5
5E5
  8
0
  6
CONTINUOUS
 62
     5
 10
360.633929
 20
28.894171
 30
0.0
 40
2.0
  1
-
 41
0.714286
 51
15.0
  0
TEXT
  5
5E6
  8
0
  6
CONTINUOUS
 62
     5
 10
394.658009
 20
31.223543
 30
0.0
 40
2.0
  1
Aend.-Index
 41
0.707792
 51
15.0
 72
     1
 11
401.5
 21
31.223543
 31
0.0
  0
TEXT
  5
5E7
  8
0
  6
CONTINUOUS
 62
     5
 10
302.888889
 20
28.688267
 30
0.0
 40
3.5
  1
NA2M-D_B-TX
 41
0.809524
 51
15.0
 72
     1
 11
318.0
 21
28.688267
 31
0.0
  0
TEXT
  5
5E8
  8
0
  6
CONTINUOUS
 62
     5
 10
299.595679
 20
20.91181
 30
0.0
 40
5.0
  1
NA2M-D-TX
 41
0.814815
 51
15.0
 72
     1
 11
317.25
 21
20.91181
 31
0.0
  0
TEXT
  5
5E9
  8
0
  6
CONTINUOUS
 62
     5
 10
359.0625
 20
22.464724
 30
0.0
 40
2.0
  1
 Ersatz fuer:
 41
0.664835
 51
15.0
  0
TEXT
  5
5EA
  8
0
  6
CONTINUOUS
 62
     5
 10
397.327381
 20
24.535276
 30
0.0
 40
2.0
  1
Blatt 
 41
0.654762
 51
15.0
 72
     1
 11
400.928571
 21
24.535276
 31
0.0
  0
TEXT
  5
5EB
  8
0
  6
CONTINUOUS
 62
     5
 10
405.238095
 20
24.535276
 30
0.0
 40
2.0
  1
1
 41
0.571429
 51
15.0
 72
     1
 11
405.428571
 21
24.535276
 31
0.0
  0
TEXT
  5
5EC
  8
0
  6
CONTINUOUS
 62
     5
 10
395.357143
 20
20.394171
 30
0.0
 40
2.0
  1
von 
 41
0.732143
 51
15.0
 72
     1
 11
398.285714
 21
20.394171
 31
0.0
  0
TEXT
  5
5ED
  8
0
  6
CONTINUOUS
 62
     5
 10
401.595238
 20
20.394171
 30
0.0
 40
2.0
  1
1
 41
0.571429
 51
15.0
 72
     1
 11
401.785714
 21
20.394171
 31
0.0
  0
TEXT
  5
5EE
  8
0
  6
CONTINUOUS
 62
     5
 10
402.6875
 20
20.394171
 30
0.0
 40
2.0
  1
 Bl.
 41
0.660714
 51
15.0
 72
     1
 11
405.0
 21
20.394171
 31
0.0
  0
TEXT
  5
5EF
  8
0
  6
CONTINUOUS
 62
     5
 10
359.0625
 20
16.464724
 30
0.0
 40
2.0
  1
 Zeichn. Nr.
 41
0.686508
 51
15.0
  0
TEXT
  5
5F0
  8
0
  6
CONTINUOUS
 62
     5
 10
369.012731
 20
11.188267
 30
0.0
 40
3.5
  1
ST-NA2M-D-TX
 41
0.80754
 51
15.0
 72
     1
 11
385.5
 21
11.188267
 31
0.0
  0
TEXT
  5
5F1
  8
0
  6
CONTINUOUS
 62
     5
 10
349.207149
 20
79.457327
 30
0.0
 40
3.500001
  1
1
 41
0.571429
  0
TEXT
  5
5F2
  8
0
  6
CONTINUOUS
 62
     5
 10
349.194456
 20
86.700918
 30
0.0
 40
3.5
  1
3
 41
0.714286
  0
TEXT
  5
5F3
  8
0
  6
CONTINUOUS
 62
     5
 10
349.207149
 20
93.457332
 30
0.0
 40
3.5
  1
2
 41
0.785714
  0
TEXT
  5
5F4
  8
0
  6
CONTINUOUS
 62
     5
 10
339.235624
 20
78.452451
 30
0.0
 40
3.500001
  1
XLR-M
 50
90.0
 41
0.771429
  0
LINE
  5
5F5
  8
0
  6
CONTINUOUS
 62
     5
 10
390.24906
 20
83.122811
 30
0.0
 11
395.457378
 21
83.122811
 31
0.0
  0
LINE
  5
5F6
  8
0
  6
CONTINUOUS
 62
     5
 10
392.853219
 20
83.122811
 30
0.0
 11
392.853219
 21
86.976985
 31
0.0
  0
TEXT
  5
5F7
  8
0
  6
CONTINUOUS
 62
     5
 10
391.309557
 20
95.738861
 30
0.0
 40
7.000001
  1
~
 41
0.785714
  0
TEXT
  5
5F8
  8
0
  6
CONTINUOUS
 62
     5
 10
349.207149
 20
72.457324
 30
0.0
 40
3.500001
  1
G
 41
0.785714
  0
TEXT
  5
5F9
  8
0
  6
CONTINUOUS
 62
     5
 10
376.600633
 20
99.045907
 30
0.0
 40
2.000001
  1
rd
 41
0.678571
  0
TEXT
  5
5FA
  8
0
  6
CONTINUOUS
 62
     5
 10
376.748732
 20
83.130605
 30
0.0
 40
2.000001
  1
bk
 41
0.714286
  0
TEXT
  5
5FB
  8
0
  6
CONTINUOUS
 62
     5
 10
367.22749
 20
83.177857
 30
0.0
 40
2.000001
  1
ye
 41
0.666667
  0
TEXT
  5
5FC
  8
0
  6
CONTINUOUS
 62
     5
 10
367.184992
 20
99.146073
 30
0.0
 40
2.000001
  1
wh
 41
0.857143
  0
TEXT
  5
5FD
  8
0
  6
CONTINUOUS
 62
     5
 10
277.657171
 20
128.026203
 30
0.0
 40
3.5
  1
ORDERING-NUMBER:
 41
0.748512
 51
15.0
  0
TEXT
  5
5FE
  8
0
  6
CONTINUOUS
 62
     5
 10
277.657171
 20
122.591003
 30
0.0
 40
3.5
  1
 
 41
0.785714
 51
15.0
  0
TEXT
  5
5FF
  8
0
  6
CONTINUOUS
 62
     5
 10
277.657171
 20
117.155803
 30
0.0
 40
3.5
  1
16-NA2M-D2B-TX (colour-coded red)
 41
0.715729
 51
15.0
  0
TEXT
  5
600
  8
0
  6
CONTINUOUS
 62
     5
 10
277.657171
 20
111.720604
 30
0.0
 40
3.5
  1
16-NA2M-D0B-TX (colour-coded black)
 41
0.709524
 51
15.0
  0
TEXT
  5
60A
  8
ZEICHNUNGSBEMAßUNGEN
  6
CONTINUOUS
 62
     5
 10
198.209376
 20
170.295584
 30
0.0
 40
3.5
  1
74,4
 41
0.732143
 51
15.0
  0
TEXT
  5
60B
  8
ZEICHNUNGSBEMAßUNGEN
  6
CONTINUOUS
 62
     5
 10
210.988805
 20
170.295584
 30
0.0
 40
3.5
  1
2.929
 41
0.742857
 51
15.0
  0
TEXT
  5
60C
  8
ZEICHNUNGSBEMAßUNGEN
  6
CONTINUOUS
 62
     5
 10
208.994692
 20
170.295584
 30
0.0
 40
3.5
  1
[
 41
0.428571
 51
15.0
  0
TEXT
  5
60D
  8
ZEICHNUNGSBEMAßUNGEN
  6
CONTINUOUS
 62
     5
 10
223.124107
 20
170.295584
 30
0.0
 40
3.5
  1
]
 41
0.428571
 51
15.0
  0
LINE
  5
60E
  8
ZEICHNUNGSBEMAßUNGEN
  6
CONTINUOUS
 62
     2
 10
136.85
 20
187.061798
 30
0.0
 11
136.85
 21
166.842646
 31
0.0
  0
LINE
  5
60F
  8
ZEICHNUNGSBEMAßUNGEN
  6
CONTINUOUS
 62
     2
 10
285.65
 20
187.490447
 30
0.0
 11
285.65
 21
166.842646
 31
0.0
  0
LINE
  5
610
  8
ZEICHNUNGSBEMAßUNGEN
  6
CONTINUOUS
 62
     2
 10
136.85
 20
168.342646
 30
0.0
 11
211.25
 21
168.342646
 31
0.0
  0
LINE
  5
611
  8
ZEICHNUNGSBEMAßUNGEN
  6
CONTINUOUS
 62
     2
 10
285.65
 20
168.342646
 30
0.0
 11
211.25
 21
168.342646
 31
0.0
  0
INSERT
  5
612
  8
ZEICHNUNGSBEMAßUNGEN
  6
CONTINUOUS
 62
     2
  2
_FILLED
 10
136.85
 20
168.342646
 30
0.0
 41
3.5
 42
3.5
 43
3.5
 50
180.0
  0
INSERT
  5
613
  8
ZEICHNUNGSBEMAßUNGEN
  6
CONTINUOUS
 62
     2
  2
_FILLED
 10
285.65
 20
168.342646
 30
0.0
 41
3.5
 42
3.5
 43
3.5
  0
TEXT
  5
614
  8
ZEICHNUNGSBEMAßUNGEN
  6
CONTINUOUS
 62
     5
 10
77.391461
 20
170.30434
 30
0.0
 40
3.5
  1
26
 41
0.785714
 51
15.0
  0
TEXT
  5
615
  8
ZEICHNUNGSBEMAßUNGEN
  6
CONTINUOUS
 62
     5
 10
86.162062
 20
170.30434
 30
0.0
 40
3.5
  1
1.024
 41
0.7
 51
15.0
  0
TEXT
  5
616
  8
ZEICHNUNGSBEMAßUNGEN
  6
CONTINUOUS
 62
     5
 10
83.797363
 20
170.30434
 30
0.0
 40
3.5
  1
[
 41
0.428571
 51
15.0
  0
TEXT
  5
617
  8
ZEICHNUNGSBEMAßUNGEN
  6
CONTINUOUS
 62
     5
 10
96.065021
 20
170.30434
 30
0.0
 40
3.5
  1
]
 41
0.428571
 51
15.0
  0
LINE
  5
618
  8
ZEICHNUNGSBEMAßUNGEN
  6
CONTINUOUS
 62
     2
 10
61.952426
 20
186.859509
 30
0.0
 11
61.952426
 21
166.851402
 31
0.0
  0
LINE
  5
619
  8
ZEICHNUNGSBEMAßUNGEN
  6
CONTINUOUS
 62
     2
 10
113.952426
 20
184.837078
 30
0.0
 11
113.952426
 21
166.851402
 31
0.0
  0
LINE
  5
61A
  8
ZEICHNUNGSBEMAßUNGEN
  6
CONTINUOUS
 62
     2
 10
61.952426
 20
168.351402
 30
0.0
 11
87.952426
 21
168.351402
 31
0.0
  0
LINE
  5
61B
  8
ZEICHNUNGSBEMAßUNGEN
  6
CONTINUOUS
 62
     2
 10
113.952426
 20
168.351402
 30
0.0
 11
87.952426
 21
168.351402
 31
0.0
  0
INSERT
  5
61C
  8
ZEICHNUNGSBEMAßUNGEN
  6
CONTINUOUS
 62
     2
  2
_FILLED
 10
61.952426
 20
168.351402
 30
0.0
 41
3.5
 42
3.5
 43
3.5
 50
180.0
  0
INSERT
  5
61D
  8
ZEICHNUNGSBEMAßUNGEN
  6
CONTINUOUS
 62
     2
  2
_FILLED
 10
113.952426
 20
168.351402
 30
0.0
 41
3.5
 42
3.5
 43
3.5
  0
TEXT
  5
61E
  8
ZEICHNUNGSBEMAßUNGEN
  6
CONTINUOUS
 62
     5
 10
51.838841
 20
204.62904
 30
0.0
 40
3.5
  1
31
 50
90.0
 41
0.642857
 51
15.0
  0
TEXT
  5
61F
  8
ZEICHNUNGSBEMAßUNGEN
  6
CONTINUOUS
 62
     5
 10
51.838841
 20
212.153433
 30
0.0
 40
3.5
  1
1.220
 50
90.0
 41
0.7
 51
15.0
  0
TEXT
  5
620
  8
ZEICHNUNGSBEMAßUNGEN
  6
CONTINUOUS
 62
     5
 10
51.838841
 20
210.036056
 30
0.0
 40
3.5
  1
[
 50
90.0
 41
0.428571
 51
15.0
  0
TEXT
  5
621
  8
ZEICHNUNGSBEMAßUNGEN
  6
CONTINUOUS
 62
     5
 10
51.838841
 20
221.810449
 30
0.0
 40
3.5
  1
]
 50
90.0
 41
0.428571
 51
15.0
  0
LINE
  5
622
  8
ZEICHNUNGSBEMAßUNGEN
  6
CONTINUOUS
 62
     2
 10
64.401416
 20
245.349633
 30
0.0
 11
51.244708
 21
245.349633
 31
0.0
  0
LINE
  5
623
  8
ZEICHNUNGSBEMAßUNGEN
  6
CONTINUOUS
 62
     2
 10
67.452426
 20
183.349633
 30
0.0
 11
63.006549
 21
183.349633
 31
0.0
  0
LINE
  5
624
  8
ZEICHNUNGSBEMAßUNGEN
  6
CONTINUOUS
 62
     2
 10
52.744708
 20
245.349633
 30
0.0
 11
52.744708
 21
214.349633
 31
0.0
  0
LINE
  5
625
  8
ZEICHNUNGSBEMAßUNGEN
  6
CONTINUOUS
 62
     2
 10
52.744708
 20
183.349633
 30
0.0
 11
52.744708
 21
214.349633
 31
0.0
  0
INSERT
  5
626
  8
ZEICHNUNGSBEMAßUNGEN
  6
CONTINUOUS
 62
     2
  2
_FILLED
 10
52.744708
 20
245.349633
 30
0.0
 41
3.5
 42
3.5
 43
3.5
 50
90.0
  0
INSERT
  5
627
  8
ZEICHNUNGSBEMAßUNGEN
  6
CONTINUOUS
 62
     2
  2
_FILLED
 10
52.744708
 20
183.349633
 30
0.0
 41
3.5
 42
3.5
 43
3.5
 50
270.0
  0
LINE
  5
628
  8
0
  6
CONTINUOUS
 62
     7
 10
270.853216
 20
199.849633
 30
0.0
 11
276.25
 21
199.849633
 31
0.0
  0
LINE
  5
629
  8
0
  6
CONTINUOUS
 62
     7
 10
264.573531
 20
199.849633
 30
0.0
 11
269.492618
 21
199.849633
 31
0.0
  0
LINE
  5
62A
  8
0
  6
CONTINUOUS
 62
     7
 10
270.643893
 20
198.849633
 30
0.0
 11
276.25
 21
198.849633
 31
0.0
  0
LINE
  5
62B
  8
0
  6
CONTINUOUS
 62
     7
 10
264.364209
 20
198.849633
 30
0.0
 11
269.911263
 21
198.849633
 31
0.0
  0
LINE
  5
62D
  8
0
  6
CONTINUOUS
 62
     7
 10
272.004491
 20
229.349633
 30
0.0
 11
276.25
 21
229.349633
 31
0.0
  0
LINE
  5
62E
  8
0
  6
CONTINUOUS
 62
     7
 10
265.410822
 20
229.349633
 30
0.0
 11
270.539232
 21
229.349633
 31
0.0
  0
LINE
  5
62F
  8
ZEICHNUNGSBEMAßUNGEN
  6
CONTINUOUS
 62
     2
 10
60.775316
 20
183.349633
 30
0.0
 11
51.244708
 21
183.349633
 31
0.0
  0
ARC
  5
634
  8
0
  6
CONTINUOUS
 62
     7
 10
344.971846
 20
214.349633
 30
0.0
 40
2.38
 50
270.0
 51
90.0
  0
ENDSEC
  0
EOF
