  0
SECTION
  2
HEADER
  9
$ACADVER
  1
AC1009
  9
$INSBASE
 10
0.0
 20
0.0
 30
0.0
  9
$EXTMIN
 10
0.0
 20
0.0
 30
0.0
  9
$EXTMAX
 10
210.0
 20
297.0
 30
0.0
  9
$LIMMIN
 10
0.0
 20
0.0
  9
$LIMMAX
 10
410.0
 20
287.0
  9
$ORTHOMODE
 70
     1
  9
$REGENMODE
 70
     1
  9
$FILLMODE
 70
     1
  9
$QTEXTMODE
 70
     0
  9
$MIRRTEXT
 70
     1
  9
$DRAGMODE
 70
     2
  9
$LTSCALE
 40
5.0
  9
$OSMODE
 70
    32
  9
$ATTMODE
 70
     1
  9
$TEXTSIZE
 40
3.5
  9
$TRACEWID
 40
26.0
  9
$TEXTSTYLE
  7
STANDARD
  9
$CLAYER
  8
0
  9
$CELTYPE
  6
BYLAYER
  9
$CECOLOR
 62
   256
  9
$DIMSCALE
 40
0.0
  9
$DIMASZ
 40
3.5
  9
$DIMEXO
 40
0.8
  9
$DIMDLI
 40
8.0
  9
$DIMRND
 40
0.0
  9
$DIMDLE
 40
0.0
  9
$DIMEXE
 40
0.8
  9
$DIMTP
 40
0.0
  9
$DIMTM
 40
0.0
  9
$DIMTXT
 40
3.5
  9
$DIMCEN
 40
1.5
  9
$DIMTSZ
 40
0.0
  9
$DIMTOL
 70
     0
  9
$DIMLIM
 70
     0
  9
$DIMTIH
 70
     0
  9
$DIMTOH
 70
     0
  9
$DIMSE1
 70
     0
  9
$DIMSE2
 70
     0
  9
$DIMTAD
 70
     1
  9
$DIMZIN
 70
     0
  9
$DIMBLK
  1

  9
$DIMASO
 70
     1
  9
$DIMSHO
 70
     0
  9
$DIMPOST
  1

  9
$DIMAPOST
  1
"
  9
$DIMALT
 70
     1
  9
$DIMALTD
 70
     3
  9
$DIMALTF
 40
0.039370079
  9
$DIMLFAC
 40
0.2
  9
$DIMTOFL
 70
     0
  9
$DIMTVP
 40
0.0
  9
$DIMTIX
 70
     0
  9
$DIMSOXD
 70
     0
  9
$DIMSAH
 70
     0
  9
$DIMBLK1
  1

  9
$DIMBLK2
  1

  9
$DIMSTYLE
  2
STANDARD
  9
$DIMCLRD
 70
     4
  9
$DIMCLRE
 70
     4
  9
$DIMCLRT
 70
     3
  9
$DIMTFAC
 40
1.0
  9
$DIMGAP
 40
1.0
  9
$LUNITS
 70
     2
  9
$LUPREC
 70
     2
  9
$SKETCHINC
 40
1.0
  9
$FILLETRAD
 40
0.0
  9
$AUNITS
 70
     0
  9
$AUPREC
 70
     0
  9
$MENU
  1
acad
  9
$ELEVATION
 40
0.0
  9
$PELEVATION
 40
0.0
  9
$THICKNESS
 40
0.0
  9
$LIMCHECK
 70
     0
  9
$BLIPMODE
 70
     0
  9
$CHAMFERA
 40
0.0
  9
$CHAMFERB
 40
0.0
  9
$SKPOLY
 70
     0
  9
$TDCREATE
 40
2449757.3493420128
  9
$TDUPDATE
 40
2452597.4561031479
  9
$TDINDWG
 40
0.0334640046
  9
$TDUSRTIMER
 40
0.0334640046
  9
$USRTIMER
 70
     1
  9
$ANGBASE
 50
0.0
  9
$ANGDIR
 70
     0
  9
$PDMODE
 70
     0
  9
$PDSIZE
 40
0.0
  9
$PLINEWID
 40
0.0
  9
$COORDS
 70
     2
  9
$SPLFRAME
 70
     0
  9
$SPLINETYPE
 70
     6
  9
$SPLINESEGS
 70
     8
  9
$ATTDIA
 70
     1
  9
$ATTREQ
 70
     1
  9
$HANDLING
 70
     1
  9
$HANDSEED
  5
54D
  9
$SURFTAB1
 70
     6
  9
$SURFTAB2
 70
     6
  9
$SURFTYPE
 70
     6
  9
$SURFU
 70
     6
  9
$SURFV
 70
     6
  9
$UCSNAME
  2

  9
$UCSORG
 10
0.0
 20
0.0
 30
0.0
  9
$UCSXDIR
 10
1.0
 20
0.0
 30
0.0
  9
$UCSYDIR
 10
0.0
 20
1.0
 30
0.0
  9
$PUCSNAME
  2

  9
$PUCSORG
 10
0.0
 20
0.0
 30
0.0
  9
$PUCSXDIR
 10
1.0
 20
0.0
 30
0.0
  9
$PUCSYDIR
 10
0.0
 20
1.0
 30
0.0
  9
$USERI1
 70
     0
  9
$USERI2
 70
     0
  9
$USERI3
 70
     0
  9
$USERI4
 70
     0
  9
$USERI5
 70
     0
  9
$USERR1
 40
0.0
  9
$USERR2
 40
0.0
  9
$USERR3
 40
0.0
  9
$USERR4
 40
0.0
  9
$USERR5
 40
0.0
  9
$WORLDVIEW
 70
     1
  9
$SHADEDGE
 70
     3
  9
$SHADEDIF
 70
    70
  9
$TILEMODE
 70
     1
  9
$MAXACTVP
 70
    16
  9
$PLIMCHECK
 70
     0
  9
$PEXTMIN
 10
1.0000000000E+020
 20
1.0000000000E+020
 30
1.0000000000E+020
  9
$PEXTMAX
 10
-1.0000000000E+020
 20
-1.0000000000E+020
 30
-1.0000000000E+020
  9
$PLIMMIN
 10
0.0
 20
0.0
  9
$PLIMMAX
 10
12.0
 20
9.0
  9
$UNITMODE
 70
     0
  9
$VISRETAIN
 70
     0
  9
$PLINEGEN
 70
     0
  9
$PSLTSCALE
 70
     0
  0
ENDSEC
  0
SECTION
  2
TABLES
  0
TABLE
  2
VPORT
 70
     2
  0
VPORT
  2
*ACTIVE
 70
     0
 10
0.0
 20
0.0
 11
1.0
 21
1.0
 12
104.9961861409
 22
148.5000006915
 13
0.0
 23
0.0
 14
1.0
 24
1.0
 15
2.0
 25
2.0
 16
0.0
 26
0.0
 36
1.0
 17
0.0
 27
0.0
 37
0.0
 40
299.2429823286
 41
1.525
 42
50.0
 43
0.0
 44
0.0
 50
0.0
 51
0.0
 71
     0
 72
   500
 73
     1
 74
     0
 75
     0
 76
     0
 77
     0
 78
     0
  0
ENDTAB
  0
TABLE
  2
LTYPE
 70
     4
  0
LTYPE
  2
AUSGEZOGEN
 70
     0
  3
Ausgezogene Linie
 72
    65
 73
     0
 40
0.0
  0
LTYPE
  2
HIDDEN
 70
     0
  3
_ _ _ _ _ _ _ _ _ _ _ _ _ _ _ _ _ _ _ _ _ _ _
 72
    65
 73
     2
 40
0.375
 49
0.25
 49
-0.125
  0
LTYPE
  2
CENTER
 70
     0
  3
____ _ ____ _ ____ _ ____ _ ____ _ ____ _ ____
 72
    65
 73
     4
 40
2.0
 49
1.25
 49
-0.25
 49
0.25
 49
-0.25
  0
LTYPE
  2
DASHED
 70
     0
  3
__ __ __ __ __ __ __ __ __ __ __ __ __ __ __
 72
    65
 73
     2
 40
0.75
 49
0.5
 49
-0.25
  0
ENDTAB
  0
TABLE
  2
LAYER
 70
    10
  0
LAYER
  2
0
 70
     0
 62
     4
  6
AUSGEZOGEN
  0
LAYER
  2
05
 70
     0
 62
     2
  6
AUSGEZOGEN
  0
LAYER
  2
035
 70
     0
 62
     3
  6
AUSGEZOGEN
  0
LAYER
  2
RAHMEN
 70
     0
 62
     2
  6
AUSGEZOGEN
  0
LAYER
  2
07
 70
     0
 62
     1
  6
AUSGEZOGEN
  0
LAYER
  2
BEM1
 70
     0
 62
     4
  6
AUSGEZOGEN
  0
LAYER
  2
MITTE
 70
     0
 62
     4
  6
CENTER
  0
LAYER
  2
VERDECKT
 70
     0
 62
     4
  6
HIDDEN
  0
LAYER
  2
025
 70
     0
 62
     4
  6
AUSGEZOGEN
  0
LAYER
  2
DEFPOINTS
 70
     0
 62
     7
  6
AUSGEZOGEN
  0
ENDTAB
  0
TABLE
  2
STYLE
 70
     4
  0
STYLE
  2
STANDARD
 70
     0
 40
0.0
 41
0.7
 50
15.0
 71
     0
 42
3.5
  3
txt
  4

  0
STYLE
  2
SCRIPTS
 70
     0
 40
0.0
 41
1.0
 50
0.0
 71
     0
 42
5.0
  3
scripts
  4

  0
STYLE
  2
HELV
 70
     0
 40
0.0
 41
0.8
 50
10.0
 71
     0
 42
2.0
  3
HELV.SHX
  4

  0
STYLE
  2
ARIAL
 70
     0
 40
0.0
 41
1.0
 50
0.0
 71
     0
 42
3.5
  3
txt
  4

  0
ENDTAB
  0
TABLE
  2
VIEW
 70
     0
  0
ENDTAB
  0
TABLE
  2
UCS
 70
     0
  0
ENDTAB
  0
TABLE
  2
APPID
 70
     1
  0
APPID
  2
ACAD
 70
     0
  0
ENDTAB
  0
TABLE
  2
DIMSTYLE
 70
     1
  0
DIMSTYLE
  2
STANDARD
 70
     0
  3

  4
"
  5

  6

  7

 40
0.0
 41
3.5
 42
0.8
 43
8.0
 44
0.8
 45
0.0
 46
0.0
 47
0.0
 48
0.0
140
3.5
141
1.5
142
0.0
143
0.039370079
144
0.2
145
0.0
146
1.0
147
1.0
 71
     0
 72
     0
 73
     0
 74
     0
 75
     0
 76
     0
 77
     1
 78
     0
170
     1
171
     3
172
     0
173
     0
174
     0
175
     0
176
     4
177
     4
178
     3
  0
ENDTAB
  0
ENDSEC
  0
SECTION
  2
BLOCKS
  0
BLOCK
  8
0
  2
$MODEL_SPACE
 70
     0
 10
0.0
 20
0.0
 30
0.0
  3
$MODEL_SPACE
  1

  0
ENDBLK
  5
6
  8
0
  0
BLOCK
 67
     1
  8
0
  2
$PAPER_SPACE
 70
     0
 10
0.0
 20
0.0
 30
0.0
  3
$PAPER_SPACE
  1

  0
ENDBLK
  5
9
 67
     1
  8
0
  0
BLOCK
  8
0
  2
ZKOPF
 70
     2
 10
0.0
 20
0.0
 30
0.0
  3
ZKOPF
  1

  0
ATTDEF
  5
4D
  8
0
 62
     4
 10
-13.3214285714
 20
37.0
 30
0.0
 40
2.5
  1
Dobler
  7
SCRIPTS
 72
     1
 11
-8.5
 21
37.0
 31
0.0
  3
Name des Konstrukteurs ?
  2
NAME
 70
     0
  0
POLYLINE
  5
4E
  8
0
 62
     2
 66
     1
 10
0.0
 20
0.0
 30
0.0
  0
VERTEX
  5
4AA
  8
0
 62
     2
 10
-51.0
 20
0.0
 30
0.0
  0
VERTEX
  5
4AB
  8
0
 62
     2
 10
-51.0
 20
46.0
 30
0.0
  0
SEQEND
  5
4AC
  8
0
 62
     2
  0
POLYLINE
  5
4F
  8
0
 62
     2
 66
     1
 10
0.0
 20
0.0
 30
0.0
  0
VERTEX
  5
4AD
  8
0
 62
     2
 10
-17.0
 20
9.0
 30
0.0
  0
VERTEX
  5
4AE
  8
0
 62
     2
 10
-17.0
 20
46.0
 30
0.0
  0
SEQEND
  5
4AF
  8
0
 62
     2
  0
POLYLINE
  5
50
  8
0
 62
     2
 66
     1
 10
0.0
 20
0.0
 30
0.0
  0
VERTEX
  5
4B0
  8
0
 62
     2
 10
-32.0
 20
26.0
 30
0.0
  0
VERTEX
  5
4B1
  8
0
 62
     2
 10
-32.0
 20
46.0
 30
0.0
  0
SEQEND
  5
4B2
  8
0
 62
     2
  0
POLYLINE
  5
51
  8
0
 62
     2
 66
     1
 10
0.0
 20
0.0
 30
0.0
  0
VERTEX
  5
4B3
  8
0
 62
     2
 10
-133.0
 20
41.0
 30
0.0
  0
VERTEX
  5
4B4
  8
0
 62
     2
 10
-92.0
 20
41.0
 30
0.0
  0
SEQEND
  5
4B5
  8
0
 62
     2
  0
POLYLINE
  5
52
  8
0
 62
     2
 66
     1
 10
0.0
 20
0.0
 30
0.0
  0
VERTEX
  5
4B6
  8
0
 62
     2
 10
-145.0
 20
0.0
 30
0.0
  0
VERTEX
  5
4B7
  8
0
 62
     2
 10
-145.0
 20
46.0
 30
0.0
  0
SEQEND
  5
4B8
  8
0
 62
     2
  0
POLYLINE
  5
53
  8
0
 62
     2
 66
     1
 10
0.0
 20
0.0
 30
0.0
  0
VERTEX
  5
4B9
  8
0
 62
     2
 10
-158.0
 20
0.0
 30
0.0
  0
VERTEX
  5
4BA
  8
0
 62
     2
 10
-158.0
 20
46.0
 30
0.0
  0
SEQEND
  5
4BB
  8
0
 62
     2
  0
LINE
  5
54
  8
0
 62
     2
 10
-200.0
 20
6.0
 30
0.0
 11
-133.0
 21
6.0
 31
0.0
  0
POLYLINE
  5
55
  8
0
 62
     4
 66
     1
 10
0.0
 20
0.0
 30
0.0
  0
VERTEX
  5
4BC
  8
0
 62
     4
 10
-200.0
 20
11.0
 30
0.0
  0
VERTEX
  5
4BD
  8
0
 62
     4
 10
-133.0
 20
11.0
 30
0.0
  0
SEQEND
  5
4BE
  8
0
 62
     4
  0
POLYLINE
  5
56
  8
0
 62
     4
 66
     1
 10
0.0
 20
0.0
 30
0.0
  0
VERTEX
  5
4BF
  8
0
 62
     4
 10
-200.0
 20
16.0
 30
0.0
  0
VERTEX
  5
4C0
  8
0
 62
     4
 10
-133.0
 20
16.0
 30
0.0
  0
SEQEND
  5
4C1
  8
0
 62
     4
  0
POLYLINE
  5
57
  8
0
 62
     4
 66
     1
 10
0.0
 20
0.0
 30
0.0
  0
VERTEX
  5
4C2
  8
0
 62
     4
 10
-200.0
 20
21.0
 30
0.0
  0
VERTEX
  5
4C3
  8
0
 62
     4
 10
-133.0
 20
21.0
 30
0.0
  0
SEQEND
  5
4C4
  8
0
 62
     4
  0
POLYLINE
  5
58
  8
0
 62
     4
 66
     1
 10
0.0
 20
0.0
 30
0.0
  0
VERTEX
  5
4C5
  8
0
 62
     4
 10
-200.0
 20
26.0
 30
0.0
  0
VERTEX
  5
4C6
  8
0
 62
     4
 10
-133.0
 20
26.0
 30
0.0
  0
SEQEND
  5
4C7
  8
0
 62
     4
  0
POLYLINE
  5
59
  8
0
 62
     4
 66
     1
 10
0.0
 20
0.0
 30
0.0
  0
VERTEX
  5
4C8
  8
0
 62
     4
 10
-200.0
 20
31.0
 30
0.0
  0
VERTEX
  5
4C9
  8
0
 62
     4
 10
-133.0
 20
31.0
 30
0.0
  0
SEQEND
  5
4CA
  8
0
 62
     4
  0
POLYLINE
  5
5A
  8
0
 62
     4
 66
     1
 10
0.0
 20
0.0
 30
0.0
  0
VERTEX
  5
4CB
  8
0
 62
     4
 10
-200.0
 20
36.0
 30
0.0
  0
VERTEX
  5
4CC
  8
0
 62
     4
 10
-133.0
 20
36.0
 30
0.0
  0
SEQEND
  5
4CD
  8
0
 62
     4
  0
POLYLINE
  5
5B
  8
0
 62
     4
 66
     1
 10
0.0
 20
0.0
 30
0.0
  0
VERTEX
  5
4CE
  8
0
 62
     4
 10
-200.0
 20
41.0
 30
0.0
  0
VERTEX
  5
4CF
  8
0
 62
     4
 10
-133.0
 20
41.0
 30
0.0
  0
SEQEND
  5
4D0
  8
0
 62
     4
  0
TEXT
  5
5C
  8
0
 62
     4
 10
-50.0
 20
6.0
 30
0.0
 40
1.5
  1
Zeichn. Nr.
 51
15.0
  0
TEXT
  5
5D
  8
0
 62
     4
 10
-50.0
 20
23.0
 30
0.0
 40
1.5
  1
Ersetzt durch:         Blatt
 51
15.0
  0
TEXT
  5
5E
  8
0
 62
     4
 10
-50.0
 20
38.0
 30
0.0
 40
1.5
  1
Gezeichnet
 51
15.0
  0
TEXT
  5
5F
  8
0
 62
     4
 10
-50.0
 20
27.0
 30
0.0
 40
1.5
  1
Gesehen
 51
15.0
  0
TEXT
  5
60
  8
0
 62
     4
 10
-31.0
 20
42.0
 30
0.0
 40
1.5
  1
Datum     Name
 51
15.0
  0
TEXT
  5
61
  8
0
 62
     4
 10
-91.0
 20
42.0
 30
0.0
 40
1.5
  1
Werkstoff:      Massstab:
 51
15.0
  0
TEXT
  5
62
  8
0
 62
     4
 10
-132.0
 20
23.0
 30
0.0
 40
1.5
  1
Benennung:
 51
15.0
  0
LINE
  5
63
  8
0
 62
     2
 10
-133.0
 20
33.0
 30
0.0
 11
-92.0
 21
33.0
 31
0.0
  0
TEXT
  5
64
  8
0
 62
     4
 10
-132.0
 20
39.0
 30
0.0
 40
1.5
  1
*)Lieferant darf ohne 
 51
15.0
  0
TEXT
  5
65
  8
0
 62
     4
 10
-132.0
 20
36.5
 30
0.0
 40
1.5
  1
 Ruecksprache nicht 
 51
15.0
  0
TEXT
  5
66
  8
0
 62
     4
 10
-132.0
 20
34.0
 30
0.0
 40
1.5
  1
 geaendert werden
 51
15.0
  0
TEXT
  5
67
  8
0
 62
     4
 10
-132.0
 20
30.0
 30
0.0
 40
1.5
  1
Zeichnung urheberrechtlich
 51
15.0
  0
TEXT
  5
68
  8
0
 62
     4
 10
-132.0
 20
27.5
 30
0.0
 40
1.5
  1
geschuetzt (DIN 34) (C)
 51
15.0
  0
TEXT
  5
69
  8
0
 62
     4
 10
-50.0
 20
32.0
 30
0.0
 40
1.5
  1
Geprueft
 51
15.0
  0
TEXT
  5
6A
  8
0
 62
     4
 10
-50.0
 20
15.0
 30
0.0
 40
1.5
  1
Ersatz fuer:           von  Blatt
 51
15.0
  0
TEXT
  5
6B
  8
0
 62
     4
 10
-197.0
 20
1.0
 30
0.0
 40
1.5
  1
Ind.  Aenderung             Datum    Name
 51
15.0
  0
ATTDEF
  5
6C
  8
0
 62
     4
 10
-28.875
 20
37.0
 30
0.0
 40
2.5
  1
01.10.91
 41
0.7
 51
15.0
 72
     1
 11
-24.5
 21
37.0
 31
0.0
  3
Datum der Zeichnung ?
  2
DATE
 70
     0
  0
ATTDEF
  5
6D
  8
0
 62
     4
 10
-80.5
 20
36.0
 30
0.0
 40
2.5
  1

 41
0.7
 51
15.0
 72
     1
 11
-80.5
 21
36.0
 31
0.0
  3
Aus welchem Werkstoff ?
  2
WERKSTOFF
 70
     0
  0
ATTDEF
  5
6E
  8
0
 62
     2
 10
-92.0
 20
12.5
 30
0.0
 40
5.0
  1

 41
0.7
 51
15.0
 72
     1
 11
-92.0
 21
12.5
 31
0.0
  3
Zeichnungsname ?
  2
BENENNUNG
 70
     0
  0
ATTDEF
  5
6F
  8
0
 62
     3
 10
-90.2654566019
 20
21.0821914505
 30
0.0
 40
3.5
  1
()
 41
0.7
 51
15.0
 72
     1
 11
-89.0404566019
 21
21.0821914505
 31
0.0
  3
Zu welchem Produkt ?
  2
TEIL
 70
     0
  0
ATTDEF
  5
70
  8
0
 62
     3
 10
-20.5502190826
 20
1.9765410165
 30
0.0
 40
3.5
  1

 41
0.7
 51
15.0
 72
     1
 11
-20.5502190826
 21
1.9765410165
 31
0.0
  3
Zeichnungsnummer ?
  2
NUMMER
 70
     0
  0
ATTDEF
  5
71
  8
0
 62
     2
 10
-63.4826716375
 20
34.6560562329
 30
0.0
 40
5.0
  1
5:1
 41
0.7
 51
15.0
 72
     1
 11
-60.5660049708
 21
34.6560562329
 31
0.0
  3
Hauptmassstab:
  2
MASS
 70
     0
  0
ATTDEF
  5
72
  8
0
 62
     3
 10
-60.480700946
 20
28.2104505392
 30
0.0
 40
3.5
  1

 41
0.7
 51
15.0
 72
     1
 11
-60.480700946
 21
28.2104505392
 31
0.0
  3
Nebenmassstab:
  2
MASS2
 70
     0
  0
ATTDEF
  5
73
  8
0
 62
     4
 10
-81.0
 20
29.0
 30
0.0
 40
2.5
  1

 41
0.7
 51
15.0
 72
     1
 11
-81.0
 21
29.0
 31
0.0
  3
Werkstoffzusatz:
  2
TEIL
 70
     0
  0
ATTDEF
  5
74
  8
0
 62
     3
 10
-107.7114519406
 20
59.0043187474
 30
0.0
 40
3.5
  1
Freimasstoleranzen %%p0.1
 41
0.7
 51
15.0
  3
Freimasstoleranzen:
  2
TOL
 70
     0
  0
ATTDEF
  5
75
  8
0
 62
     3
 10
-107.7114519406
 20
54.0043187474
 30
0.0
 40
3.5
  1
nicht bemasste Radien R=0.2
 41
0.7
 51
15.0
  3
Nicht bemasste Radien:
  2
RADIEN
 70
     0
  0
ATTDEF
  5
76
  8
0
 62
     3
 10
-107.7114519406
 20
49.0043187474
 30
0.0
 40
3.5
  1
nicht bemasste Facetten 0.5 x 45%%D
 41
0.7
 51
15.0
  3
nicht bemasste Facetten:
  2
FACETTE
 70
     0
  0
POLYLINE
  5
77
  8
0
 62
     2
 66
     1
 10
0.0
 20
0.0
 30
0.0
  0
VERTEX
  5
4D1
  8
0
 62
     2
 10
-191.0
 20
0.0
 30
0.0
  0
VERTEX
  5
4D2
  8
0
 62
     2
 10
-191.0
 20
46.0
 30
0.0
  0
SEQEND
  5
4D3
  8
0
 62
     2
  0
POLYLINE
  5
78
  8
0
 62
     2
 66
     1
 10
0.0
 20
0.0
 30
0.0
  0
VERTEX
  5
4D4
  8
0
 62
     2
 10
-133.0
 20
0.0
 30
0.0
  0
VERTEX
  5
4D5
  8
0
 62
     2
 10
-133.0
 20
46.0
 30
0.0
  0
SEQEND
  5
4D6
  8
0
 62
     2
  0
POLYLINE
  5
79
  8
0
 62
     2
 66
     1
 10
0.0
 20
0.0
 30
0.0
  0
VERTEX
  5
4D7
  8
0
 62
     2
 10
-92.0
 20
26.0
 30
0.0
  0
VERTEX
  5
4D8
  8
0
 62
     2
 10
-92.0
 20
46.0
 30
0.0
  0
SEQEND
  5
4D9
  8
0
 62
     2
  0
POLYLINE
  5
7A
  8
0
 62
     2
 66
     1
 10
0.0
 20
0.0
 30
0.0
  0
VERTEX
  5
4DA
  8
0
 62
     2
 10
-69.0
 20
26.0
 30
0.0
  0
VERTEX
  5
4DB
  8
0
 62
     2
 10
-69.0
 20
46.0
 30
0.0
  0
SEQEND
  5
4DC
  8
0
 62
     2
  0
ATTDEF
  5
7B
  8
0
 62
     4
 10
-197.1862672584
 20
7.0
 30
0.0
 40
2.5
  1

 41
0.7
 51
15.0
  3
Index1:
  2
INDEX1
 70
     0
  0
ATTDEF
  5
7C
  8
0
 62
     4
 10
-190.3487426036
 20
7.0
 30
0.0
 40
2.5
  1

 41
0.7
 51
15.0
  3
Aenderung1:
  2
A1
 70
     0
  0
ATTDEF
  5
7D
  8
0
 62
     4
 10
-157.3487426036
 20
7.0
 30
0.0
 40
2.5
  1

 41
0.7
 51
15.0
  3
Datum1:
  2
DATUM1
 70
     0
  0
ATTDEF
  5
7E
  8
0
 62
     4
 10
-144.4649901381
 20
7.0
 30
0.0
 40
2.5
  1

 41
0.7
 51
15.0
  3
Name1:
  2
NAME1
 70
     0
  0
ATTDEF
  5
7F
  8
0
 62
     4
 10
-197.1862672584
 20
12.0
 30
0.0
 40
2.5
  1

 41
0.7
 51
15.0
  3
Index2:
  2
INDEX2
 70
     0
  0
ATTDEF
  5
80
  8
0
 62
     4
 10
-190.3487426036
 20
12.0
 30
0.0
 40
2.5
  1

 41
0.7
 51
15.0
  3
Aenderung2:
  2
A2
 70
     0
  0
ATTDEF
  5
81
  8
0
 62
     4
 10
-157.3487426036
 20
12.0
 30
0.0
 40
2.5
  1

 41
0.7
 51
15.0
  3
Datum2:
  2
DATUM2
 70
     0
  0
ATTDEF
  5
82
  8
0
 62
     4
 10
-144.4649901381
 20
12.0
 30
0.0
 40
2.5
  1

 41
0.7
 51
15.0
  3
Name2
  2
NAME2
 70
     0
  0
ATTDEF
  5
83
  8
0
 62
     4
 10
-197.1862672584
 20
17.0
 30
0.0
 40
2.5
  1

 41
0.7
 51
15.0
  3
Index3:
  2
INDEX3
 70
     0
  0
ATTDEF
  5
84
  8
0
 62
     4
 10
-190.3487426036
 20
17.0
 30
0.0
 40
2.5
  1

 41
0.7
 51
15.0
  3
Aenderung3
  2
A3
 70
     0
  0
ATTDEF
  5
85
  8
0
 62
     4
 10
-157.3487426036
 20
17.0
 30
0.0
 40
2.5
  1

 41
0.7
 51
15.0
  3
Datum3:
  2
DATUM3
 70
     0
  0
ATTDEF
  5
86
  8
0
 62
     4
 10
-144.4649901381
 20
17.0
 30
0.0
 40
2.5
  1

 41
0.7
 51
15.0
  3
Name3:
  2
NAME3
 70
     0
  0
ATTDEF
  5
87
  8
0
 62
     4
 10
-197.1862672584
 20
22.0
 30
0.0
 40
2.5
  1

 41
0.7
 51
15.0
  3
Index4:
  2
INDEX4
 70
     0
  0
ATTDEF
  5
88
  8
0
 62
     4
 10
-190.3487426036
 20
22.0
 30
0.0
 40
2.5
  1

 41
0.7
 51
15.0
  3
Aenderung4:
  2
A4
 70
     0
  0
ATTDEF
  5
89
  8
0
 62
     4
 10
-157.3487426036
 20
22.0
 30
0.0
 40
2.5
  1

 41
0.7
 51
15.0
  3
Datum4:
  2
DATUM4
 70
     0
  0
ATTDEF
  5
8A
  8
0
 62
     4
 10
-144.4649901381
 20
22.0
 30
0.0
 40
2.5
  1

 41
0.7
 51
15.0
  3
Name4:
  2
NAME4
 70
     0
  0
ATTDEF
  5
8B
  8
0
 62
     4
 10
-197.1862672584
 20
27.0
 30
0.0
 40
2.5
  1

 41
0.7
 51
15.0
  3
Index5:
  2
INDEX5
 70
     0
  0
ATTDEF
  5
8C
  8
0
 62
     4
 10
-190.3487426036
 20
27.0
 30
0.0
 40
2.5
  1

 41
0.7
 51
15.0
  3
Aenderung5:
  2
A5
 70
     0
  0
ATTDEF
  5
8D
  8
0
 62
     4
 10
-157.3487426036
 20
27.0
 30
0.0
 40
2.5
  1

 41
0.7
 51
15.0
  3
Datum5:
  2
DATUM5
 70
     0
  0
ATTDEF
  5
8E
  8
0
 62
     4
 10
-144.4649901381
 20
27.0
 30
0.0
 40
2.5
  1

 41
0.7
 51
15.0
  3
Name5
  2
NAME5
 70
     0
  0
ATTDEF
  5
8F
  8
0
 62
     4
 10
-197.1862672584
 20
32.0
 30
0.0
 40
2.5
  1

 41
0.7
 51
15.0
  3
Index6:
  2
INDEX6
 70
     0
  0
ATTDEF
  5
90
  8
0
 62
     4
 10
-190.3487426036
 20
32.0
 30
0.0
 40
2.5
  1

 41
0.7
 51
15.0
  3
Aenderung6:
  2
A6
 70
     0
  0
ATTDEF
  5
91
  8
0
 62
     4
 10
-157.3487426036
 20
32.0
 30
0.0
 40
2.5
  1

 41
0.7
 51
15.0
  3
Datum6:
  2
DATUM6
 70
     0
  0
ATTDEF
  5
92
  8
0
 62
     4
 10
-144.4649901381
 20
32.0
 30
0.0
 40
2.5
  1

 41
0.7
 51
15.0
  3
Name6:
  2
NAME6
 70
     0
  0
ATTDEF
  5
93
  8
0
 62
     4
 10
-197.1862672584
 20
37.0
 30
0.0
 40
2.5
  1

 41
0.7
 51
15.0
  3
Index7:
  2
INDEX7
 70
     0
  0
ATTDEF
  5
94
  8
0
 62
     4
 10
-190.3487426036
 20
37.0
 30
0.0
 40
2.5
  1

 41
0.7
 51
15.0
  3
Aenderung7:
  2
A7
 70
     0
  0
ATTDEF
  5
95
  8
0
 62
     4
 10
-157.3487426036
 20
37.0
 30
0.0
 40
2.5
  1

 41
0.7
 51
15.0
  3
Datum7:
  2
DATUM7
 70
     0
  0
ATTDEF
  5
96
  8
0
 62
     4
 10
-144.4649901381
 20
37.0
 30
0.0
 40
2.5
  1

 41
0.7
 51
15.0
  3
Name7:
  2
NAME7
 70
     0
  0
ATTDEF
  5
97
  8
0
 62
     4
 10
-197.1862672584
 20
42.0
 30
0.0
 40
2.5
  1

 41
0.7
 51
15.0
  3
Index8:
  2
INDEX8
 70
     0
  0
ATTDEF
  5
98
  8
0
 62
     4
 10
-190.3487426036
 20
42.0
 30
0.0
 40
2.5
  1

 41
0.7
 51
15.0
  3
Aenderung8:
  2
A8
 70
     0
  0
ATTDEF
  5
99
  8
0
 62
     4
 10
-157.3487426036
 20
42.0
 30
0.0
 40
2.5
  1

 41
0.7
 51
15.0
  3
Datum8:
  2
DATUM8
 70
     0
  0
ATTDEF
  5
9A
  8
0
 62
     4
 10
-144.4649901381
 20
42.0
 30
0.0
 40
2.5
  1

 41
0.7
 51
15.0
  3
Name8:
  2
NAME8
 70
     0
  0
POLYLINE
  5
9B
  8
0
 62
     2
 66
     1
 10
0.0
 20
0.0
 30
0.0
  0
VERTEX
  5
4DD
  8
0
 62
     2
 10
0.0
 20
0.0
 30
0.0
  0
VERTEX
  5
4DE
  8
0
 62
     2
 10
0.0
 20
46.0
 30
0.0
  0
SEQEND
  5
4DF
  8
0
 62
     2
  0
POLYLINE
  5
9C
  8
0
 62
     2
 66
     1
 10
0.0
 20
0.0
 30
0.0
  0
VERTEX
  5
4E0
  8
0
 62
     2
 10
-200.0
 20
46.0
 30
0.0
  0
VERTEX
  5
4E1
  8
0
 62
     2
 10
-200.0
 20
0.0
 30
0.0
  0
SEQEND
  5
4E2
  8
0
 62
     2
  0
POLYLINE
  5
9D
  8
0
 62
     2
 66
     1
 10
0.0
 20
0.0
 30
0.0
  0
VERTEX
  5
4E3
  8
0
 62
     2
 10
0.0
 20
9.0
 30
0.0
  0
VERTEX
  5
4E4
  8
0
 62
     2
 10
-133.0
 20
9.0
 30
0.0
  0
SEQEND
  5
4E5
  8
0
 62
     2
  0
POLYLINE
  5
9E
  8
0
 62
     2
 66
     1
 10
0.0
 20
0.0
 30
0.0
  0
VERTEX
  5
4E6
  8
0
 62
     2
 10
0.0
 20
18.0
 30
0.0
  0
VERTEX
  5
4E7
  8
0
 62
     2
 10
-51.0
 20
18.0
 30
0.0
  0
SEQEND
  5
4E8
  8
0
 62
     2
  0
POLYLINE
  5
9F
  8
0
 62
     2
 66
     1
 10
0.0
 20
0.0
 30
0.0
  0
VERTEX
  5
4E9
  8
0
 62
     2
 10
0.0
 20
26.0
 30
0.0
  0
VERTEX
  5
4EA
  8
0
 62
     2
 10
-133.0
 20
26.0
 30
0.0
  0
SEQEND
  5
4EB
  8
0
 62
     2
  0
POLYLINE
  5
A0
  8
0
 62
     2
 66
     1
 10
0.0
 20
0.0
 30
0.0
  0
VERTEX
  5
4EC
  8
0
 62
     2
 10
0.0
 20
31.0
 30
0.0
  0
VERTEX
  5
4ED
  8
0
 62
     2
 10
-51.0
 20
31.0
 30
0.0
  0
SEQEND
  5
4EE
  8
0
 62
     2
  0
POLYLINE
  5
A1
  8
0
 62
     2
 66
     1
 10
0.0
 20
0.0
 30
0.0
  0
VERTEX
  5
4EF
  8
0
 62
     2
 10
0.0
 20
36.0
 30
0.0
  0
VERTEX
  5
4F0
  8
0
 62
     2
 10
-51.0
 20
36.0
 30
0.0
  0
SEQEND
  5
4F1
  8
0
 62
     2
  0
POLYLINE
  5
A2
  8
0
 62
     2
 66
     1
 10
0.0
 20
0.0
 30
0.0
  0
VERTEX
  5
4F2
  8
0
 62
     2
 10
0.0
 20
41.0
 30
0.0
  0
VERTEX
  5
4F3
  8
0
 62
     2
 10
-51.0
 20
41.0
 30
0.0
  0
SEQEND
  5
4F4
  8
0
 62
     2
  0
POLYLINE
  5
A3
  8
0
 62
     2
 66
     1
 10
0.0
 20
0.0
 30
0.0
  0
VERTEX
  5
4F5
  8
0
 62
     2
 10
0.0
 20
46.0
 30
0.0
  0
VERTEX
  5
4F6
  8
0
 62
     2
 10
-200.0
 20
46.0
 30
0.0
  0
SEQEND
  5
4F7
  8
0
 62
     2
  0
TEXT
  5
A4
  8
035
 10
517.6531578478
 20
512.8485899902
 30
0.0
 40
3.5
  1
  
 41
0.7
 51
15.0
  0
LINE
  5
A6
  8
035
 10
-131.8892776965
 20
3.2089522248
 30
0.0
 11
-130.181445392
 21
3.2089522248
 31
0.0
  0
LINE
  5
A7
  8
035
 10
-131.3385616142
 20
5.6930719405
 30
0.0
 11
-129.3202143453
 21
5.6930719405
 31
0.0
  0
LINE
  5
A8
  8
035
 10
-131.8892776965
 20
3.2089522248
 30
0.0
 11
-131.3385616142
 21
5.6930719405
 31
0.0
  0
LINE
  5
A9
  8
035
 10
-130.181445392
 20
3.2089522248
 30
0.0
 11
-129.8716675957
 21
4.6062695649
 31
0.0
  0
LINE
  5
AA
  8
035
 10
-126.3776370775
 20
3.2089522248
 30
0.0
 11
-125.8269209951
 21
5.6930719405
 31
0.0
  0
LINE
  5
AB
  8
035
 10
-127.7756915857
 20
4.6062695649
 30
0.0
 11
-127.5347532996
 21
5.6930719405
 31
0.0
  0
LINE
  5
AC
  8
035
 10
-129.8716675957
 20
4.6062695649
 30
0.0
 11
-128.3183556053
 21
3.2089522248
 31
0.0
  0
LINE
  5
AD
  8
035
 10
-129.3202143453
 20
5.6930719405
 30
0.0
 11
-127.7756915857
 21
4.6062695649
 31
0.0
  0
LINE
  5
AE
  8
035
 10
-127.5347532996
 20
5.6930719405
 30
0.0
 11
-125.8269209951
 21
5.6930719405
 31
0.0
  0
LINE
  5
AF
  8
035
 10
-128.3183556053
 20
3.2089522248
 30
0.0
 11
-126.3776370775
 21
3.2089522248
 31
0.0
  0
LINE
  5
B0
  8
035
 10
-125.5237209252
 20
3.2089522248
 30
0.0
 11
-124.9730048429
 21
5.6930719405
 31
0.0
  0
LINE
  5
B1
  8
035
 10
-123.7183477506
 20
3.6489306573
 30
0.0
 11
-123.5726739149
 21
4.3060228664
 31
0.0
  0
LINE
  5
B2
  8
035
 10
-120.855667976
 20
4.3060228664
 30
0.0
 11
-120.7913813052
 21
4.5960012989
 31
0.0
  0
LINE
  5
B3
  8
035
 10
-120.8659964584
 20
3.2089522248
 30
0.0
 11
-120.7684555882
 21
3.6489306573
 31
0.0
  0
LINE
  5
B4
  8
035
 10
-125.5237209252
 20
3.2089522248
 30
0.0
 11
-120.8659964584
 21
3.2089522248
 31
0.0
  0
LINE
  5
B5
  8
035
 10
-124.9730048429
 20
5.6930719405
 30
0.0
 11
-120.3152803761
 21
5.6930719405
 31
0.0
  0
LINE
  5
B6
  8
035
 10
-123.5083872442
 20
4.5960012989
 30
0.0
 11
-123.3627134085
 21
5.253093508
 31
0.0
  0
LINE
  5
B7
  8
035
 10
-120.4128212462
 20
5.253093508
 30
0.0
 11
-120.3152803761
 21
5.6930719405
 31
0.0
  0
LINE
  5
B8
  8
035
 10
-119.9214882878
 20
3.9677470352
 30
0.0
 11
-119.5389929649
 21
5.6930719405
 31
0.0
  0
LINE
  5
B9
  8
035
 10
-118.170584175
 20
4.1814324091
 30
0.0
 11
-117.835461759
 21
5.6930719405
 31
0.0
  0
LINE
  5
BA
  8
035
 10
-116.302927414
 20
4.1008874954
 30
0.0
 11
-115.9499486206
 21
5.6930719405
 31
0.0
  0
LINE
  5
BB
  8
035
 10
-114.6556738937
 20
3.847099445
 30
0.0
 11
-114.2464316441
 21
5.6930719405
 31
0.0
  0
LINE
  5
BC
  8
035
 10
-119.5389929649
 20
5.6930719405
 30
0.0
 11
-117.835461759
 21
5.6930719405
 31
0.0
  0
POLYLINE
  5
BD
  8
035
 66
     1
 10
0.0
 20
0.0
 30
0.0
  0
VERTEX
  5
4F8
  8
035
 10
-119.9214882878
 20
3.9677470352
 30
0.0
 42
0.0533041479
  0
VERTEX
  5
4F9
  8
035
 10
-119.9279175669
 20
3.9076108949
 30
0.0
 42
0.2429550061
  0
SEQEND
  5
4FA
  8
035
  0
POLYLINE
  5
BE
  8
035
 66
     1
 10
0.0
 20
0.0
 30
0.0
  0
VERTEX
  5
4FB
  8
035
 10
-119.9279175669
 20
3.9076108949
 30
0.0
 42
0.2429550061
  0
VERTEX
  5
4FC
  8
035
 10
-119.8081491661
 20
3.6756773836
 30
0.0
 42
0.083039132
  0
VERTEX
  5
4FD
  8
035
 10
-119.1548618838
 20
3.3586928023
 30
0.0
 42
0.0412286693
  0
VERTEX
  5
4FE
  8
035
 10
-118.3723340371
 20
3.1970982727
 30
0.0
 42
0.0303168106
  0
VERTEX
  5
4FF
  8
035
 10
-117.2885403691
 20
3.1313234837
 30
0.0
 42
0.0303168106
  0
VERTEX
  5
500
  8
035
 10
-116.204746701
 20
3.1970982727
 30
0.0
 42
0.0412286693
  0
VERTEX
  5
501
  8
035
 10
-115.4222188543
 20
3.3586928023
 30
0.0
 42
0.083039132
  0
VERTEX
  5
502
  8
035
 10
-114.768931572
 20
3.6756773836
 30
0.0
 42
0.1868768484
  0
VERTEX
  5
503
  8
035
 10
-114.6556738937
 20
3.847099445
 30
0.0
 42
0.2429550061
  0
SEQEND
  5
504
  8
035
  0
POLYLINE
  5
BF
  8
035
 66
     1
 10
0.0
 20
0.0
 30
0.0
  0
VERTEX
  5
505
  8
035
 10
-118.1753582119
 20
4.1404971182
 30
0.0
 42
0.1991045113
  0
VERTEX
  5
506
  8
035
 10
-118.1231629431
 20
4.0146182218
 30
0.0
 42
0.0984366759
  0
VERTEX
  5
507
  8
035
 10
-117.9004930522
 20
3.8660380719
 30
0.0
 42
0.0556835448
  0
VERTEX
  5
508
  8
035
 10
-117.6191705704
 20
3.7848609445
 30
0.0
 42
0.0424435077
  0
VERTEX
  5
509
  8
035
 10
-117.236909856
 20
3.7523534126
 30
0.0
 42
0.0424435077
  0
VERTEX
  5
50A
  8
035
 10
-116.8546491415
 20
3.7848609445
 30
0.0
 42
0.0556835448
  0
VERTEX
  5
50B
  8
035
 10
-116.5733266597
 20
3.8660380719
 30
0.0
 42
0.0984366759
  0
VERTEX
  5
50C
  8
035
 10
-116.3506567688
 20
4.0146182218
 30
0.0
 42
0.1413271428
  0
VERTEX
  5
50D
  8
035
 10
-116.302927414
 20
4.1008874954
 30
0.0
 42
0.1991045113
  0
SEQEND
  5
50E
  8
035
  0
POLYLINE
  5
C0
  8
035
 66
     1
 10
0.0
 20
0.0
 30
0.0
  0
VERTEX
  5
50F
  8
035
 10
-118.170584175
 20
4.1814324091
 30
0.0
 42
0.058115054
  0
VERTEX
  5
510
  8
035
 10
-118.1753582119
 20
4.1404971182
 30
0.0
 42
0.1991045113
  0
SEQEND
  5
511
  8
035
  0
LINE
  5
C1
  8
035
 10
-115.9499486206
 20
5.6930719405
 30
0.0
 11
-114.2464316441
 21
5.6930719405
 31
0.0
  0
LINE
  5
C2
  8
035
 10
-113.9321451431
 20
5.0720420116
 30
0.0
 11
-113.7944661225
 21
5.6930719405
 31
0.0
  0
LINE
  5
C3
  8
035
 10
-112.7926073826
 20
3.2089522248
 30
0.0
 11
-112.3795703208
 21
5.0720420116
 31
0.0
  0
LINE
  5
C4
  8
035
 10
-111.0847750781
 20
3.2089522248
 30
0.0
 11
-110.6717380163
 21
5.0720420116
 31
0.0
  0
LINE
  5
C5
  8
035
 10
-109.0415344529
 20
5.0720420116
 30
0.0
 11
-108.9038554324
 21
5.6930719405
 31
0.0
  0
LINE
  5
C6
  8
035
 10
-113.9321451431
 20
5.0720420116
 30
0.0
 11
-112.3795703208
 21
5.0720420116
 31
0.0
  0
LINE
  5
C7
  8
035
 10
-112.7926073826
 20
3.2089522248
 30
0.0
 11
-111.0847750781
 21
3.2089522248
 31
0.0
  0
LINE
  5
C8
  8
035
 10
-113.7944661225
 20
5.6930719405
 30
0.0
 11
-108.9038554324
 21
5.6930719405
 31
0.0
  0
LINE
  5
C9
  8
035
 10
-110.6717380163
 20
5.0720420116
 30
0.0
 11
-109.0415344529
 21
5.0720420116
 31
0.0
  0
LINE
  5
CA
  8
035
 10
-108.9111703269
 20
3.2089522248
 30
0.0
 11
-108.3604542446
 21
5.6930719405
 31
0.0
  0
LINE
  5
CB
  8
035
 10
-107.2033380224
 20
3.2089522248
 30
0.0
 11
-106.9979850473
 21
4.135239636
 31
0.0
  0
LINE
  5
CC
  8
035
 10
-108.9111703269
 20
3.2089522248
 30
0.0
 11
-107.2033380224
 21
3.2089522248
 31
0.0
  0
LINE
  5
CD
  8
035
 10
-108.3604542446
 20
5.6930719405
 30
0.0
 11
-104.0020779501
 21
5.6930719405
 31
0.0
  0
LINE
  5
CE
  8
035
 10
-103.6918663752
 20
3.4689139844
 30
0.0
 11
-103.6514143109
 21
4.0474054552
 31
0.0
  0
LINE
  5
CF
  8
035
 10
-105.404037363
 20
3.4068679226
 30
0.0
 11
-105.3727714449
 21
3.8619210716
 31
0.0
  0
LINE
  5
D0
  8
035
 10
-106.9336983765
 20
4.4252180684
 30
0.0
 11
-106.7501628102
 21
5.253093508
 31
0.0
  0
ARC
  5
D1
  8
035
 10
-103.3046681682
 20
3.4418384482
 30
0.0
 40
0.3881437056
 50
176.0
 51
216.8698976459
  0
ARC
  5
D2
  8
035
 10
-105.0302470862
 20
3.4119046862
 30
0.0
 40
0.37382421
 50
180.7720046613
 51
212.8818753489
  0
LINE
  5
D3
  8
035
 10
-105.3441815355
 20
3.2089522248
 30
0.0
 11
-103.6151831327
 21
3.2089522248
 31
0.0
  0
POLYLINE
  5
D4
  8
035
 66
     1
 10
0.0
 20
0.0
 30
0.0
  0
VERTEX
  5
512
  8
035
 10
-103.6514143109
 20
4.0474054552
 30
0.0
 42
0.0848312786
  0
VERTEX
  5
513
  8
035
 10
-103.6602844849
 20
4.1429818609
 30
0.0
 42
0.1530484383
  0
VERTEX
  5
514
  8
035
 10
-103.7516126993
 20
4.2868753569
 30
0.0
 42
0.0253150863
  0
VERTEX
  5
515
  8
035
 10
-103.7975366545
 20
4.3218520466
 30
0.0
 42
0.0679481782
  0
SEQEND
  5
516
  8
035
  0
POLYLINE
  5
D5
  8
035
 66
     1
 10
0.0
 20
0.0
 30
0.0
  0
VERTEX
  5
517
  8
035
 10
-103.7975366545
 20
4.3218520466
 30
0.0
 42
0.015368824
  0
VERTEX
  5
518
  8
035
 10
-103.6838701122
 20
4.3800253008
 30
0.0
 42
0.0739810726
  0
VERTEX
  5
519
  8
035
 10
-103.3568160162
 20
4.629408773
 30
0.0
 42
0.1068944749
  0
VERTEX
  5
51A
  8
035
 10
-103.1522965949
 20
4.9565951771
 30
0.0
 42
0.1530484383
  0
VERTEX
  5
51B
  8
035
 10
-103.1408633057
 20
5.2290424255
 30
0.0
 42
0.1530484383
  0
VERTEX
  5
51C
  8
035
 10
-103.2869884488
 20
5.4592720191
 30
0.0
 42
0.1068944749
  0
VERTEX
  5
51D
  8
035
 10
-103.6277006653
 20
5.6403640462
 30
0.0
 42
0.0679481782
  0
VERTEX
  5
51E
  8
035
 10
-104.0020779501
 20
5.6930719405
 30
0.0
 42
0.0605663675
  0
SEQEND
  5
51F
  8
035
  0
LINE
  5
D6
  8
035
 10
-102.85612852
 20
3.2089522248
 30
0.0
 11
-102.3054124377
 21
5.6930719405
 31
0.0
  0
LINE
  5
D7
  8
035
 10
-101.1482962155
 20
3.2089522248
 30
0.0
 11
-100.5975801332
 21
5.6930719405
 31
0.0
  0
LINE
  5
D8
  8
035
 10
-102.85612852
 20
3.2089522248
 30
0.0
 11
-101.1482962155
 21
3.2089522248
 31
0.0
  0
LINE
  5
D9
  8
035
 10
-102.3054124377
 20
5.6930719405
 30
0.0
 11
-100.5975801332
 21
5.6930719405
 31
0.0
  0
LINE
  5
DA
  8
035
 10
-100.1391225811
 20
3.2089522248
 30
0.0
 11
-99.5884064987
 21
5.6930719405
 31
0.0
  0
LINE
  5
DB
  8
035
 10
-98.5089190177
 20
3.2089522248
 30
0.0
 11
-98.3712399971
 21
3.8299821538
 31
0.0
  0
LINE
  5
DC
  8
035
 10
-99.5884064987
 20
5.6930719405
 30
0.0
 11
-97.9582029353
 21
5.6930719405
 31
0.0
  0
LINE
  5
DD
  8
035
 10
-100.1391225811
 20
3.2089522248
 30
0.0
 11
-98.5089190177
 21
3.2089522248
 31
0.0
  0
LINE
  5
DE
  8
035
 10
-98.3712399971
 20
3.8299821538
 30
0.0
 11
-97.6425561873
 21
4.1404971182
 31
0.0
  0
LINE
  5
DF
  8
035
 10
-98.1444745514
 20
4.8528549778
 30
0.0
 11
-96.1727418897
 21
5.6930719405
 31
0.0
  0
LINE
  5
E0
  8
035
 10
-96.1727418897
 20
5.6930719405
 30
0.0
 11
-93.9991371385
 21
5.6930719405
 31
0.0
  0
LINE
  5
E1
  8
035
 10
-97.6425561873
 20
4.1404971182
 30
0.0
 11
-96.7234579721
 21
3.2089522248
 31
0.0
  0
LINE
  5
E2
  8
035
 10
-96.0030176154
 20
4.8391557882
 30
0.0
 11
-94.3945957386
 21
3.2089522248
 31
0.0
  0
LINE
  5
E3
  8
035
 10
-96.0030176154
 20
4.8391557882
 30
0.0
 11
-93.9991371385
 21
5.6930719405
 31
0.0
  0
LINE
  5
E4
  8
035
 10
-98.1444745514
 20
4.8528549778
 30
0.0
 11
-97.9582029353
 21
5.6930719405
 31
0.0
  0
LINE
  5
E5
  8
035
 10
-96.7234579721
 20
3.2089522248
 30
0.0
 11
-94.3945957386
 21
3.2089522248
 31
0.0
  0
LINE
  5
E6
  8
035
 10
-91.5358492105
 20
3.2089522248
 30
0.0
 11
-89.8597128469
 21
3.2089522248
 31
0.0
  0
LINE
  5
E7
  8
035
 10
-89.6722128469
 20
5.6938007097
 30
0.0
 11
-86.7175087351
 21
5.6938007097
 31
0.0
  0
LINE
  5
E8
  8
035
 10
-91.5358492105
 20
3.2089522248
 30
0.0
 11
-89.6722128469
 21
5.6938007097
 31
0.0
  0
LINE
  5
E9
  8
035
 10
-86.7175087351
 20
5.6938007097
 30
0.0
 11
-86.0962966139
 21
3.2089522248
 31
0.0
  0
LINE
  5
EA
  8
035
 10
-89.4996891657
 20
3.6889837998
 30
0.0
 11
-87.773967916
 21
3.6889837998
 31
0.0
  0
LINE
  5
EB
  8
035
 10
-89.219798436
 20
4.0621714394
 30
0.0
 11
-87.8672648259
 21
4.0621714394
 31
0.0
  0
LINE
  5
EC
  8
035
 10
-85.3849813903
 20
3.7199523112
 30
0.0
 11
-85.1166197688
 21
5.241906696
 31
0.0
  0
LINE
  5
ED
  8
035
 10
-80.6329272932
 20
3.2089522248
 30
0.0
 11
-80.4403034249
 21
4.3013764673
 31
0.0
  0
LINE
  5
EE
  8
035
 10
-83.7738749795
 20
4.0493182851
 30
0.0
 11
-83.6139788557
 21
4.9561342651
 31
0.0
  0
LINE
  5
EF
  8
035
 10
-82.1859575962
 20
3.2089522248
 30
0.0
 11
-82.1809524105
 21
3.2373380435
 31
0.0
  0
LINE
  5
F0
  8
035
 10
-82.6538186767
 20
4.0786491945
 30
0.0
 11
-82.6145458491
 21
4.3013764673
 31
0.0
  0
LINE
  5
F1
  8
035
 10
-82.6538186767
 20
4.0786491945
 30
0.0
 11
-82.0326065554
 21
4.0786491945
 31
0.0
  0
ARC
  5
F2
  8
035
 10
-82.5315727241
 20
-8.0031276764
 30
0.0
 40
13.6971530745
 50
81.6598952952
 51
99.8027899403
  0
ARC
  5
F3
  8
035
 10
-83.0915344697
 20
16.9041900095
 30
0.0
 40
13.6971530745
 50
261.4614732962
 51
273.8118151288
  0
ARC
  5
F4
  8
035
 10
-84.8107325122
 20
5.1879705196
 30
0.0
 40
0.3106060606
 50
99.8027899403
 51
170.0
  0
ARC
  5
F5
  8
035
 10
-85.0790941337
 20
3.6660161348
 30
0.0
 40
0.3106060606
 50
170.0
 51
261.4614732962
  0
ARC
  5
F6
  8
035
 10
-80.5898702345
 20
5.2418499528
 30
0.0
 40
0.3106060606
 50
350.0
 51
81.6598952952
  0
LINE
  5
F7
  8
035
 10
-81.8984293969
 20
4.9639931789
 30
0.0
 11
-80.3234662208
 21
4.9639931789
 31
0.0
  0
LINE
  5
F8
  8
035
 10
-80.3234662208
 20
4.9639931789
 30
0.0
 11
-80.2839829779
 21
5.1879137764
 31
0.0
  0
LINE
  5
F9
  8
035
 10
-82.0521466968
 20
3.9678315461
 30
0.0
 11
-82.0326065554
 21
4.0786491945
 31
0.0
  0
ARC
  5
FA
  8
035
 10
-82.7557243242
 20
1.6982735741
 30
0.0
 40
3.5617969042
 50
80.2083390923
 51
99.7818251845
  0
ARC
  5
FB
  8
035
 10
-82.9891410591
 20
7.2111165154
 30
0.0
 40
3.5617969042
 50
261.5304677658
 51
281.1930684333
  0
ARC
  5
FC
  8
035
 10
-83.3080915991
 20
4.9021980887
 30
0.0
 40
0.3106060606
 50
99.7818251845
 51
170.0
  0
ARC
  5
FD
  8
035
 10
-82.2028070533
 20
4.9021032189
 30
0.0
 40
0.3106060606
 50
11.4934249692
 51
80.2083390923
  0
ARC
  5
FE
  8
035
 10
-83.4679877229
 20
3.9953821087
 30
0.0
 40
0.3106060606
 50
170.0
 51
261.5304677658
  0
ARC
  5
FF
  8
035
 10
-82.3580339534
 20
4.0217677225
 30
0.0
 40
0.3106060606
 50
281.1930684333
 51
350.0
  0
LINE
  5
100
  8
035
 10
-82.1859575962
 20
3.2089522248
 30
0.0
 11
-80.6329272932
 21
3.2089522248
 31
0.0
  0
LINE
  5
101
  8
035
 10
-87.6539600223
 20
3.2089522248
 30
0.0
 11
-86.0962966139
 21
3.2089522248
 31
0.0
  0
TEXT
  5
102
  8
035
 62
     4
 10
-77.5769255603
 20
3.2646362111
 30
0.0
 40
2.4848484848
  1
FL-9494 SCHAAN
 41
0.7
 51
15.0
  7
HELV
  0
LINE
  5
104
  8
035
 10
-123.3627134085
 20
5.253093508
 30
0.0
 11
-120.4128212462
 21
5.253093508
 31
0.0
  0
LINE
  5
105
  8
035
 10
-123.5083872442
 20
4.5960012989
 30
0.0
 11
-120.7913813052
 21
4.5960012989
 31
0.0
  0
LINE
  5
106
  8
035
 10
-123.5726739149
 20
4.3060228664
 30
0.0
 11
-120.855667976
 21
4.3060228664
 31
0.0
  0
LINE
  5
107
  8
035
 10
-123.7183477506
 20
3.6489306573
 30
0.0
 11
-120.7684555882
 21
3.6489306573
 31
0.0
  0
LINE
  5
108
  8
0
 62
     4
 10
-94.0883060626
 20
5.6550742728
 30
0.0
 11
-94.0503083948
 21
5.6930719405
 31
0.0
  0
LINE
  5
109
  8
0
 62
     4
 10
-94.4131077669
 20
3.2089522248
 30
0.0
 11
-94.4037895006
 21
3.2182704912
 31
0.0
  0
LINE
  5
10A
  8
035
 10
-106.7501628102
 20
5.253093508
 30
0.0
 11
-105.3436026399
 21
5.253093508
 31
0.0
  0
LINE
  5
10B
  8
035
 10
-106.9336983765
 20
4.4252180684
 30
0.0
 11
-105.5733727795
 21
4.4252180684
 31
0.0
  0
LINE
  5
10C
  8
035
 10
-106.9979850473
 20
4.135239636
 30
0.0
 11
-105.5490997169
 21
4.135239636
 31
0.0
  0
LINE
  5
10D
  8
035
 10
-105.3436026399
 20
5.253093508
 30
0.0
 11
-105.2325857189
 21
5.2349296889
 31
0.0
  0
LINE
  5
10E
  8
035
 10
-105.2325857189
 20
5.2349296889
 30
0.0
 11
-105.1363891563
 21
5.1861985577
 31
0.0
  0
LINE
  5
10F
  8
035
 10
-105.1363891563
 20
5.1861985577
 30
0.0
 11
-105.0902130603
 21
5.1118223312
 31
0.0
  0
LINE
  5
110
  8
035
 10
-105.0902130603
 20
5.1118223312
 30
0.0
 11
-105.0543010903
 21
5.0220570655
 31
0.0
  0
LINE
  5
111
  8
035
 10
-105.0543010903
 20
5.0220570655
 30
0.0
 11
-105.0530165156
 21
4.9245997577
 31
0.0
  0
LINE
  5
112
  8
035
 10
-105.0530165156
 20
4.9245997577
 30
0.0
 11
-105.0632775239
 21
4.7835393468
 31
0.0
  0
LINE
  5
113
  8
035
 10
-105.0632775239
 20
4.7835393468
 30
0.0
 11
-105.114585683
 21
4.6976238183
 31
0.0
  0
LINE
  5
114
  8
035
 10
-105.114585683
 20
4.6976238183
 30
0.0
 11
-105.2056501825
 21
4.5911862679
 31
0.0
  0
LINE
  5
115
  8
035
 10
-105.2056501825
 20
4.5911862679
 30
0.0
 11
-105.342893896
 21
4.5091155218
 31
0.0
  0
LINE
  5
116
  8
035
 10
-105.342893896
 20
4.5091155218
 30
0.0
 11
-105.4737240896
 21
4.4424338148
 31
0.0
  0
LINE
  5
117
  8
035
 10
-105.4737240896
 20
4.4424338148
 30
0.0
 11
-105.5733727795
 21
4.4252180684
 31
0.0
  0
LINE
  5
118
  8
035
 10
-105.5490997169
 20
4.135239636
 30
0.0
 11
-105.4662193048
 21
4.1235794658
 31
0.0
  0
LINE
  5
119
  8
035
 10
-105.4662193048
 20
4.1235794658
 30
0.0
 11
-105.4130185804
 21
4.0899326647
 31
0.0
  0
LINE
  5
11A
  8
035
 10
-105.4130185804
 20
4.0899326647
 30
0.0
 11
-105.3804489991
 21
4.0367448558
 31
0.0
  0
LINE
  5
11B
  8
035
 10
-105.3804489991
 20
4.0367448558
 30
0.0
 11
-105.3652492376
 21
3.9727039594
 31
0.0
  0
LINE
  5
11C
  8
035
 10
-105.3652492376
 20
3.9727039594
 30
0.0
 11
-105.3727714449
 21
3.8619210716
 31
0.0
  0
LINE
  5
11D
  8
035
 10
-88.2053982284
 20
5.4147050494
 30
0.0
 11
-87.8672648259
 21
4.0621714394
 31
0.0
  0
LINE
  5
11E
  8
035
 10
-89.219798436
 20
4.0621714394
 30
0.0
 11
-88.2053982284
 21
5.4147050494
 31
0.0
  0
LINE
  5
11F
  8
035
 10
-87.773967916
 20
3.6889837998
 30
0.0
 11
-87.6539600223
 21
3.2089522248
 31
0.0
  0
LINE
  5
120
  8
035
 10
-89.8597128469
 20
3.2089522248
 30
0.0
 11
-89.4996891657
 21
3.6889837998
 31
0.0
  0
LINE
  5
121
  8
035
 10
-82.6145458491
 20
4.3013764673
 30
0.0
 11
-80.4403034249
 21
4.3013764673
 31
0.0
  0
INSERT
  5
122
  8
035
 62
     4
  2
*X1
 10
-280.0
 20
-100.0
 30
0.0
1001
ACAD
1000
HATCH
1002
{
1070
    16
1000
ANSI37,I
1040
1.8
1040
0.0
1002
}
  0
ENDBLK
  5
32C
  8
0
  0
BLOCK
  8
0
  2
*X1
 70
     1
 10
0.0
 20
0.0
 30
0.0
  3
*X1
  1

  0
LINE
  5
124
  8
0
 62
     0
 10
172.5761274592
 20
103.2089522248
 30
0.0
 11
172.8594796448
 21
103.4923044104
 31
0.0
  0
LINE
  5
125
  8
0
 62
     0
 10
174.6202687424
 20
105.253093508
 30
0.0
 11
175.0602471749
 21
105.6930719405
 31
0.0
  0
LINE
  5
126
  8
0
 62
     0
 10
173.5024148704
 20
104.135239636
 30
0.0
 11
173.7923933028
 21
104.4252180684
 31
0.0
  0
LINE
  5
127
  8
0
 62
     0
 10
172.2579294077
 20
103.2089522248
 30
0.0
 11
172.9501160651
 21
103.9011388822
 31
0.0
  0
LINE
  5
128
  8
0
 62
     0
 10
174.3020706909
 20
105.253093508
 30
0.0
 11
174.7420491233
 21
105.6930719405
 31
0.0
  0
LINE
  5
129
  8
0
 62
     0
 10
173.1842168188
 20
104.135239636
 30
0.0
 11
173.4741952513
 21
104.4252180684
 31
0.0
  0
LINE
  5
12A
  8
0
 62
     0
 10
171.9397313562
 20
103.2089522248
 30
0.0
 11
173.1559971998
 21
104.4252180684
 31
0.0
  0
LINE
  5
12B
  8
0
 62
     0
 10
173.9838726394
 20
105.253093508
 30
0.0
 11
174.4238510718
 21
105.6930719405
 31
0.0
  0
LINE
  5
12C
  8
0
 62
     0
 10
171.6215333046
 20
103.2089522248
 30
0.0
 11
173.1313889057
 21
104.7188078259
 31
0.0
  0
LINE
  5
12D
  8
0
 62
     0
 10
173.6656745878
 20
105.253093508
 30
0.0
 11
174.1056530203
 21
105.6930719405
 31
0.0
  0
LINE
  5
12E
  8
0
 62
     0
 10
171.3033352531
 20
103.2089522248
 30
0.0
 11
173.222025326
 21
105.1276422978
 31
0.0
  0
LINE
  5
12F
  8
0
 62
     0
 10
173.3474765363
 20
105.253093508
 30
0.0
 11
173.7874549687
 21
105.6930719405
 31
0.0
  0
LINE
  5
130
  8
0
 62
     0
 10
171.1183657259
 20
103.3421807491
 30
0.0
 11
173.4692569172
 21
105.6930719405
 31
0.0
  0
LINE
  5
131
  8
0
 62
     0
 10
171.2090021462
 20
103.751015221
 30
0.0
 11
173.1510588657
 21
105.6930719405
 31
0.0
  0
LINE
  5
132
  8
0
 62
     0
 10
171.2996385665
 20
104.1598496928
 30
0.0
 11
172.8328608141
 21
105.6930719405
 31
0.0
  0
LINE
  5
133
  8
0
 62
     0
 10
171.3902749868
 20
104.5686841647
 30
0.0
 11
172.5146627626
 21
105.6930719405
 31
0.0
  0
LINE
  5
134
  8
0
 62
     0
 10
171.4809114071
 20
104.9775186365
 30
0.0
 11
172.1964647111
 21
105.6930719405
 31
0.0
  0
LINE
  5
135
  8
0
 62
     0
 10
171.5715478274
 20
105.3863531084
 30
0.0
 11
171.8782666595
 21
105.6930719405
 31
0.0
  0
LINE
  5
136
  8
0
 62
     0
 10
170.9390386791
 20
105.0720420116
 30
0.0
 11
170.9639991503
 21
105.0970024828
 31
0.0
  0
LINE
  5
137
  8
0
 62
     0
 10
168.7577508408
 20
103.2089522248
 30
0.0
 11
168.9600802783
 21
103.4112816623
 31
0.0
  0
LINE
  5
138
  8
0
 62
     0
 10
170.6208406276
 20
105.0720420116
 30
0.0
 11
171.0546355706
 21
105.5058369546
 31
0.0
  0
LINE
  5
139
  8
0
 62
     0
 10
168.4395527893
 20
103.2089522248
 30
0.0
 11
169.0507166986
 21
103.8201161342
 31
0.0
  0
LINE
  5
13A
  8
0
 62
     0
 10
170.302642576
 20
105.0720420116
 30
0.0
 11
170.9236725049
 21
105.6930719405
 31
0.0
  0
LINE
  5
13B
  8
0
 62
     0
 10
168.1213547378
 20
103.2089522248
 30
0.0
 11
169.1413531189
 21
104.228950606
 31
0.0
  0
LINE
  5
13C
  8
0
 62
     0
 10
169.9844445245
 20
105.0720420116
 30
0.0
 11
170.6054744534
 21
105.6930719405
 31
0.0
  0
LINE
  5
13D
  8
0
 62
     0
 10
167.8031566862
 20
103.2089522248
 30
0.0
 11
169.2319895392
 21
104.6377850779
 31
0.0
  0
LINE
  5
13E
  8
0
 62
     0
 10
169.666246473
 20
105.0720420116
 30
0.0
 11
170.2872764019
 21
105.6930719405
 31
0.0
  0
LINE
  5
13F
  8
0
 62
     0
 10
167.4849586347
 20
103.2089522248
 30
0.0
 11
169.3226259596
 21
105.0466195497
 31
0.0
  0
LINE
  5
140
  8
0
 62
     0
 10
169.3480484214
 20
105.0720420116
 30
0.0
 11
169.9690783503
 21
105.6930719405
 31
0.0
  0
LINE
  5
141
  8
0
 62
     0
 10
167.2189663594
 20
103.261158001
 30
0.0
 11
169.6508802988
 21
105.6930719405
 31
0.0
  0
LINE
  5
142
  8
0
 62
     0
 10
167.3096027797
 20
103.6699924729
 30
0.0
 11
169.3326822473
 21
105.6930719405
 31
0.0
  0
LINE
  5
143
  8
0
 62
     0
 10
167.4002392
 20
104.0788269447
 30
0.0
 11
169.0144841957
 21
105.6930719405
 31
0.0
  0
LINE
  5
144
  8
0
 62
     0
 10
167.4908756203
 20
104.4876614166
 30
0.0
 11
168.6962861442
 21
105.6930719405
 31
0.0
  0
LINE
  5
145
  8
0
 62
     0
 10
167.5815120406
 20
104.8964958884
 30
0.0
 11
168.3780880927
 21
105.6930719405
 31
0.0
  0
LINE
  5
146
  8
0
 62
     0
 10
167.4388601122
 20
105.0720420116
 30
0.0
 11
168.0598900411
 21
105.6930719405
 31
0.0
  0
LINE
  5
147
  8
0
 62
     0
 10
167.1206620607
 20
105.0720420116
 30
0.0
 11
167.7416919896
 21
105.6930719405
 31
0.0
  0
LINE
  5
148
  8
0
 62
     0
 10
166.8024640092
 20
105.0720420116
 30
0.0
 11
167.4234939381
 21
105.6930719405
 31
0.0
  0
LINE
  5
149
  8
0
 62
     0
 10
164.8883760908
 20
103.4761521447
 30
0.0
 11
165.3685385167
 21
103.9563145707
 31
0.0
  0
LINE
  5
14A
  8
0
 62
     0
 10
166.4842659576
 20
105.0720420116
 30
0.0
 11
167.1052958865
 21
105.6930719405
 31
0.0
  0
LINE
  5
14B
  8
0
 62
     0
 10
164.4054660576
 20
103.3114401631
 30
0.0
 11
165.4591749371
 21
104.3651490425
 31
0.0
  0
LINE
  5
14C
  8
0
 62
     0
 10
166.1660679061
 20
105.0720420116
 30
0.0
 11
166.787097835
 21
105.6930719405
 31
0.0
  0
LINE
  5
14D
  8
0
 62
     0
 10
164.0027687813
 20
103.2269409383
 30
0.0
 11
165.5498113574
 21
104.7739835144
 31
0.0
  0
LINE
  5
14E
  8
0
 62
     0
 10
166.1305159984
 20
105.3546881554
 30
0.0
 11
166.4688997835
 21
105.6930719405
 31
0.0
  0
LINE
  5
14F
  8
0
 62
     0
 10
163.6368593557
 20
103.1792295642
 30
0.0
 11
165.6404477777
 21
105.1828179862
 31
0.0
  0
LINE
  5
150
  8
0
 62
     0
 10
163.2894105918
 20
103.1499788519
 30
0.0
 11
165.731084198
 21
105.5916524581
 31
0.0
  0
LINE
  5
151
  8
0
 62
     0
 10
162.9558911664
 20
103.134657478
 30
0.0
 11
165.5143056289
 21
105.6930719405
 31
0.0
  0
LINE
  5
152
  8
0
 62
     0
 10
162.6346879567
 20
103.1316523199
 30
0.0
 11
163.3351193188
 21
103.832083682
 31
0.0
  0
LINE
  5
153
  8
0
 62
     0
 10
163.7236055362
 20
104.2205698993
 30
0.0
 11
165.1961075773
 21
105.6930719405
 31
0.0
  0
LINE
  5
154
  8
0
 62
     0
 10
162.3245182994
 20
103.1396807141
 30
0.0
 11
162.9444689096
 21
103.7596313243
 31
0.0
  0
LINE
  5
155
  8
0
 62
     0
 10
163.8142419565
 20
104.6294043712
 30
0.0
 11
164.8779095258
 21
105.6930719405
 31
0.0
  0
LINE
  5
156
  8
0
 62
     0
 10
162.0243427551
 20
103.1577032213
 30
0.0
 11
162.6233123718
 21
103.756672838
 31
0.0
  0
LINE
  5
157
  8
0
 62
     0
 10
163.9048783768
 20
105.038238843
 30
0.0
 11
164.5597114743
 21
105.6930719405
 31
0.0
  0
LINE
  5
158
  8
0
 62
     0
 10
161.7333055787
 20
103.1848640965
 30
0.0
 11
162.3407985751
 21
103.7923570928
 31
0.0
  0
LINE
  5
159
  8
0
 62
     0
 10
163.9955147971
 20
105.4470733149
 30
0.0
 11
164.2415134227
 21
105.6930719405
 31
0.0
  0
LINE
  5
15A
  8
0
 62
     0
 10
161.4520072176
 20
103.2217637869
 30
0.0
 11
162.0972286209
 21
103.8669851901
 31
0.0
  0
LINE
  5
15B
  8
0
 62
     0
 10
161.1841705405
 20
103.2721251613
 30
0.0
 11
161.9024085506
 21
103.9903631714
 31
0.0
  0
LINE
  5
15C
  8
0
 62
     0
 10
160.9287577205
 20
103.3349103929
 30
0.0
 11
161.8448360994
 21
104.2509887717
 31
0.0
  0
LINE
  5
15D
  8
0
 62
     0
 10
160.6873206601
 20
103.411671384
 30
0.0
 11
161.9354725197
 21
104.6598232436
 31
0.0
  0
LINE
  5
15E
  8
0
 62
     0
 10
160.4667183293
 20
103.5092671047
 30
0.0
 11
162.02610894
 21
105.0686577154
 31
0.0
  0
LINE
  5
15F
  8
0
 62
     0
 10
160.265103282
 20
103.6258501089
 30
0.0
 11
162.1167453603
 21
105.4774921873
 31
0.0
  0
LINE
  5
160
  8
0
 62
     0
 10
160.1018936456
 20
103.7808385241
 30
0.0
 11
162.014127062
 21
105.6930719405
 31
0.0
  0
LINE
  5
161
  8
0
 62
     0
 10
160.1092484159
 20
104.106391346
 30
0.0
 11
161.6959290105
 21
105.6930719405
 31
0.0
  0
LINE
  5
162
  8
0
 62
     0
 10
158.8936112433
 20
103.2089522248
 30
0.0
 11
159.2024775542
 21
103.5178185358
 31
0.0
  0
LINE
  5
163
  8
0
 62
     0
 10
160.1998848363
 20
104.5152258178
 30
0.0
 11
161.3777309589
 21
105.6930719405
 31
0.0
  0
LINE
  5
164
  8
0
 62
     0
 10
158.5754131918
 20
103.2089522248
 30
0.0
 11
159.0153916242
 21
103.6489306573
 31
0.0
  0
LINE
  5
165
  8
0
 62
     0
 10
160.2905212566
 20
104.9240602897
 30
0.0
 11
161.0595329074
 21
105.6930719405
 31
0.0
  0
LINE
  5
166
  8
0
 62
     0
 10
158.2572151402
 20
103.2089522248
 30
0.0
 11
158.6971935727
 21
103.6489306573
 31
0.0
  0
LINE
  5
167
  8
0
 62
     0
 10
160.3811576769
 20
105.3328947615
 30
0.0
 11
160.7413348559
 21
105.6930719405
 31
0.0
  0
LINE
  5
168
  8
0
 62
     0
 10
157.9390170887
 20
103.2089522248
 30
0.0
 11
158.3789955211
 21
103.6489306573
 31
0.0
  0
LINE
  5
169
  8
0
 62
     0
 10
159.0360877303
 20
104.3060228664
 30
0.0
 11
159.1751646305
 21
104.4450997667
 31
0.0
  0
LINE
  5
16A
  8
0
 62
     0
 10
157.6208190372
 20
103.2089522248
 30
0.0
 11
158.0607974696
 21
103.6489306573
 31
0.0
  0
LINE
  5
16B
  8
0
 62
     0
 10
158.7178896787
 20
104.3060228664
 30
0.0
 11
159.0078681112
 21
104.5960012989
 31
0.0
  0
LINE
  5
16C
  8
0
 62
     0
 10
157.3026209856
 20
103.2089522248
 30
0.0
 11
157.7425994181
 21
103.6489306573
 31
0.0
  0
LINE
  5
16D
  8
0
 62
     0
 10
159.3467622688
 20
105.253093508
 30
0.0
 11
159.6556596558
 21
105.561990895
 31
0.0
  0
LINE
  5
16E
  8
0
 62
     0
 10
158.3996916272
 20
104.3060228664
 30
0.0
 11
158.6896700597
 21
104.5960012989
 31
0.0
  0
LINE
  5
16F
  8
0
 62
     0
 10
156.9844229341
 20
103.2089522248
 30
0.0
 11
157.4244013665
 21
103.6489306573
 31
0.0
  0
LINE
  5
170
  8
0
 62
     0
 10
159.0285642173
 20
105.253093508
 30
0.0
 11
159.4685426497
 21
105.6930719405
 31
0.0
  0
LINE
  5
171
  8
0
 62
     0
 10
158.0814935757
 20
104.3060228664
 30
0.0
 11
158.3714720081
 21
104.5960012989
 31
0.0
  0
LINE
  5
172
  8
0
 62
     0
 10
156.6662248825
 20
103.2089522248
 30
0.0
 11
157.106203315
 21
103.6489306573
 31
0.0
  0
LINE
  5
173
  8
0
 62
     0
 10
158.7103661657
 20
105.253093508
 30
0.0
 11
159.1503445982
 21
105.6930719405
 31
0.0
  0
LINE
  5
174
  8
0
 62
     0
 10
157.7632955241
 20
104.3060228664
 30
0.0
 11
158.0532739566
 21
104.5960012989
 31
0.0
  0
LINE
  5
175
  8
0
 62
     0
 10
156.348026831
 20
103.2089522248
 30
0.0
 11
156.7880052635
 21
103.6489306573
 31
0.0
  0
LINE
  5
176
  8
0
 62
     0
 10
158.3921681142
 20
105.253093508
 30
0.0
 11
158.8321465467
 21
105.6930719405
 31
0.0
  0
LINE
  5
177
  8
0
 62
     0
 10
157.4450974726
 20
104.3060228664
 30
0.0
 11
157.7350759051
 21
104.5960012989
 31
0.0
  0
LINE
  5
178
  8
0
 62
     0
 10
156.0298287795
 20
103.2089522248
 30
0.0
 11
156.4698072119
 21
103.6489306573
 31
0.0
  0
LINE
  5
179
  8
0
 62
     0
 10
158.0739700627
 20
105.253093508
 30
0.0
 11
158.5139484951
 21
105.6930719405
 31
0.0
  0
LINE
  5
17A
  8
0
 62
     0
 10
157.1268994211
 20
104.3060228664
 30
0.0
 11
157.4168778535
 21
104.5960012989
 31
0.0
  0
LINE
  5
17B
  8
0
 62
     0
 10
155.7116307279
 20
103.2089522248
 30
0.0
 11
156.3186940856
 21
103.8160155825
 31
0.0
  0
LINE
  5
17C
  8
0
 62
     0
 10
157.7557720111
 20
105.253093508
 30
0.0
 11
158.1957504436
 21
105.6930719405
 31
0.0
  0
LINE
  5
17D
  8
0
 62
     0
 10
156.8087013695
 20
104.3060228664
 30
0.0
 11
157.098679802
 21
104.5960012989
 31
0.0
  0
LINE
  5
17E
  8
0
 62
     0
 10
155.3934326764
 20
103.2089522248
 30
0.0
 11
156.4093305059
 21
104.2248500543
 31
0.0
  0
LINE
  5
17F
  8
0
 62
     0
 10
157.4375739596
 20
105.253093508
 30
0.0
 11
157.877552392
 21
105.6930719405
 31
0.0
  0
LINE
  5
180
  8
0
 62
     0
 10
156.490503318
 20
104.3060228664
 30
0.0
 11
156.7804817505
 21
104.5960012989
 31
0.0
  0
LINE
  5
181
  8
0
 62
     0
 10
155.0752346249
 20
103.2089522248
 30
0.0
 11
156.4999669262
 21
104.6336845262
 31
0.0
  0
LINE
  5
182
  8
0
 62
     0
 10
157.1193759081
 20
105.253093508
 30
0.0
 11
157.5593543405
 21
105.6930719405
 31
0.0
  0
LINE
  5
183
  8
0
 62
     0
 10
154.7570365733
 20
103.2089522248
 30
0.0
 11
156.5906033465
 21
105.042518998
 31
0.0
  0
LINE
  5
184
  8
0
 62
     0
 10
156.8011778565
 20
105.253093508
 30
0.0
 11
157.241156289
 21
105.6930719405
 31
0.0
  0
LINE
  5
185
  8
0
 62
     0
 10
154.4869437463
 20
103.2570574493
 30
0.0
 11
156.9229582374
 21
105.6930719405
 31
0.0
  0
LINE
  5
186
  8
0
 62
     0
 10
154.5775801666
 20
103.6658919212
 30
0.0
 11
156.6047601859
 21
105.6930719405
 31
0.0
  0
LINE
  5
187
  8
0
 62
     0
 10
154.6682165869
 20
104.074726393
 30
0.0
 11
156.2865621344
 21
105.6930719405
 31
0.0
  0
LINE
  5
188
  8
0
 62
     0
 10
153.4842443672
 20
103.2089522248
 30
0.0
 11
153.661704997
 21
103.3864128546
 31
0.0
  0
LINE
  5
189
  8
0
 62
     0
 10
154.7588530072
 20
104.4835608649
 30
0.0
 11
155.9683640828
 21
105.6930719405
 31
0.0
  0
LINE
  5
18A
  8
0
 62
     0
 10
153.1660463157
 20
103.2089522248
 30
0.0
 11
153.7523414173
 21
103.7952473265
 31
0.0
  0
LINE
  5
18B
  8
0
 62
     0
 10
154.8494894276
 20
104.8923953367
 30
0.0
 11
155.6501660313
 21
105.6930719405
 31
0.0
  0
LINE
  5
18C
  8
0
 62
     0
 10
152.8478482641
 20
103.2089522248
 30
0.0
 11
153.8429778376
 21
104.2040817983
 31
0.0
  0
LINE
  5
18D
  8
0
 62
     0
 10
154.9401258479
 20
105.3012298086
 30
0.0
 11
155.3319679798
 21
105.6930719405
 31
0.0
  0
LINE
  5
18E
  8
0
 62
     0
 10
152.5296502126
 20
103.2089522248
 30
0.0
 11
153.9336142579
 21
104.6129162702
 31
0.0
  0
LINE
  5
18F
  8
0
 62
     0
 10
152.2114521611
 20
103.2089522248
 30
0.0
 11
154.0242506782
 21
105.021750742
 31
0.0
  0
LINE
  5
190
  8
0
 62
     0
 10
151.8932541095
 20
103.2089522248
 30
0.0
 11
154.1148870986
 21
105.4305852139
 31
0.0
  0
LINE
  5
191
  8
0
 62
     0
 10
151.6255326562
 20
103.259428823
 30
0.0
 11
154.0591757736
 21
105.6930719405
 31
0.0
  0
LINE
  5
192
  8
0
 62
     0
 10
151.4580223411
 20
103.4101165595
 30
0.0
 11
153.7409777221
 21
105.6930719405
 31
0.0
  0
LINE
  5
193
  8
0
 62
     0
 10
151.2905120261
 20
103.560804296
 30
0.0
 11
153.4227796706
 21
105.6930719405
 31
0.0
  0
LINE
  5
194
  8
0
 62
     0
 10
151.123001711
 20
103.7114920324
 30
0.0
 11
152.1030809002
 21
104.6915712217
 31
0.0
  0
LINE
  5
195
  8
0
 62
     0
 10
152.2831367593
 20
104.8716270807
 30
0.0
 11
153.104581619
 21
105.6930719405
 31
0.0
  0
LINE
  5
196
  8
0
 62
     0
 10
150.9554913959
 20
103.8621797689
 30
0.0
 11
151.9163065157
 21
104.8229948887
 31
0.0
  0
LINE
  5
197
  8
0
 62
     0
 10
152.3737731796
 20
105.2804615526
 30
0.0
 11
152.7863835675
 21
105.6930719405
 31
0.0
  0
LINE
  5
198
  8
0
 62
     0
 10
150.7879810809
 20
104.0128675054
 30
0.0
 11
151.7295321311
 21
104.9544185557
 31
0.0
  0
LINE
  5
199
  8
0
 62
     0
 10
152.4644095999
 20
105.6892960244
 30
0.0
 11
152.468185516
 21
105.6930719405
 31
0.0
  0
LINE
  5
19A
  8
0
 62
     0
 10
149.6658677488
 20
103.2089522248
 30
0.0
 11
149.8620463587
 21
103.4051308348
 31
0.0
  0
LINE
  5
19B
  8
0
 62
     0
 10
150.6204707658
 20
104.1635552419
 30
0.0
 11
151.5427577466
 21
105.0858422226
 31
0.0
  0
LINE
  5
19C
  8
0
 62
     0
 10
149.3476696973
 20
103.2089522248
 30
0.0
 11
149.952682779
 21
103.8139653066
 31
0.0
  0
LINE
  5
19D
  8
0
 62
     0
 10
150.4529604508
 20
104.3142429783
 30
0.0
 11
151.3559833621
 21
105.2172658896
 31
0.0
  0
LINE
  5
19E
  8
0
 62
     0
 10
149.0294716457
 20
103.2089522248
 30
0.0
 11
150.0433191993
 21
104.2227997785
 31
0.0
  0
LINE
  5
19F
  8
0
 62
     0
 10
150.2854501357
 20
104.4649307148
 30
0.0
 11
151.1692089775
 21
105.3486895566
 31
0.0
  0
LINE
  5
1A0
  8
0
 62
     0
 10
148.7112735942
 20
103.2089522248
 30
0.0
 11
150.982434593
 21
105.4801132236
 31
0.0
  0
LINE
  5
1A1
  8
0
 62
     0
 10
148.3930755427
 20
103.2089522248
 30
0.0
 11
150.7956602084
 21
105.6115368906
 31
0.0
  0
LINE
  5
1A2
  8
0
 62
     0
 10
148.1209324398
 20
103.2550071735
 30
0.0
 11
150.5589972068
 21
105.6930719405
 31
0.0
  0
LINE
  5
1A3
  8
0
 62
     0
 10
148.2115688601
 20
103.6638416453
 30
0.0
 11
150.2407991552
 21
105.6930719405
 31
0.0
  0
LINE
  5
1A4
  8
0
 62
     0
 10
148.3022052804
 20
104.0726761172
 30
0.0
 11
149.9226011037
 21
105.6930719405
 31
0.0
  0
LINE
  5
1A5
  8
0
 62
     0
 10
148.3928417007
 20
104.481510589
 30
0.0
 11
149.6044030522
 21
105.6930719405
 31
0.0
  0
LINE
  5
1A6
  8
0
 62
     0
 10
148.483478121
 20
104.8903450609
 30
0.0
 11
149.2862050006
 21
105.6930719405
 31
0.0
  0
LINE
  5
1A7
  8
0
 62
     0
 10
148.5741145413
 20
105.2991795327
 30
0.0
 11
148.9680069491
 21
105.6930719405
 31
0.0
  0
LINE
  5
1A8
  8
0
 62
     0
 10
173.8206129219
 20
104.135239636
 30
0.0
 11
174.1105913544
 21
104.4252180684
 31
0.0
  0
LINE
  5
1A9
  8
0
 62
     0
 10
174.8666602076
 20
105.1812869216
 30
0.0
 11
175.3784452264
 21
105.6930719405
 31
0.0
  0
LINE
  5
1AA
  8
0
 62
     0
 10
174.1388109735
 20
104.135239636
 30
0.0
 11
174.4292409685
 21
104.4256696311
 31
0.0
  0
LINE
  5
1AB
  8
0
 62
     0
 10
174.9467387461
 20
104.9431674086
 30
0.0
 11
175.696643278
 21
105.6930719405
 31
0.0
  0
LINE
  5
1AC
  8
0
 62
     0
 10
174.4562556028
 20
104.1344862138
 30
0.0
 11
176.0146709187
 21
105.6929015297
 31
0.0
  0
LINE
  5
1AD
  8
0
 62
     0
 10
174.6305155497
 20
103.9905481091
 30
0.0
 11
176.298943268
 21
105.6589758275
 31
0.0
  0
LINE
  5
1AE
  8
0
 62
     0
 10
174.6129999936
 20
103.6548345015
 30
0.0
 11
176.5351134005
 21
105.5769479084
 31
0.0
  0
LINE
  5
1AF
  8
0
 62
     0
 10
174.6052610172
 20
103.3288974736
 30
0.0
 11
176.7250745861
 21
105.4487110425
 31
0.0
  0
LINE
  5
1B0
  8
0
 62
     0
 10
174.80351382
 20
103.2089522248
 30
0.0
 11
176.8508997547
 21
105.2563381596
 31
0.0
  0
LINE
  5
1B1
  8
0
 62
     0
 10
175.1217118715
 20
103.2089522248
 30
0.0
 11
176.2212127605
 21
104.3084531138
 31
0.0
  0
LINE
  5
1B2
  8
0
 62
     0
 10
176.2660830116
 20
104.353323365
 30
0.0
 11
176.8342290583
 21
104.9214694116
 31
0.0
  0
LINE
  5
1B3
  8
0
 62
     0
 10
175.4399099231
 20
103.2089522248
 30
0.0
 11
176.3457575588
 21
104.1147998606
 31
0.0
  0
LINE
  5
1B4
  8
0
 62
     0
 10
177.6292326414
 20
105.3982749432
 30
0.0
 11
177.9240296387
 21
105.6930719405
 31
0.0
  0
LINE
  5
1B5
  8
0
 62
     0
 10
175.7581079746
 20
103.2089522248
 30
0.0
 11
176.3299418474
 21
103.7807860977
 31
0.0
  0
LINE
  5
1B6
  8
0
 62
     0
 10
177.5385962211
 20
104.9894404714
 30
0.0
 11
178.2422276902
 21
105.6930719405
 31
0.0
  0
LINE
  5
1B7
  8
0
 62
     0
 10
176.0763060261
 20
103.2089522248
 30
0.0
 11
176.3071932737
 21
103.4398394725
 31
0.0
  0
LINE
  5
1B8
  8
0
 62
     0
 10
177.4479598008
 20
104.5806059995
 30
0.0
 11
178.5604257418
 21
105.6930719405
 31
0.0
  0
LINE
  5
1B9
  8
0
 62
     0
 10
177.3573233805
 20
104.1717715277
 30
0.0
 11
178.8786237933
 21
105.6930719405
 31
0.0
  0
LINE
  5
1BA
  8
0
 62
     0
 10
177.2666869602
 20
103.7629370558
 30
0.0
 11
179.1968218448
 21
105.6930719405
 31
0.0
  0
LINE
  5
1BB
  8
0
 62
     0
 10
177.1760505399
 20
103.354102584
 30
0.0
 11
179.3703465604
 21
105.5483986045
 31
0.0
  0
LINE
  5
1BC
  8
0
 62
     0
 10
177.3490982323
 20
103.2089522248
 30
0.0
 11
179.2797101401
 21
105.1395641327
 31
0.0
  0
LINE
  5
1BD
  8
0
 62
     0
 10
177.6672962838
 20
103.2089522248
 30
0.0
 11
179.1890737198
 21
104.7307296608
 31
0.0
  0
LINE
  5
1BE
  8
0
 62
     0
 10
177.9854943353
 20
103.2089522248
 30
0.0
 11
179.0984372994
 21
104.321895189
 31
0.0
  0
LINE
  5
1BF
  8
0
 62
     0
 10
180.3950667661
 20
105.6185246556
 30
0.0
 11
180.469614051
 21
105.6930719405
 31
0.0
  0
LINE
  5
1C0
  8
0
 62
     0
 10
178.3036923869
 20
103.2089522248
 30
0.0
 11
179.0078008791
 21
103.9130607171
 31
0.0
  0
LINE
  5
1C1
  8
0
 62
     0
 10
180.3044303458
 20
105.2096901838
 30
0.0
 11
180.7878121025
 21
105.6930719405
 31
0.0
  0
LINE
  5
1C2
  8
0
 62
     0
 10
178.6218904384
 20
103.2089522248
 30
0.0
 11
178.9171644588
 21
103.5042262453
 31
0.0
  0
LINE
  5
1C3
  8
0
 62
     0
 10
180.2137939255
 20
104.8008557119
 30
0.0
 11
181.106010154
 21
105.6930719405
 31
0.0
  0
LINE
  5
1C4
  8
0
 62
     0
 10
180.1231575052
 20
104.3920212401
 30
0.0
 11
181.4242082056
 21
105.6930719405
 31
0.0
  0
LINE
  5
1C5
  8
0
 62
     0
 10
180.0325210849
 20
103.9831867682
 30
0.0
 11
181.7424062571
 21
105.6930719405
 31
0.0
  0
LINE
  5
1C6
  8
0
 62
     0
 10
179.9418846645
 20
103.5743522964
 30
0.0
 11
182.0364399568
 21
105.6689075887
 31
0.0
  0
LINE
  5
1C7
  8
0
 62
     0
 10
179.8946826445
 20
103.2089522248
 30
0.0
 11
181.9458035365
 21
105.2600731168
 31
0.0
  0
LINE
  5
1C8
  8
0
 62
     0
 10
180.2128806961
 20
103.2089522248
 30
0.0
 11
181.8577175884
 21
104.8537891172
 31
0.0
  0
LINE
  5
1C9
  8
0
 62
     0
 10
180.5310787476
 20
103.2089522248
 30
0.0
 11
182.4121964097
 21
105.090069887
 31
0.0
  0
LINE
  5
1CA
  8
0
 62
     0
 10
180.8492767991
 20
103.2089522248
 30
0.0
 11
182.966675231
 21
105.3263506567
 31
0.0
  0
LINE
  5
1CB
  8
0
 62
     0
 10
181.1674748507
 20
103.2089522248
 30
0.0
 11
181.5832578553
 21
103.6247352295
 31
0.0
  0
LINE
  5
1CC
  8
0
 62
     0
 10
181.9071246725
 20
103.9486020467
 30
0.0
 11
183.5211540523
 21
105.5626314265
 31
0.0
  0
LINE
  5
1CD
  8
0
 62
     0
 10
181.4856729022
 20
103.2089522248
 30
0.0
 11
181.492621435
 21
103.2159007576
 31
0.0
  0
LINE
  5
1CE
  8
0
 62
     0
 10
182.3871297963
 20
104.1104091189
 30
0.0
 11
183.9697926178
 21
105.6930719405
 31
0.0
  0
LINE
  5
1CF
  8
0
 62
     0
 10
182.5451587863
 20
103.9502400574
 30
0.0
 11
184.2879906694
 21
105.6930719405
 31
0.0
  0
LINE
  5
1D0
  8
0
 62
     0
 10
182.7031877762
 20
103.7900709958
 30
0.0
 11
184.6061887209
 21
105.6930719405
 31
0.0
  0
LINE
  5
1D1
  8
0
 62
     0
 10
182.8612167662
 20
103.6299019343
 30
0.0
 11
184.0334793763
 21
104.8021645444
 31
0.0
  0
LINE
  5
1D2
  8
0
 62
     0
 10
184.1250399577
 20
104.8937251257
 30
0.0
 11
184.9243867724
 21
105.6930719405
 31
0.0
  0
LINE
  5
1D3
  8
0
 62
     0
 10
183.0192457562
 20
103.4697328727
 30
0.0
 11
184.1915083663
 21
104.6419954828
 31
0.0
  0
LINE
  5
1D4
  8
0
 62
     0
 10
184.679518779
 20
105.1300058955
 30
0.0
 11
185.242584824
 21
105.6930719405
 31
0.0
  0
LINE
  5
1D5
  8
0
 62
     0
 10
183.1772747462
 20
103.3095638112
 30
0.0
 11
184.3495373563
 21
104.4818264212
 31
0.0
  0
LINE
  5
1D6
  8
0
 62
     0
 10
185.2339976003
 20
105.3662866653
 30
0.0
 11
185.5607828755
 21
105.6930719405
 31
0.0
  0
LINE
  5
1D7
  8
0
 62
     0
 10
183.3948612114
 20
103.2089522248
 30
0.0
 11
184.5075663462
 21
104.3216573597
 31
0.0
  0
LINE
  5
1D8
  8
0
 62
     0
 10
185.7884764216
 20
105.602567435
 30
0.0
 11
185.878980927
 21
105.6930719405
 31
0.0
  0
LINE
  5
1D9
  8
0
 62
     0
 10
183.7130592629
 20
103.2089522248
 30
0.0
 11
184.6655953362
 21
104.1614882981
 31
0.0
  0
LINE
  5
1DA
  8
0
 62
     0
 10
184.0312573145
 20
103.2089522248
 30
0.0
 11
184.8236243262
 21
104.0013192366
 31
0.0
  0
LINE
  5
1DB
  8
0
 62
     0
 10
184.349455366
 20
103.2089522248
 30
0.0
 11
184.9816533162
 21
103.841150175
 31
0.0
  0
LINE
  5
1DC
  8
0
 62
     0
 10
184.6676534175
 20
103.2089522248
 30
0.0
 11
185.1396823062
 21
103.6809811135
 31
0.0
  0
LINE
  5
1DD
  8
0
 62
     0
 10
184.9858514691
 20
103.2089522248
 30
0.0
 11
185.2977112961
 21
103.5208120519
 31
0.0
  0
LINE
  5
1DE
  8
0
 62
     0
 10
185.3040495206
 20
103.2089522248
 30
0.0
 11
185.4557402861
 21
103.3606429904
 31
0.0
  0
LINE
  5
1DF
  8
0
 62
     0
 10
190.3077013594
 20
105.6670196513
 30
0.0
 11
190.3344824177
 21
105.6938007097
 31
0.0
  0
LINE
  5
1E0
  8
0
 62
     0
 10
189.3531072048
 20
104.3942274452
 30
0.0
 11
190.6526804693
 21
105.6938007097
 31
0.0
  0
LINE
  5
1E1
  8
0
 62
     0
 10
188.4860300359
 20
103.2089522248
 30
0.0
 11
190.9708785208
 21
105.6938007097
 31
0.0
  0
LINE
  5
1E2
  8
0
 62
     0
 10
188.8042280875
 20
103.2089522248
 30
0.0
 11
191.2890765723
 21
105.6938007097
 31
0.0
  0
LINE
  5
1E3
  8
0
 62
     0
 10
189.122426139
 20
103.2089522248
 30
0.0
 11
191.6072746239
 21
105.6938007097
 31
0.0
  0
LINE
  5
1E4
  8
0
 62
     0
 10
189.4406241905
 20
103.2089522248
 30
0.0
 11
191.9254726754
 21
105.6938007097
 31
0.0
  0
LINE
  5
1E5
  8
0
 62
     0
 10
189.7588222421
 20
103.2089522248
 30
0.0
 11
191.2846818863
 21
104.7348118691
 31
0.0
  0
LINE
  5
1E6
  8
0
 62
     0
 10
191.8285964306
 20
105.2787264134
 30
0.0
 11
192.2436707269
 21
105.6938007097
 31
0.0
  0
LINE
  5
1E7
  8
0
 62
     0
 10
190.0770202936
 20
103.2089522248
 30
0.0
 11
190.3300877317
 21
103.4620196629
 31
0.0
  0
LINE
  5
1E8
  8
0
 62
     0
 10
191.8922360409
 20
105.0241679721
 30
0.0
 11
192.5618687785
 21
105.6938007097
 31
0.0
  0
LINE
  5
1E9
  8
0
 62
     0
 10
190.5570518685
 20
103.6889837998
 30
0.0
 11
190.9302395081
 21
104.0621714394
 31
0.0
  0
LINE
  5
1EA
  8
0
 62
     0
 10
190.8752499201
 20
103.6889837998
 30
0.0
 11
191.2484375597
 21
104.0621714394
 31
0.0
  0
LINE
  5
1EB
  8
0
 62
     0
 10
191.9558756512
 20
104.7696095309
 30
0.0
 11
192.88006683
 21
105.6938007097
 31
0.0
  0
LINE
  5
1EC
  8
0
 62
     0
 10
191.1934479716
 20
103.6889837998
 30
0.0
 11
191.5666356112
 21
104.0621714394
 31
0.0
  0
LINE
  5
1ED
  8
0
 62
     0
 10
192.0195152615
 20
104.5150510897
 30
0.0
 11
193.1982648815
 21
105.6938007097
 31
0.0
  0
LINE
  5
1EE
  8
0
 62
     0
 10
191.5116460231
 20
103.6889837998
 30
0.0
 11
191.8848336627
 21
104.0621714394
 31
0.0
  0
LINE
  5
1EF
  8
0
 62
     0
 10
192.0831548718
 20
104.2604926485
 30
0.0
 11
193.3292855985
 21
105.5066233752
 31
0.0
  0
LINE
  5
1F0
  8
0
 62
     0
 10
191.8298440747
 20
103.6889837998
 30
0.0
 11
193.3929252089
 21
105.2520649339
 31
0.0
  0
LINE
  5
1F1
  8
0
 62
     0
 10
192.1480421262
 20
103.6889837998
 30
0.0
 11
193.4565648192
 21
104.9975064927
 31
0.0
  0
LINE
  5
1F2
  8
0
 62
     0
 10
192.2740737027
 20
103.4968173248
 30
0.0
 11
193.5202044295
 21
104.7429480515
 31
0.0
  0
LINE
  5
1F3
  8
0
 62
     0
 10
192.3377133131
 20
103.2422588835
 30
0.0
 11
193.5838440398
 21
104.4883896103
 31
0.0
  0
LINE
  5
1F4
  8
0
 62
     0
 10
192.6226047059
 20
103.2089522248
 30
0.0
 11
193.6474836501
 21
104.233831169
 31
0.0
  0
LINE
  5
1F5
  8
0
 62
     0
 10
192.9408027574
 20
103.2089522248
 30
0.0
 11
193.7111232604
 21
103.9792727278
 31
0.0
  0
LINE
  5
1F6
  8
0
 62
     0
 10
194.8640328655
 20
105.1321823329
 30
0.0
 11
195.2440535549
 21
105.5122030223
 31
0.0
  0
LINE
  5
1F7
  8
0
 62
     0
 10
193.259000809
 20
103.2089522248
 30
0.0
 11
193.7747628707
 21
103.7247142866
 31
0.0
  0
LINE
  5
1F8
  8
0
 62
     0
 10
194.7959149347
 20
104.7458663506
 30
0.0
 11
195.6185858389
 21
105.5685372548
 31
0.0
  0
LINE
  5
1F9
  8
0
 62
     0
 10
193.5771988605
 20
103.2089522248
 30
0.0
 11
193.838402481
 21
103.4701558454
 31
0.0
  0
LINE
  5
1FA
  8
0
 62
     0
 10
194.727797004
 20
104.3595503684
 30
0.0
 11
195.9813028311
 21
105.6130561955
 31
0.0
  0
LINE
  5
1FB
  8
0
 62
     0
 10
193.895396912
 20
103.2089522248
 30
0.0
 11
193.9020420913
 21
103.2155974041
 31
0.0
  0
LINE
  5
1FC
  8
0
 62
     0
 10
194.6596790732
 20
103.9732343861
 30
0.0
 11
196.3333580431
 21
105.6469133559
 31
0.0
  0
LINE
  5
1FD
  8
0
 62
     0
 10
194.6152770429
 20
103.6106343042
 30
0.0
 11
196.6757097855
 21
105.6710670468
 31
0.0
  0
LINE
  5
1FE
  8
0
 62
     0
 10
194.7378935484
 20
103.4150527582
 30
0.0
 11
197.0091645301
 21
105.6863237398
 31
0.0
  0
LINE
  5
1FF
  8
0
 62
     0
 10
194.9839513484
 20
103.3429125066
 30
0.0
 11
196.3408189983
 21
104.6997801565
 31
0.0
  0
LINE
  5
200
  8
0
 62
     0
 10
196.8827101587
 20
105.2416713169
 30
0.0
 11
197.3344085766
 21
105.6933697348
 31
0.0
  0
LINE
  5
201
  8
0
 62
     0
 10
195.2652030888
 20
103.3059661955
 30
0.0
 11
196.2727010676
 21
104.3134641743
 31
0.0
  0
LINE
  5
202
  8
0
 62
     0
 10
197.2192192373
 20
105.259982344
 30
0.0
 11
197.6520316676
 21
105.6927947743
 31
0.0
  0
LINE
  5
203
  8
0
 62
     0
 10
195.5518222634
 20
103.2743873186
 30
0.0
 11
196.2250942732
 21
103.9476593283
 31
0.0
  0
LINE
  5
204
  8
0
 62
     0
 10
197.5263208214
 20
105.2488858766
 30
0.0
 11
197.9625449234
 21
105.6851099785
 31
0.0
  0
LINE
  5
205
  8
0
 62
     0
 10
195.844087855
 20
103.2484548586
 30
0.0
 11
196.3438724059
 21
103.7482394095
 31
0.0
  0
LINE
  5
206
  8
0
 62
     0
 10
197.8104213583
 20
105.2147883619
 30
0.0
 11
198.2663946848
 21
105.6707616884
 31
0.0
  0
LINE
  5
207
  8
0
 62
     0
 10
196.1423122461
 20
103.2284811982
 30
0.0
 11
196.5883044022
 21
103.6744733543
 31
0.0
  0
LINE
  5
208
  8
0
 62
     0
 10
198.0259952662
 20
105.1121642183
 30
0.0
 11
198.5639733514
 21
105.6501423035
 31
0.0
  0
LINE
  5
209
  8
0
 62
     0
 10
196.4468469314
 20
103.2148178319
 30
0.0
 11
196.8836220565
 21
103.6515929571
 31
0.0
  0
LINE
  5
20A
  8
0
 62
     0
 10
198.1960222783
 20
104.9639931789
 30
0.0
 11
198.8556279765
 21
105.6235988771
 31
0.0
  0
LINE
  5
20B
  8
0
 62
     0
 10
197.353781599
 20
104.1217524995
 30
0.0
 11
197.5334055667
 21
104.3013764673
 31
0.0
  0
LINE
  5
20C
  8
0
 62
     0
 10
196.7580895717
 20
103.2078624208
 30
0.0
 11
197.2048325344
 21
103.6546053834
 31
0.0
  0
LINE
  5
20D
  8
0
 62
     0
 10
198.5142203299
 20
104.9639931789
 30
0.0
 11
199.1416671628
 21
105.5914400118
 31
0.0
  0
LINE
  5
20E
  8
0
 62
     0
 10
197.6288763455
 20
104.0786491945
 30
0.0
 11
197.8516036183
 21
104.3013764673
 31
0.0
  0
LINE
  5
20F
  8
0
 62
     0
 10
197.0764927978
 20
103.2080675953
 30
0.0
 11
197.5603926959
 21
103.6919674934
 31
0.0
  0
LINE
  5
210
  8
0
 62
     0
 10
198.8324183814
 20
104.9639931789
 30
0.0
 11
199.4223666513
 21
105.5539414488
 31
0.0
  0
LINE
  5
211
  8
0
 62
     0
 10
197.9470743971
 20
104.0786491945
 30
0.0
 11
198.1698016698
 21
104.3013764673
 31
0.0
  0
LINE
  5
212
  8
0
 62
     0
 10
197.4025753252
 20
103.2159520711
 30
0.0
 11
198.4879997213
 21
104.3013764673
 31
0.0
  0
LINE
  5
213
  8
0
 62
     0
 10
199.1506164329
 20
104.9639931789
 30
0.0
 11
199.6387415508
 21
105.4521182968
 31
0.0
  0
LINE
  5
214
  8
0
 62
     0
 10
197.736936171
 20
103.2321148655
 30
0.0
 11
198.8061977729
 21
104.3013764673
 31
0.0
  0
LINE
  5
215
  8
0
 62
     0
 10
199.4688144845
 20
104.9639931789
 30
0.0
 11
199.7195494345
 21
105.2147281289
 31
0.0
  0
LINE
  5
216
  8
0
 62
     0
 10
198.031971582
 20
103.2089522248
 30
0.0
 11
199.1243958244
 21
104.3013764673
 31
0.0
  0
LINE
  5
217
  8
0
 62
     0
 10
198.3501696335
 20
103.2089522248
 30
0.0
 11
199.4425938759
 21
104.3013764673
 31
0.0
  0
LINE
  5
218
  8
0
 62
     0
 10
198.668367685
 20
103.2089522248
 30
0.0
 11
199.516647288
 21
104.0572318278
 31
0.0
  0
LINE
  5
219
  8
0
 62
     0
 10
198.9865657366
 20
103.2089522248
 30
0.0
 11
199.4485293572
 21
103.6709158455
 31
0.0
  0
LINE
  5
21A
  8
0
 62
     0
 10
199.3047637881
 20
103.2089522248
 30
0.0
 11
199.3804114265
 21
103.2845998632
 31
0.0
  0
LINE
  5
21B
  8
0
 62
     0
 10
174.8961448158
 20
103.2089522248
 30
0.0
 11
174.6025374469
 21
103.5025595938
 31
0.0
  0
LINE
  5
21C
  8
0
 62
     0
 10
173.1776443571
 20
104.9274526836
 30
0.0
 11
172.4120251002
 21
105.6930719405
 31
0.0
  0
LINE
  5
21D
  8
0
 62
     0
 10
173.9698574047
 20
104.135239636
 30
0.0
 11
173.6798789722
 21
104.4252180684
 31
0.0
  0
LINE
  5
21E
  8
0
 62
     0
 10
173.6516593532
 20
104.135239636
 30
0.0
 11
173.3616809207
 21
104.4252180684
 31
0.0
  0
LINE
  5
21F
  8
0
 62
     0
 10
173.1199025891
 20
104.6669964
 30
0.0
 11
172.0938270487
 21
105.6930719405
 31
0.0
  0
LINE
  5
220
  8
0
 62
     0
 10
173.3334613016
 20
104.135239636
 30
0.0
 11
171.7756289971
 21
105.6930719405
 31
0.0
  0
LINE
  5
221
  8
0
 62
     0
 10
173.0152632501
 20
104.135239636
 30
0.0
 11
171.6064983152
 21
105.5440045709
 31
0.0
  0
LINE
  5
222
  8
0
 62
     0
 10
172.9466772854
 20
103.8856275492
 30
0.0
 11
171.5487565473
 21
105.2835482873
 31
0.0
  0
LINE
  5
223
  8
0
 62
     0
 10
172.8889355174
 20
103.6251712656
 30
0.0
 11
171.4910147794
 21
105.0230920036
 31
0.0
  0
LINE
  5
224
  8
0
 62
     0
 10
171.0462218172
 20
105.4678849658
 30
0.0
 11
170.8210348425
 21
105.6930719405
 31
0.0
  0
LINE
  5
225
  8
0
 62
     0
 10
172.8311937495
 20
103.364714982
 30
0.0
 11
171.4332730114
 21
104.76263572
 31
0.0
  0
LINE
  5
226
  8
0
 62
     0
 10
170.9884800493
 20
105.2074286822
 30
0.0
 11
170.502836791
 21
105.6930719405
 31
0.0
  0
LINE
  5
227
  8
0
 62
     0
 10
172.6687584551
 20
103.2089522248
 30
0.0
 11
171.3755312435
 21
104.5021794364
 31
0.0
  0
LINE
  5
228
  8
0
 62
     0
 10
170.8056686684
 20
105.0720420116
 30
0.0
 11
170.1846387394
 21
105.6930719405
 31
0.0
  0
LINE
  5
229
  8
0
 62
     0
 10
172.3505604036
 20
103.2089522248
 30
0.0
 11
171.3177894756
 21
104.2417231528
 31
0.0
  0
LINE
  5
22A
  8
0
 62
     0
 10
170.4874706168
 20
105.0720420116
 30
0.0
 11
169.8664406879
 21
105.6930719405
 31
0.0
  0
LINE
  5
22B
  8
0
 62
     0
 10
172.032362352
 20
103.2089522248
 30
0.0
 11
171.2600477076
 21
103.9812668692
 31
0.0
  0
LINE
  5
22C
  8
0
 62
     0
 10
170.1692725653
 20
105.0720420116
 30
0.0
 11
169.5482426364
 21
105.6930719405
 31
0.0
  0
LINE
  5
22D
  8
0
 62
     0
 10
171.7141643005
 20
103.2089522248
 30
0.0
 11
171.2023059397
 21
103.7208105856
 31
0.0
  0
LINE
  5
22E
  8
0
 62
     0
 10
169.8510745138
 20
105.0720420116
 30
0.0
 11
169.2300445848
 21
105.6930719405
 31
0.0
  0
LINE
  5
22F
  8
0
 62
     0
 10
171.395966249
 20
103.2089522248
 30
0.0
 11
171.1445641718
 21
103.460354302
 31
0.0
  0
LINE
  5
230
  8
0
 62
     0
 10
169.5328764622
 20
105.0720420116
 30
0.0
 11
168.9118465333
 21
105.6930719405
 31
0.0
  0
LINE
  5
231
  8
0
 62
     0
 10
169.3076505554
 20
104.9790698669
 30
0.0
 11
168.5936484818
 21
105.6930719405
 31
0.0
  0
LINE
  5
232
  8
0
 62
     0
 10
169.2499087875
 20
104.7186135832
 30
0.0
 11
168.2754504302
 21
105.6930719405
 31
0.0
  0
LINE
  5
233
  8
0
 62
     0
 10
169.1921670196
 20
104.4581572996
 30
0.0
 11
167.9572523787
 21
105.6930719405
 31
0.0
  0
LINE
  5
234
  8
0
 62
     0
 10
169.1344252516
 20
104.197701016
 30
0.0
 11
167.6390543272
 21
105.6930719405
 31
0.0
  0
LINE
  5
235
  8
0
 62
     0
 10
169.0766834837
 20
103.9372447324
 30
0.0
 11
167.3208562756
 21
105.6930719405
 31
0.0
  0
LINE
  5
236
  8
0
 62
     0
 10
169.0189417158
 20
103.6767884488
 30
0.0
 11
167.0026582241
 21
105.6930719405
 31
0.0
  0
LINE
  5
237
  8
0
 62
     0
 10
168.9611999478
 20
103.4163321652
 30
0.0
 11
167.5632792098
 21
104.8142529033
 31
0.0
  0
LINE
  5
238
  8
0
 62
     0
 10
167.3054901015
 20
105.0720420116
 30
0.0
 11
166.6844601726
 21
105.6930719405
 31
0.0
  0
LINE
  5
239
  8
0
 62
     0
 10
168.8503818367
 20
103.2089522248
 30
0.0
 11
167.5055374418
 21
104.5537966197
 31
0.0
  0
LINE
  5
23A
  8
0
 62
     0
 10
166.98729205
 20
105.0720420116
 30
0.0
 11
166.366262121
 21
105.6930719405
 31
0.0
  0
LINE
  5
23B
  8
0
 62
     0
 10
168.5321837851
 20
103.2089522248
 30
0.0
 11
167.4477956739
 21
104.2933403361
 31
0.0
  0
LINE
  5
23C
  8
0
 62
     0
 10
166.6690939984
 20
105.0720420116
 30
0.0
 11
166.1769586393
 21
105.5641773707
 31
0.0
  0
LINE
  5
23D
  8
0
 62
     0
 10
168.2139857336
 20
103.2089522248
 30
0.0
 11
167.390053906
 21
104.0328840525
 31
0.0
  0
LINE
  5
23E
  8
0
 62
     0
 10
165.7492672143
 20
105.6736707442
 30
0.0
 11
165.729866018
 21
105.6930719405
 31
0.0
  0
LINE
  5
23F
  8
0
 62
     0
 10
166.3508959469
 20
105.0720420116
 30
0.0
 11
166.1192168714
 21
105.3037210871
 31
0.0
  0
LINE
  5
240
  8
0
 62
     0
 10
167.8957876821
 20
103.2089522248
 30
0.0
 11
167.3323121381
 21
103.7724277689
 31
0.0
  0
LINE
  5
241
  8
0
 62
     0
 10
165.6915254463
 20
105.4132144606
 30
0.0
 11
165.4116679664
 21
105.6930719405
 31
0.0
  0
LINE
  5
242
  8
0
 62
     0
 10
167.5775896305
 20
103.2089522248
 30
0.0
 11
167.2745703701
 21
103.5119714853
 31
0.0
  0
LINE
  5
243
  8
0
 62
     0
 10
165.6337836784
 20
105.152758177
 30
0.0
 11
165.0934699149
 21
105.6930719405
 31
0.0
  0
LINE
  5
244
  8
0
 62
     0
 10
167.259391579
 20
103.2089522248
 30
0.0
 11
167.2168286022
 21
103.2515152016
 31
0.0
  0
LINE
  5
245
  8
0
 62
     0
 10
165.5760419105
 20
104.8923018934
 30
0.0
 11
164.7752718634
 21
105.6930719405
 31
0.0
  0
LINE
  5
246
  8
0
 62
     0
 10
165.5183001426
 20
104.6318456098
 30
0.0
 11
164.4570738118
 21
105.6930719405
 31
0.0
  0
LINE
  5
247
  8
0
 62
     0
 10
165.4605583746
 20
104.3713893262
 30
0.0
 11
164.1388757603
 21
105.6930719405
 31
0.0
  0
LINE
  5
248
  8
0
 62
     0
 10
165.4028166067
 20
104.1109330426
 30
0.0
 11
164.0084281162
 21
105.5053215331
 31
0.0
  0
LINE
  5
249
  8
0
 62
     0
 10
165.3450748388
 20
103.8504767589
 30
0.0
 11
163.9506863483
 21
105.2448652495
 31
0.0
  0
LINE
  5
24A
  8
0
 62
     0
 10
165.2138080873
 20
103.6635454589
 30
0.0
 11
163.8929445803
 21
104.9844089658
 31
0.0
  0
LINE
  5
24B
  8
0
 62
     0
 10
165.017448492
 20
103.5417070026
 30
0.0
 11
163.8352028124
 21
104.7239526822
 31
0.0
  0
LINE
  5
24C
  8
0
 62
     0
 10
164.802652457
 20
103.4383049861
 30
0.0
 11
163.7774610445
 21
104.4634963986
 31
0.0
  0
LINE
  5
24D
  8
0
 62
     0
 10
164.5671733959
 20
103.3555859957
 30
0.0
 11
163.7197192766
 21
104.203040115
 31
0.0
  0
LINE
  5
24E
  8
0
 62
     0
 10
164.3151825146
 20
103.2893788254
 30
0.0
 11
163.6187116741
 21
103.985849666
 31
0.0
  0
LINE
  5
24F
  8
0
 62
     0
 10
162.118618766
 20
105.4859425741
 30
0.0
 11
161.9114893996
 21
105.6930719405
 31
0.0
  0
LINE
  5
250
  8
0
 62
     0
 10
164.0511440004
 20
103.2352192882
 30
0.0
 11
163.4221757298
 21
103.8641875587
 31
0.0
  0
LINE
  5
251
  8
0
 62
     0
 10
162.060876998
 20
105.2254862905
 30
0.0
 11
161.593291348
 21
105.6930719405
 31
0.0
  0
LINE
  5
252
  8
0
 62
     0
 10
163.7736698581
 20
103.1944953789
 30
0.0
 11
163.1774042796
 21
103.7907609574
 31
0.0
  0
LINE
  5
253
  8
0
 62
     0
 10
162.0031352301
 20
104.9650300069
 30
0.0
 11
161.2750932965
 21
105.6930719405
 31
0.0
  0
LINE
  5
254
  8
0
 62
     0
 10
163.485181758
 20
103.1647854274
 30
0.0
 11
162.8938350306
 21
103.7561321548
 31
0.0
  0
LINE
  5
255
  8
0
 62
     0
 10
161.9453934622
 20
104.7045737233
 30
0.0
 11
160.956895245
 21
105.6930719405
 31
0.0
  0
LINE
  5
256
  8
0
 62
     0
 10
163.1877786864
 20
103.1439904475
 30
0.0
 11
162.5712745957
 21
103.7604945382
 31
0.0
  0
LINE
  5
257
  8
0
 62
     0
 10
161.8876516943
 20
104.4441174396
 30
0.0
 11
160.6386971934
 21
105.6930719405
 31
0.0
  0
LINE
  5
258
  8
0
 62
     0
 10
162.8806503903
 20
103.1329206921
 30
0.0
 11
162.1766496097
 21
103.8369214727
 31
0.0
  0
LINE
  5
259
  8
0
 62
     0
 10
161.8299099263
 20
104.183661156
 30
0.0
 11
160.4355097886
 21
105.5780612938
 31
0.0
  0
LINE
  5
25A
  8
0
 62
     0
 10
162.5628167613
 20
103.1325562695
 30
0.0
 11
160.3777680206
 21
105.3176050102
 31
0.0
  0
LINE
  5
25B
  8
0
 62
     0
 10
162.2330743169
 20
103.1441006624
 30
0.0
 11
160.3200262527
 21
105.0571487266
 31
0.0
  0
LINE
  5
25C
  8
0
 62
     0
 10
159.6846077354
 20
105.6925672439
 30
0.0
 11
159.6841030388
 21
105.6930719405
 31
0.0
  0
LINE
  5
25D
  8
0
 62
     0
 10
161.8899185208
 20
103.169058407
 30
0.0
 11
160.2622844848
 21
104.796692443
 31
0.0
  0
LINE
  5
25E
  8
0
 62
     0
 10
159.6268659675
 20
105.4321109603
 30
0.0
 11
159.3659049873
 21
105.6930719405
 31
0.0
  0
LINE
  5
25F
  8
0
 62
     0
 10
161.5309036393
 20
103.209875237
 30
0.0
 11
160.2045427168
 21
104.5362361594
 31
0.0
  0
LINE
  5
260
  8
0
 62
     0
 10
159.4876853682
 20
105.253093508
 30
0.0
 11
159.0477069358
 21
105.6930719405
 31
0.0
  0
LINE
  5
261
  8
0
 62
     0
 10
161.1408319294
 20
103.2817488953
 30
0.0
 11
160.1468009489
 21
104.2757798758
 31
0.0
  0
LINE
  5
262
  8
0
 62
     0
 10
159.1694873167
 20
105.253093508
 30
0.0
 11
158.7295088842
 21
105.6930719405
 31
0.0
  0
LINE
  5
263
  8
0
 62
     0
 10
160.6959589357
 20
103.4084238375
 30
0.0
 11
160.089059181
 21
104.0153235922
 31
0.0
  0
LINE
  5
264
  8
0
 62
     0
 10
158.8512892652
 20
105.253093508
 30
0.0
 11
158.4113108327
 21
105.6930719405
 31
0.0
  0
LINE
  5
265
  8
0
 62
     0
 10
159.2052733406
 20
104.5809113811
 30
0.0
 11
159.1901834227
 21
104.5960012989
 31
0.0
  0
LINE
  5
266
  8
0
 62
     0
 10
158.5330912136
 20
105.253093508
 30
0.0
 11
158.0931127812
 21
105.6930719405
 31
0.0
  0
LINE
  5
267
  8
0
 62
     0
 10
159.1475315726
 20
104.3204550975
 30
0.0
 11
158.8719853712
 21
104.5960012989
 31
0.0
  0
LINE
  5
268
  8
0
 62
     0
 10
158.2148931621
 20
105.253093508
 30
0.0
 11
157.7749147296
 21
105.6930719405
 31
0.0
  0
LINE
  5
269
  8
0
 62
     0
 10
158.8437657521
 20
104.3060228664
 30
0.0
 11
158.5537873197
 21
104.5960012989
 31
0.0
  0
LINE
  5
26A
  8
0
 62
     0
 10
157.8966951106
 20
105.253093508
 30
0.0
 11
157.4567166781
 21
105.6930719405
 31
0.0
  0
LINE
  5
26B
  8
0
 62
     0
 10
159.222673592
 20
103.6089169751
 30
0.0
 11
159.1826599097
 21
103.6489306573
 31
0.0
  0
LINE
  5
26C
  8
0
 62
     0
 10
157.578497059
 20
105.253093508
 30
0.0
 11
157.1385186266
 21
105.6930719405
 31
0.0
  0
LINE
  5
26D
  8
0
 62
     0
 10
158.5255677006
 20
104.3060228664
 30
0.0
 11
158.2355892681
 21
104.5960012989
 31
0.0
  0
LINE
  5
26E
  8
0
 62
     0
 10
159.164931824
 20
103.3484606915
 30
0.0
 11
158.8644618582
 21
103.6489306573
 31
0.0
  0
LINE
  5
26F
  8
0
 62
     0
 10
157.2602990075
 20
105.253093508
 30
0.0
 11
156.820320575
 21
105.6930719405
 31
0.0
  0
LINE
  5
270
  8
0
 62
     0
 10
158.2073696491
 20
104.3060228664
 30
0.0
 11
157.9173912166
 21
104.5960012989
 31
0.0
  0
LINE
  5
271
  8
0
 62
     0
 10
158.9862422391
 20
103.2089522248
 30
0.0
 11
158.5462638067
 21
103.6489306573
 31
0.0
  0
LINE
  5
272
  8
0
 62
     0
 10
156.942100956
 20
105.253093508
 30
0.0
 11
156.5021225235
 21
105.6930719405
 31
0.0
  0
LINE
  5
273
  8
0
 62
     0
 10
157.8891715975
 20
104.3060228664
 30
0.0
 11
157.5991931651
 21
104.5960012989
 31
0.0
  0
LINE
  5
274
  8
0
 62
     0
 10
158.6680441876
 20
103.2089522248
 30
0.0
 11
158.2280657551
 21
103.6489306573
 31
0.0
  0
LINE
  5
275
  8
0
 62
     0
 10
156.6348579224
 20
105.24213849
 30
0.0
 11
156.183924472
 21
105.6930719405
 31
0.0
  0
LINE
  5
276
  8
0
 62
     0
 10
157.570973546
 20
104.3060228664
 30
0.0
 11
157.2809951135
 21
104.5960012989
 31
0.0
  0
LINE
  5
277
  8
0
 62
     0
 10
158.3498461361
 20
103.2089522248
 30
0.0
 11
157.9098677036
 21
103.6489306573
 31
0.0
  0
LINE
  5
278
  8
0
 62
     0
 10
156.5771161545
 20
104.9816822064
 30
0.0
 11
155.8657264204
 21
105.6930719405
 31
0.0
  0
LINE
  5
279
  8
0
 62
     0
 10
157.2527754945
 20
104.3060228664
 30
0.0
 11
156.962797062
 21
104.5960012989
 31
0.0
  0
LINE
  5
27A
  8
0
 62
     0
 10
158.0316480845
 20
103.2089522248
 30
0.0
 11
157.5916696521
 21
103.6489306573
 31
0.0
  0
LINE
  5
27B
  8
0
 62
     0
 10
156.5193743866
 20
104.7212259228
 30
0.0
 11
155.5475283689
 21
105.6930719405
 31
0.0
  0
LINE
  5
27C
  8
0
 62
     0
 10
156.9345774429
 20
104.3060228664
 30
0.0
 11
156.6445990105
 21
104.5960012989
 31
0.0
  0
LINE
  5
27D
  8
0
 62
     0
 10
157.713450033
 20
103.2089522248
 30
0.0
 11
157.2734716005
 21
103.6489306573
 31
0.0
  0
LINE
  5
27E
  8
0
 62
     0
 10
156.6163793914
 20
104.3060228664
 30
0.0
 11
155.2293303174
 21
105.6930719405
 31
0.0
  0
LINE
  5
27F
  8
0
 62
     0
 10
157.3952519815
 20
103.2089522248
 30
0.0
 11
156.955273549
 21
103.6489306573
 31
0.0
  0
LINE
  5
280
  8
0
 62
     0
 10
156.4038908507
 20
104.2003133556
 30
0.0
 11
155.0059701127
 21
105.5982340936
 31
0.0
  0
LINE
  5
281
  8
0
 62
     0
 10
157.0770539299
 20
103.2089522248
 30
0.0
 11
156.6370754975
 21
103.6489306573
 31
0.0
  0
LINE
  5
282
  8
0
 62
     0
 10
156.3461490828
 20
103.939857072
 30
0.0
 11
154.9482283447
 21
105.33777781
 31
0.0
  0
LINE
  5
283
  8
0
 62
     0
 10
156.7588558784
 20
103.2089522248
 30
0.0
 11
156.3188774459
 21
103.6489306573
 31
0.0
  0
LINE
  5
284
  8
0
 62
     0
 10
156.2884073149
 20
103.6794007884
 30
0.0
 11
154.8904865768
 21
105.0773215264
 31
0.0
  0
LINE
  5
285
  8
0
 62
     0
 10
156.4406578269
 20
103.2089522248
 30
0.0
 11
154.8327448089
 21
104.8168652428
 31
0.0
  0
LINE
  5
286
  8
0
 62
     0
 10
154.1337844398
 20
105.5158256119
 30
0.0
 11
153.9565381112
 21
105.6930719405
 31
0.0
  0
LINE
  5
287
  8
0
 62
     0
 10
156.1224597753
 20
103.2089522248
 30
0.0
 11
154.7750030409
 21
104.5564089592
 31
0.0
  0
LINE
  5
288
  8
0
 62
     0
 10
154.0760426719
 20
105.2553693283
 30
0.0
 11
153.6383400597
 21
105.6930719405
 31
0.0
  0
LINE
  5
289
  8
0
 62
     0
 10
155.8042617238
 20
103.2089522248
 30
0.0
 11
154.717261273
 21
104.2959526756
 31
0.0
  0
LINE
  5
28A
  8
0
 62
     0
 10
154.018300904
 20
104.9949130447
 30
0.0
 11
153.3201420082
 21
105.6930719405
 31
0.0
  0
LINE
  5
28B
  8
0
 62
     0
 10
155.4860636723
 20
103.2089522248
 30
0.0
 11
154.6595195051
 21
104.035496392
 31
0.0
  0
LINE
  5
28C
  8
0
 62
     0
 10
153.9605591361
 20
104.734456761
 30
0.0
 11
153.0019439566
 21
105.6930719405
 31
0.0
  0
LINE
  5
28D
  8
0
 62
     0
 10
155.1678656207
 20
103.2089522248
 30
0.0
 11
154.6017777372
 21
103.7750401084
 31
0.0
  0
LINE
  5
28E
  8
0
 62
     0
 10
153.9028173681
 20
104.4740004774
 30
0.0
 11
152.6837459051
 21
105.6930719405
 31
0.0
  0
LINE
  5
28F
  8
0
 62
     0
 10
154.8496675692
 20
103.2089522248
 30
0.0
 11
154.5440359692
 21
103.5145838248
 31
0.0
  0
LINE
  5
290
  8
0
 62
     0
 10
153.8450756002
 20
104.2135441938
 30
0.0
 11
152.4471548621
 21
105.6114649319
 31
0.0
  0
LINE
  5
291
  8
0
 62
     0
 10
154.5314695177
 20
103.2089522248
 30
0.0
 11
154.4862942013
 21
103.2541275412
 31
0.0
  0
LINE
  5
292
  8
0
 62
     0
 10
153.7873338323
 20
103.9530879102
 30
0.0
 11
152.3894130942
 21
105.3510086483
 31
0.0
  0
LINE
  5
293
  8
0
 62
     0
 10
153.7295920643
 20
103.6926316266
 30
0.0
 11
152.3316713263
 21
105.0905523647
 31
0.0
  0
LINE
  5
294
  8
0
 62
     0
 10
153.6718502964
 20
103.432175343
 30
0.0
 11
152.2739295583
 21
104.8300960811
 31
0.0
  0
LINE
  5
295
  8
0
 62
     0
 10
153.576875363
 20
103.2089522248
 30
0.0
 11
152.0733035643
 21
104.7125240236
 31
0.0
  0
LINE
  5
296
  8
0
 62
     0
 10
153.2586773115
 20
103.2089522248
 30
0.0
 11
150.9995822493
 21
105.4680472871
 31
0.0
  0
LINE
  5
297
  8
0
 62
     0
 10
152.94047926
 20
103.2089522248
 30
0.0
 11
150.4563595443
 21
105.6930719405
 31
0.0
  0
LINE
  5
298
  8
0
 62
     0
 10
152.6222812084
 20
103.2089522248
 30
0.0
 11
150.1381614928
 21
105.6930719405
 31
0.0
  0
LINE
  5
299
  8
0
 62
     0
 10
152.3040831569
 20
103.2089522248
 30
0.0
 11
149.8199634413
 21
105.6930719405
 31
0.0
  0
LINE
  5
29A
  8
0
 62
     0
 10
151.9858851054
 20
103.2089522248
 30
0.0
 11
149.5017653897
 21
105.6930719405
 31
0.0
  0
LINE
  5
29B
  8
0
 62
     0
 10
151.5426645973
 20
103.3339746814
 30
0.0
 11
149.1835673382
 21
105.6930719405
 31
0.0
  0
LINE
  5
29C
  8
0
 62
     0
 10
150.0963654182
 20
104.462075809
 30
0.0
 11
148.8653692867
 21
105.6930719405
 31
0.0
  0
LINE
  5
29D
  8
0
 62
     0
 10
150.0386236503
 20
104.2016195254
 30
0.0
 11
148.6407029122
 21
105.5995402634
 31
0.0
  0
LINE
  5
29E
  8
0
 62
     0
 10
149.9808818823
 20
103.9411632417
 30
0.0
 11
148.5829611443
 21
105.3390839798
 31
0.0
  0
LINE
  5
29F
  8
0
 62
     0
 10
149.9231401144
 20
103.6807069581
 30
0.0
 11
148.5252193763
 21
105.0786276962
 31
0.0
  0
LINE
  5
2A0
  8
0
 62
     0
 10
149.8653983465
 20
103.4202506745
 30
0.0
 11
148.4674776084
 21
104.8181714126
 31
0.0
  0
LINE
  5
2A1
  8
0
 62
     0
 10
149.7584987446
 20
103.2089522248
 30
0.0
 11
148.4097358405
 21
104.557715129
 31
0.0
  0
LINE
  5
2A2
  8
0
 62
     0
 10
149.4403006931
 20
103.2089522248
 30
0.0
 11
148.3519940726
 21
104.2972588454
 31
0.0
  0
LINE
  5
2A3
  8
0
 62
     0
 10
149.1221026416
 20
103.2089522248
 30
0.0
 11
148.2942523046
 21
104.0368025618
 31
0.0
  0
LINE
  5
2A4
  8
0
 62
     0
 10
148.80390459
 20
103.2089522248
 30
0.0
 11
148.2365105367
 21
103.7763462782
 31
0.0
  0
LINE
  5
2A5
  8
0
 62
     0
 10
148.4857065385
 20
103.2089522248
 30
0.0
 11
148.1787687688
 21
103.5158899946
 31
0.0
  0
LINE
  5
2A6
  8
0
 62
     0
 10
148.167508487
 20
103.2089522248
 30
0.0
 11
148.1210270009
 21
103.255433711
 31
0.0
  0
LINE
  5
2A7
  8
0
 62
     0
 10
175.2143428674
 20
103.2089522248
 30
0.0
 11
174.6229947041
 21
103.8003003881
 31
0.0
  0
LINE
  5
2A8
  8
0
 62
     0
 10
173.235386125
 20
105.1879089672
 30
0.0
 11
172.7302231517
 21
105.6930719405
 31
0.0
  0
LINE
  5
2A9
  8
0
 62
     0
 10
174.2880554562
 20
104.135239636
 30
0.0
 11
173.9980770238
 21
104.4252180684
 31
0.0
  0
LINE
  5
2AA
  8
0
 62
     0
 10
175.5325409189
 20
103.2089522248
 30
0.0
 11
174.3162750753
 21
104.4252180684
 31
0.0
  0
LINE
  5
2AB
  8
0
 62
     0
 10
173.4883996357
 20
105.253093508
 30
0.0
 11
173.0484212033
 21
105.6930719405
 31
0.0
  0
LINE
  5
2AC
  8
0
 62
     0
 10
175.8507389704
 20
103.2089522248
 30
0.0
 11
174.586541258
 21
104.4731499373
 31
0.0
  0
LINE
  5
2AD
  8
0
 62
     0
 10
173.8065976873
 20
105.253093508
 30
0.0
 11
173.3666192548
 21
105.6930719405
 31
0.0
  0
LINE
  5
2AE
  8
0
 62
     0
 10
176.168937022
 20
103.2089522248
 30
0.0
 11
174.7895645401
 21
104.5883247067
 31
0.0
  0
LINE
  5
2AF
  8
0
 62
     0
 10
174.1247957388
 20
105.253093508
 30
0.0
 11
173.6848173063
 21
105.6930719405
 31
0.0
  0
LINE
  5
2B0
  8
0
 62
     0
 10
176.3114219875
 20
103.3846653108
 30
0.0
 11
174.9276835822
 21
104.7684037161
 31
0.0
  0
LINE
  5
2B1
  8
0
 62
     0
 10
174.4429937903
 20
105.253093508
 30
0.0
 11
174.0030153579
 21
105.6930719405
 31
0.0
  0
LINE
  5
2B2
  8
0
 62
     0
 10
176.3236386843
 20
103.6906466656
 30
0.0
 11
174.9146708828
 21
105.0996144671
 31
0.0
  0
LINE
  5
2B3
  8
0
 62
     0
 10
174.7916154663
 20
105.2226698836
 30
0.0
 11
174.3212134094
 21
105.6930719405
 31
0.0
  0
LINE
  5
2B4
  8
0
 62
     0
 10
176.344435037
 20
103.9880483644
 30
0.0
 11
174.6394114609
 21
105.6930719405
 31
0.0
  0
LINE
  5
2B5
  8
0
 62
     0
 10
177.4417292281
 20
103.2089522248
 30
0.0
 11
177.1979221974
 21
103.4527592555
 31
0.0
  0
LINE
  5
2B6
  8
0
 62
     0
 10
176.2866153741
 20
104.3640660789
 30
0.0
 11
174.9576095125
 21
105.6930719405
 31
0.0
  0
LINE
  5
2B7
  8
0
 62
     0
 10
177.7599272796
 20
103.2089522248
 30
0.0
 11
177.2556639653
 21
103.7132155392
 31
0.0
  0
LINE
  5
2B8
  8
0
 62
     0
 10
176.4817000295
 20
104.4871794749
 30
0.0
 11
175.275807564
 21
105.6930719405
 31
0.0
  0
LINE
  5
2B9
  8
0
 62
     0
 10
178.0781253312
 20
103.2089522248
 30
0.0
 11
177.3134057332
 21
103.9736718228
 31
0.0
  0
LINE
  5
2BA
  8
0
 62
     0
 10
176.650286086
 20
104.63679147
 30
0.0
 11
175.5940056155
 21
105.6930719405
 31
0.0
  0
LINE
  5
2BB
  8
0
 62
     0
 10
178.3963233827
 20
103.2089522248
 30
0.0
 11
177.3711475012
 21
104.2341281064
 31
0.0
  0
LINE
  5
2BC
  8
0
 62
     0
 10
176.7853455274
 20
104.8199300802
 30
0.0
 11
175.9122036671
 21
105.6930719405
 31
0.0
  0
LINE
  5
2BD
  8
0
 62
     0
 10
178.7145214342
 20
103.2089522248
 30
0.0
 11
177.4288892691
 21
104.49458439
 31
0.0
  0
LINE
  5
2BE
  8
0
 62
     0
 10
176.870902346
 20
105.0525713131
 30
0.0
 11
176.2554278818
 21
105.6680457773
 31
0.0
  0
LINE
  5
2BF
  8
0
 62
     0
 10
178.8845517751
 20
103.3571199355
 30
0.0
 11
177.486631037
 21
104.7550406736
 31
0.0
  0
LINE
  5
2C0
  8
0
 62
     0
 10
178.942293543
 20
103.6175762191
 30
0.0
 11
177.544372805
 21
105.0154969572
 31
0.0
  0
LINE
  5
2C1
  8
0
 62
     0
 10
179.000035311
 20
103.8780325027
 30
0.0
 11
177.6021145729
 21
105.2759532408
 31
0.0
  0
LINE
  5
2C2
  8
0
 62
     0
 10
179.9873136404
 20
103.2089522248
 30
0.0
 11
179.8838211514
 21
103.3124447138
 31
0.0
  0
LINE
  5
2C3
  8
0
 62
     0
 10
179.0577770789
 20
104.1384887863
 30
0.0
 11
177.6598563408
 21
105.5364095244
 31
0.0
  0
LINE
  5
2C4
  8
0
 62
     0
 10
180.3055116919
 20
103.2089522248
 30
0.0
 11
179.9415629193
 21
103.5729009974
 31
0.0
  0
LINE
  5
2C5
  8
0
 62
     0
 10
179.1155188468
 20
104.3989450699
 30
0.0
 11
177.8213919763
 21
105.6930719405
 31
0.0
  0
LINE
  5
2C6
  8
0
 62
     0
 10
180.6237097434
 20
103.2089522248
 30
0.0
 11
179.9993046872
 21
103.833357281
 31
0.0
  0
LINE
  5
2C7
  8
0
 62
     0
 10
179.1732606147
 20
104.6594013535
 30
0.0
 11
178.1395900278
 21
105.6930719405
 31
0.0
  0
LINE
  5
2C8
  8
0
 62
     0
 10
180.941907795
 20
103.2089522248
 30
0.0
 11
180.0570464552
 21
104.0938135647
 31
0.0
  0
LINE
  5
2C9
  8
0
 62
     0
 10
179.2310023827
 20
104.9198576371
 30
0.0
 11
178.4577880793
 21
105.6930719405
 31
0.0
  0
LINE
  5
2CA
  8
0
 62
     0
 10
181.2601058465
 20
103.2089522248
 30
0.0
 11
180.1147882231
 21
104.3542698483
 31
0.0
  0
LINE
  5
2CB
  8
0
 62
     0
 10
179.2887441506
 20
105.1803139208
 30
0.0
 11
178.7759861309
 21
105.6930719405
 31
0.0
  0
LINE
  5
2CC
  8
0
 62
     0
 10
181.5069088774
 20
103.2803472455
 30
0.0
 11
180.172529991
 21
104.6147261319
 31
0.0
  0
LINE
  5
2CD
  8
0
 62
     0
 10
179.3464859185
 20
105.4407702044
 30
0.0
 11
179.0941841824
 21
105.6930719405
 31
0.0
  0
LINE
  5
2CE
  8
0
 62
     0
 10
181.5646506453
 20
103.5408035291
 30
0.0
 11
180.2302717589
 21
104.8751824155
 31
0.0
  0
LINE
  5
2CF
  8
0
 62
     0
 10
181.6223924132
 20
103.8012598127
 30
0.0
 11
180.2880135269
 21
105.1356386991
 31
0.0
  0
LINE
  5
2D0
  8
0
 62
     0
 10
181.8272747714
 20
103.9145755061
 30
0.0
 11
180.3457552948
 21
105.3960949827
 31
0.0
  0
LINE
  5
2D1
  8
0
 62
     0
 10
182.0503945192
 20
104.0096538098
 30
0.0
 11
180.4034970627
 21
105.6565512663
 31
0.0
  0
LINE
  5
2D2
  8
0
 62
     0
 10
182.273514267
 20
104.1047321135
 30
0.0
 11
180.6851744401
 21
105.6930719405
 31
0.0
  0
LINE
  5
2D3
  8
0
 62
     0
 10
183.4874922072
 20
103.2089522248
 30
0.0
 11
181.0033724916
 21
105.6930719405
 31
0.0
  0
LINE
  5
2D4
  8
0
 62
     0
 10
183.8056902588
 20
103.2089522248
 30
0.0
 11
182.0702757044
 21
104.9443667792
 31
0.0
  0
LINE
  5
2D5
  8
0
 62
     0
 10
181.9111012529
 20
105.1035412308
 30
0.0
 11
181.3215705431
 21
105.6930719405
 31
0.0
  0
LINE
  5
2D6
  8
0
 62
     0
 10
184.1238883103
 20
103.2089522248
 30
0.0
 11
182.2933954522
 21
105.0394450829
 31
0.0
  0
LINE
  5
2D7
  8
0
 62
     0
 10
181.9688430208
 20
105.3639975144
 30
0.0
 11
181.6397685947
 21
105.6930719405
 31
0.0
  0
LINE
  5
2D8
  8
0
 62
     0
 10
184.4420863618
 20
103.2089522248
 30
0.0
 11
182.5165152001
 21
105.1345233866
 31
0.0
  0
LINE
  5
2D9
  8
0
 62
     0
 10
182.0265847887
 20
105.624453798
 30
0.0
 11
181.9579666462
 21
105.6930719405
 31
0.0
  0
LINE
  5
2DA
  8
0
 62
     0
 10
184.7602844134
 20
103.2089522248
 30
0.0
 11
182.7396349479
 21
105.2296016903
 31
0.0
  0
LINE
  5
2DB
  8
0
 62
     0
 10
185.0784824649
 20
103.2089522248
 30
0.0
 11
182.9627546957
 21
105.324679994
 31
0.0
  0
LINE
  5
2DC
  8
0
 62
     0
 10
185.3966805164
 20
103.2089522248
 30
0.0
 11
183.1858744436
 21
105.4197582977
 31
0.0
  0
LINE
  5
2DD
  8
0
 62
     0
 10
184.0584722497
 20
104.8653585431
 30
0.0
 11
183.4089941914
 21
105.5148366014
 31
0.0
  0
LINE
  5
2DE
  8
0
 62
     0
 10
184.2815919975
 20
104.9604368468
 30
0.0
 11
183.6321139392
 21
105.6099149051
 31
0.0
  0
LINE
  5
2DF
  8
0
 62
     0
 10
184.5047117454
 20
105.0555151505
 30
0.0
 11
183.8671549554
 21
105.6930719405
 31
0.0
  0
LINE
  5
2E0
  8
0
 62
     0
 10
184.7278314932
 20
105.1505934542
 30
0.0
 11
184.1853530069
 21
105.6930719405
 31
0.0
  0
LINE
  5
2E1
  8
0
 62
     0
 10
184.950951241
 20
105.2456717579
 30
0.0
 11
184.5035510585
 21
105.6930719405
 31
0.0
  0
LINE
  5
2E2
  8
0
 62
     0
 10
185.1740709889
 20
105.3407500616
 30
0.0
 11
184.82174911
 21
105.6930719405
 31
0.0
  0
LINE
  5
2E3
  8
0
 62
     0
 10
185.3971907367
 20
105.4358283653
 30
0.0
 11
185.1399471615
 21
105.6930719405
 31
0.0
  0
LINE
  5
2E4
  8
0
 62
     0
 10
185.6203104845
 20
105.530906669
 30
0.0
 11
185.4581452131
 21
105.6930719405
 31
0.0
  0
LINE
  5
2E5
  8
0
 62
     0
 10
185.8434302323
 20
105.6259849728
 30
0.0
 11
185.7763432646
 21
105.6930719405
 31
0.0
  0
LINE
  5
2E6
  8
0
 62
     0
 10
188.5786610318
 20
103.2089522248
 30
0.0
 11
188.5132266076
 21
103.274386649
 31
0.0
  0
LINE
  5
2E7
  8
0
 62
     0
 10
188.8968590833
 20
103.2089522248
 30
0.0
 11
188.6495972011
 21
103.456214107
 31
0.0
  0
LINE
  5
2E8
  8
0
 62
     0
 10
189.2150571349
 20
103.2089522248
 30
0.0
 11
188.7859677946
 21
103.638041565
 31
0.0
  0
LINE
  5
2E9
  8
0
 62
     0
 10
189.5332551864
 20
103.2089522248
 30
0.0
 11
188.9223383882
 21
103.8198690231
 31
0.0
  0
LINE
  5
2EA
  8
0
 62
     0
 10
189.8514532379
 20
103.2089522248
 30
0.0
 11
189.0587089817
 21
104.0016964811
 31
0.0
  0
LINE
  5
2EB
  8
0
 62
     0
 10
190.152871783
 20
103.2257317313
 30
0.0
 11
189.1950795752
 21
104.1835239391
 31
0.0
  0
LINE
  5
2EC
  8
0
 62
     0
 10
190.2892423765
 20
103.4075591893
 30
0.0
 11
189.3314501687
 21
104.3653513971
 31
0.0
  0
LINE
  5
2ED
  8
0
 62
     0
 10
190.42561297
 20
103.5893866474
 30
0.0
 11
189.4678207622
 21
104.5471788551
 31
0.0
  0
LINE
  5
2EE
  8
0
 62
     0
 10
190.6442138691
 20
103.6889837998
 30
0.0
 11
189.6041913557
 21
104.7290063132
 31
0.0
  0
LINE
  5
2EF
  8
0
 62
     0
 10
190.9624119207
 20
103.6889837998
 30
0.0
 11
189.7405619492
 21
104.9108337712
 31
0.0
  0
LINE
  5
2F0
  8
0
 62
     0
 10
191.2806099722
 20
103.6889837998
 30
0.0
 11
190.9074223326
 21
104.0621714394
 31
0.0
  0
LINE
  5
2F1
  8
0
 62
     0
 10
190.8347247506
 20
104.1348690214
 30
0.0
 11
189.8769325428
 21
105.0926612292
 31
0.0
  0
LINE
  5
2F2
  8
0
 62
     0
 10
191.5988080237
 20
103.6889837998
 30
0.0
 11
191.2256203841
 21
104.0621714394
 31
0.0
  0
LINE
  5
2F3
  8
0
 62
     0
 10
190.9710953441
 20
104.3166964794
 30
0.0
 11
190.0133031363
 21
105.2744886872
 31
0.0
  0
LINE
  5
2F4
  8
0
 62
     0
 10
192.3970376502
 20
103.2089522248
 30
0.0
 11
192.3290407536
 21
103.2769491215
 31
0.0
  0
LINE
  5
2F5
  8
0
 62
     0
 10
191.1074659376
 20
104.4985239375
 30
0.0
 11
190.1496737298
 21
105.4563161452
 31
0.0
  0
LINE
  5
2F6
  8
0
 62
     0
 10
191.9170060753
 20
103.6889837998
 30
0.0
 11
191.5438184357
 21
104.0621714394
 31
0.0
  0
LINE
  5
2F7
  8
0
 62
     0
 10
192.7152357017
 20
103.2089522248
 30
0.0
 11
191.8620164872
 21
104.0621714394
 31
0.0
  0
LINE
  5
2F8
  8
0
 62
     0
 10
191.2438365311
 20
104.6803513955
 30
0.0
 11
190.2860443233
 21
105.6381436033
 31
0.0
  0
LINE
  5
2F9
  8
0
 62
     0
 10
193.0334337533
 20
103.2089522248
 30
0.0
 11
192.1169087192
 21
104.1254772589
 31
0.0
  0
LINE
  5
2FA
  8
0
 62
     0
 10
191.3802071246
 20
104.8621788535
 30
0.0
 11
190.5485852684
 21
105.6938007097
 31
0.0
  0
LINE
  5
2FB
  8
0
 62
     0
 10
193.3516318048
 20
103.2089522248
 30
0.0
 11
192.010842702
 21
104.5497413276
 31
0.0
  0
LINE
  5
2FC
  8
0
 62
     0
 10
191.5165777181
 20
105.0440063115
 30
0.0
 11
190.8667833199
 21
105.6938007097
 31
0.0
  0
LINE
  5
2FD
  8
0
 62
     0
 10
193.6698298563
 20
103.2089522248
 30
0.0
 11
191.9047766849
 21
104.9740053963
 31
0.0
  0
LINE
  5
2FE
  8
0
 62
     0
 10
191.6529483116
 20
105.2258337695
 30
0.0
 11
191.1849813715
 21
105.6938007097
 31
0.0
  0
LINE
  5
2FF
  8
0
 62
     0
 10
193.8755952122
 20
103.3213849205
 30
0.0
 11
191.7987106677
 21
105.398269465
 31
0.0
  0
LINE
  5
300
  8
0
 62
     0
 10
191.7893189052
 20
105.4076612275
 30
0.0
 11
191.503179423
 21
105.6938007097
 31
0.0
  0
LINE
  5
301
  8
0
 62
     0
 10
193.769529195
 20
103.7456489892
 30
0.0
 11
191.8213774745
 21
105.6938007097
 31
0.0
  0
LINE
  5
302
  8
0
 62
     0
 10
193.6634631779
 20
104.1699130579
 30
0.0
 11
192.1395755261
 21
105.6938007097
 31
0.0
  0
LINE
  5
303
  8
0
 62
     0
 10
194.7324921268
 20
103.4190821605
 30
0.0
 11
194.673971892
 21
103.4776023953
 31
0.0
  0
LINE
  5
304
  8
0
 62
     0
 10
193.5573971607
 20
104.5941771266
 30
0.0
 11
192.4577735776
 21
105.6938007097
 31
0.0
  0
LINE
  5
305
  8
0
 62
     0
 10
195.1492980222
 20
103.3204743166
 30
0.0
 11
194.6352248342
 21
103.8345475047
 31
0.0
  0
LINE
  5
306
  8
0
 62
     0
 10
193.4513311435
 20
105.0184411953
 30
0.0
 11
192.7759716291
 21
105.6938007097
 31
0.0
  0
LINE
  5
307
  8
0
 62
     0
 10
195.509281731
 20
103.2786886594
 30
0.0
 11
194.6829215228
 21
104.1050488676
 31
0.0
  0
LINE
  5
308
  8
0
 62
     0
 10
193.3452651263
 20
105.442705264
 30
0.0
 11
193.0941696807
 21
105.6938007097
 31
0.0
  0
LINE
  5
309
  8
0
 62
     0
 10
195.8588566855
 20
103.2473117564
 30
0.0
 11
194.7306182114
 21
104.3755502305
 31
0.0
  0
LINE
  5
30A
  8
0
 62
     0
 10
196.1989401751
 20
103.2254263184
 30
0.0
 11
194.7783149
 21
104.6460515935
 31
0.0
  0
LINE
  5
30B
  8
0
 62
     0
 10
196.5303063939
 20
103.2122581511
 30
0.0
 11
194.8260115886
 21
104.9165529564
 31
0.0
  0
LINE
  5
30C
  8
0
 62
     0
 10
196.8536158394
 20
103.2071467571
 30
0.0
 11
194.8737082772
 21
105.1870543193
 31
0.0
  0
LINE
  5
30D
  8
0
 62
     0
 10
197.1694373399
 20
103.2095233081
 30
0.0
 11
196.7175431377
 21
103.6614175103
 31
0.0
  0
LINE
  5
30E
  8
0
 62
     0
 10
196.2416418799
 20
104.1373187681
 30
0.0
 11
194.9704988453
 21
105.4084618028
 31
0.0
  0
LINE
  5
30F
  8
0
 62
     0
 10
197.4782648534
 20
103.2188938462
 30
0.0
 11
197.0476490789
 21
103.6495096206
 31
0.0
  0
LINE
  5
310
  8
0
 62
     0
 10
196.2893385685
 20
104.407820131
 30
0.0
 11
195.1933913297
 21
105.5037673699
 31
0.0
  0
LINE
  5
311
  8
0
 62
     0
 10
197.780530482
 20
103.2348262691
 30
0.0
 11
197.3498672022
 21
103.6654895489
 31
0.0
  0
LINE
  5
312
  8
0
 62
     0
 10
196.3370352571
 20
104.678321494
 30
0.0
 11
195.4681715404
 21
105.5471852107
 31
0.0
  0
LINE
  5
313
  8
0
 62
     0
 10
198.1246025778
 20
103.2089522248
 30
0.0
 11
197.6300087681
 21
103.7035460345
 31
0.0
  0
LINE
  5
314
  8
0
 62
     0
 10
196.3847319457
 20
104.9488228569
 30
0.0
 11
195.7480051989
 21
105.5855496037
 31
0.0
  0
LINE
  5
315
  8
0
 62
     0
 10
198.4428006293
 20
103.2089522248
 30
0.0
 11
197.8555255308
 21
103.7962273234
 31
0.0
  0
LINE
  5
316
  8
0
 62
     0
 10
196.502999439
 20
105.1487534152
 30
0.0
 11
196.0331354274
 21
105.6186174268
 31
0.0
  0
LINE
  5
317
  8
0
 62
     0
 10
197.5731036596
 20
104.0786491945
 30
0.0
 11
197.3801961263
 21
104.2715567279
 31
0.0
  0
LINE
  5
318
  8
0
 62
     0
 10
198.7609986809
 20
103.2089522248
 30
0.0
 11
197.9559875805
 21
104.0139633252
 31
0.0
  0
LINE
  5
319
  8
0
 62
     0
 10
196.7450412348
 20
105.224909671
 30
0.0
 11
196.3238329551
 21
105.6461179507
 31
0.0
  0
LINE
  5
31A
  8
0
 62
     0
 10
197.8913017112
 20
104.0786491945
 30
0.0
 11
197.6685744384
 21
104.3013764673
 31
0.0
  0
LINE
  5
31B
  8
0
 62
     0
 10
199.0791967324
 20
103.2089522248
 30
0.0
 11
197.98677249
 21
104.3013764673
 31
0.0
  0
LINE
  5
31C
  8
0
 62
     0
 10
197.0342746258
 20
105.2538743315
 30
0.0
 11
196.6204005457
 21
105.6677484115
 31
0.0
  0
LINE
  5
31D
  8
0
 62
     0
 10
199.3716178719
 20
103.2347291369
 30
0.0
 11
198.3049705415
 21
104.3013764673
 31
0.0
  0
LINE
  5
31E
  8
0
 62
     0
 10
197.3477807665
 20
105.2585662423
 30
0.0
 11
196.9231783998
 21
105.6831686089
 31
0.0
  0
LINE
  5
31F
  8
0
 62
     0
 10
199.4193145605
 20
103.5052304998
 30
0.0
 11
198.623168593
 21
104.3013764673
 31
0.0
  0
LINE
  5
320
  8
0
 62
     0
 10
197.6928320311
 20
105.2317130292
 30
0.0
 11
197.2325508081
 21
105.6919942522
 31
0.0
  0
LINE
  5
321
  8
0
 62
     0
 10
199.4670112491
 20
103.7757318628
 30
0.0
 11
198.9413666446
 21
104.3013764673
 31
0.0
  0
LINE
  5
322
  8
0
 62
     0
 10
198.278749933
 20
104.9639931789
 30
0.0
 11
197.54895443
 21
105.6937886818
 31
0.0
  0
LINE
  5
323
  8
0
 62
     0
 10
199.5147079377
 20
104.0462332257
 30
0.0
 11
199.2595646961
 21
104.3013764673
 31
0.0
  0
LINE
  5
324
  8
0
 62
     0
 10
198.5969479845
 20
104.9639931789
 30
0.0
 11
197.8728887119
 21
105.6880524515
 31
0.0
  0
LINE
  5
325
  8
0
 62
     0
 10
198.915146036
 20
104.9639931789
 30
0.0
 11
198.2049291637
 21
105.6742100513
 31
0.0
  0
LINE
  5
326
  8
0
 62
     0
 10
199.2333440876
 20
104.9639931789
 30
0.0
 11
198.545744517
 21
105.6515927495
 31
0.0
  0
LINE
  5
327
  8
0
 62
     0
 10
199.5515421391
 20
104.9639931789
 30
0.0
 11
198.8961192538
 21
105.6194160642
 31
0.0
  0
LINE
  5
328
  8
0
 62
     0
 10
199.7054946921
 20
105.1282386774
 30
0.0
 11
199.2569837197
 21
105.5767496498
 31
0.0
  0
ENDBLK
  5
32A
  8
0
  0
ENDSEC
  0
SECTION
  2
ENTITIES
  0
INSERT
  5
1D
  8
05
 66
     1
  2
ZKOPF
 10
205.0
 20
5.0
 30
0.0
  0
ATTRIB
  5
1E
  8
0
 62
     4
 10
191.1428571429
 20
42.0
 30
0.0
 40
2.5
  1
Alinjak
  7
SCRIPTS
 72
     1
 11
196.5
 21
42.0
 31
0.0
  2
NAME
 70
     0
  0
ATTRIB
  5
20
  8
0
 62
     4
 10
175.25
 20
42.0
 30
0.0
 40
2.5
  1
08.07.98
 41
0.7
 51
15.0
 72
     1
 11
180.5
 21
42.0
 31
0.0
  2
DATE
 70
     0
  0
ATTRIB
  5
21
  8
0
 62
     4
 10
124.5
 20
41.0
 30
0.0
 40
2.5
  1

 41
0.7
 51
15.0
 72
     1
 11
124.5
 21
41.0
 31
0.0
  2
WERKSTOFF
 70
     0
  0
ATTRIB
  5
22
  8
0
 62
     2
 10
102.5
 20
17.5
 30
0.0
 40
5.0
  1
NP3M-V
 41
0.7
 51
15.0
 72
     1
 11
113.0
 21
17.5
 31
0.0
  2
BENENNUNG
 70
     0
  0
ATTRIB
  5
23
  8
0
 62
     3
 10
107.7928767315
 20
26.0821914505
 30
0.0
 40
3.5
  1
Nanocon
 41
0.7
 51
15.0
 72
     1
 11
115.9595433981
 21
26.0821914505
 31
0.0
  2
TEIL
 70
     0
  0
ATTRIB
  5
24
  8
0
 62
     3
 10
169.9539475841
 20
6.9765410165
 30
0.0
 40
3.5
  1
3102 St 23 12
 41
0.7
 51
15.0
 72
     1
 11
184.4497809174
 21
6.9765410165
 31
0.0
  2
NUMMER
 70
     0
  0
ATTRIB
  5
25
  8
0
 62
     2
 10
141.5173283625
 20
39.6560562329
 30
0.0
 40
5.0
  1
5:1
 41
0.7
 51
15.0
 72
     1
 11
144.4339950292
 21
39.6560562329
 31
0.0
  2
MASS
 70
     0
  0
ATTRIB
  5
26
  8
0
 62
     3
 10
144.519299054
 20
33.2104505392
 30
0.0
 40
3.5
  1

 41
0.7
 51
15.0
 72
     1
 11
144.519299054
 21
33.2104505392
 31
0.0
  2
MASS2
 70
     0
  0
ATTRIB
  5
27
  8
0
 62
     4
 10
124.0
 20
34.0
 30
0.0
 40
2.5
  1

 41
0.7
 51
15.0
 72
     1
 11
124.0
 21
34.0
 31
0.0
  2
TEIL
 70
     0
  0
ATTRIB
  5
28
  8
0
 62
     3
 10
97.2885480594
 20
64.0043187474
 30
0.0
 40
3.5
  1

 41
0.7
 51
15.0
  2
TOL
 70
     0
  0
ATTRIB
  5
29
  8
0
 62
     3
 10
97.2885480594
 20
59.0043187474
 30
0.0
 40
3.5
  1

 41
0.7
 51
15.0
  2
RADIEN
 70
     0
  0
ATTRIB
  5
2A
  8
0
 62
     3
 10
97.2885480594
 20
54.0043187474
 30
0.0
 40
3.5
  1

 41
0.7
 51
15.0
  2
FACETTE
 70
     0
  0
ATTRIB
  5
2B
  8
0
 62
     4
 10
7.8137327416
 20
12.0
 30
0.0
 40
2.5
  1

 41
0.7
 51
15.0
  2
INDEX1
 70
     0
  0
ATTRIB
  5
2C
  8
0
 62
     4
 10
14.6512573964
 20
12.0
 30
0.0
 40
2.5
  1

 41
0.7
 51
15.0
  2
A1
 70
     0
  0
ATTRIB
  5
2D
  8
0
 62
     4
 10
47.6512573964
 20
12.0
 30
0.0
 40
2.5
  1

 41
0.7
 51
15.0
  2
DATUM1
 70
     0
  0
ATTRIB
  5
2E
  8
0
 62
     4
 10
60.5350098619
 20
12.0
 30
0.0
 40
2.5
  1

 41
0.7
 51
15.0
  2
NAME1
 70
     0
  0
ATTRIB
  5
2F
  8
0
 62
     4
 10
7.8137327416
 20
17.0
 30
0.0
 40
2.5
  1

 41
0.7
 51
15.0
  2
INDEX2
 70
     0
  0
ATTRIB
  5
30
  8
0
 62
     4
 10
14.6512573964
 20
17.0
 30
0.0
 40
2.5
  1

 41
0.7
 51
15.0
  2
A2
 70
     0
  0
ATTRIB
  5
31
  8
0
 62
     4
 10
47.6512573964
 20
17.0
 30
0.0
 40
2.5
  1

 41
0.7
 51
15.0
  2
DATUM2
 70
     0
  0
ATTRIB
  5
32
  8
0
 62
     4
 10
60.5350098619
 20
17.0
 30
0.0
 40
2.5
  1

 41
0.7
 51
15.0
  2
NAME2
 70
     0
  0
ATTRIB
  5
33
  8
0
 62
     4
 10
7.8137327416
 20
22.0
 30
0.0
 40
2.5
  1

 41
0.7
 51
15.0
  2
INDEX3
 70
     0
  0
ATTRIB
  5
34
  8
0
 62
     4
 10
14.6512573964
 20
22.0
 30
0.0
 40
2.5
  1

 41
0.7
 51
15.0
  2
A3
 70
     0
  0
ATTRIB
  5
35
  8
0
 62
     4
 10
47.6512573964
 20
22.0
 30
0.0
 40
2.5
  1

 41
0.7
 51
15.0
  2
DATUM3
 70
     0
  0
ATTRIB
  5
36
  8
0
 62
     4
 10
60.5350098619
 20
22.0
 30
0.0
 40
2.5
  1

 41
0.7
 51
15.0
  2
NAME3
 70
     0
  0
ATTRIB
  5
37
  8
0
 62
     4
 10
7.8137327416
 20
27.0
 30
0.0
 40
2.5
  1

 41
0.7
 51
15.0
  2
INDEX4
 70
     0
  0
ATTRIB
  5
38
  8
0
 62
     4
 10
14.6512573964
 20
27.0
 30
0.0
 40
2.5
  1

 41
0.7
 51
15.0
  2
A4
 70
     0
  0
ATTRIB
  5
39
  8
0
 62
     4
 10
47.6512573964
 20
27.0
 30
0.0
 40
2.5
  1

 41
0.7
 51
15.0
  2
DATUM4
 70
     0
  0
ATTRIB
  5
3A
  8
0
 62
     4
 10
60.5350098619
 20
27.0
 30
0.0
 40
2.5
  1

 41
0.7
 51
15.0
  2
NAME4
 70
     0
  0
ATTRIB
  5
3B
  8
0
 62
     4
 10
7.8137327416
 20
32.0
 30
0.0
 40
2.5
  1

 41
0.7
 51
15.0
  2
INDEX5
 70
     0
  0
ATTRIB
  5
3C
  8
0
 62
     4
 10
14.6512573964
 20
32.0
 30
0.0
 40
2.5
  1

 41
0.7
 51
15.0
  2
A5
 70
     0
  0
ATTRIB
  5
3D
  8
0
 62
     4
 10
47.6512573964
 20
32.0
 30
0.0
 40
2.5
  1

 41
0.7
 51
15.0
  2
DATUM5
 70
     0
  0
ATTRIB
  5
3E
  8
0
 62
     4
 10
60.5350098619
 20
32.0
 30
0.0
 40
2.5
  1

 41
0.7
 51
15.0
  2
NAME5
 70
     0
  0
ATTRIB
  5
3F
  8
0
 62
     4
 10
7.8137327416
 20
37.0
 30
0.0
 40
2.5
  1

 41
0.7
 51
15.0
  2
INDEX6
 70
     0
  0
ATTRIB
  5
40
  8
0
 62
     4
 10
14.6512573964
 20
37.0
 30
0.0
 40
2.5
  1

 41
0.7
 51
15.0
  2
A6
 70
     0
  0
ATTRIB
  5
41
  8
0
 62
     4
 10
47.6512573964
 20
37.0
 30
0.0
 40
2.5
  1

 41
0.7
 51
15.0
  2
DATUM6
 70
     0
  0
ATTRIB
  5
42
  8
0
 62
     4
 10
60.5350098619
 20
37.0
 30
0.0
 40
2.5
  1

 41
0.7
 51
15.0
  2
NAME6
 70
     0
  0
ATTRIB
  5
43
  8
0
 62
     4
 10
7.8137327416
 20
42.0
 30
0.0
 40
2.5
  1

 41
0.7
 51
15.0
  2
INDEX7
 70
     0
  0
ATTRIB
  5
44
  8
0
 62
     4
 10
14.6512573964
 20
42.0
 30
0.0
 40
2.5
  1

 41
0.7
 51
15.0
  2
A7
 70
     0
  0
ATTRIB
  5
45
  8
0
 62
     4
 10
47.6512573964
 20
42.0
 30
0.0
 40
2.5
  1

 41
0.7
 51
15.0
  2
DATUM7
 70
     0
  0
ATTRIB
  5
46
  8
0
 62
     4
 10
60.5350098619
 20
42.0
 30
0.0
 40
2.5
  1

 41
0.7
 51
15.0
  2
NAME7
 70
     0
  0
ATTRIB
  5
47
  8
0
 62
     4
 10
7.8137327416
 20
47.0
 30
0.0
 40
2.5
  1

 41
0.7
 51
15.0
  2
INDEX8
 70
     0
  0
ATTRIB
  5
48
  8
0
 62
     4
 10
14.6512573964
 20
47.0
 30
0.0
 40
2.5
  1

 41
0.7
 51
15.0
  2
A8
 70
     0
  0
ATTRIB
  5
49
  8
0
 62
     4
 10
47.6512573964
 20
47.0
 30
0.0
 40
2.5
  1

 41
0.7
 51
15.0
  2
DATUM8
 70
     0
  0
ATTRIB
  5
4A
  8
0
 62
     4
 10
60.5350098619
 20
47.0
 30
0.0
 40
2.5
  1

 41
0.7
 51
15.0
  2
NAME8
 70
     0
  0
SEQEND
  5
32D
  8
05
  0
POLYLINE
  5
32E
  8
RAHMEN
 66
     1
 10
0.0
 20
0.0
 30
0.0
 70
     1
  0
VERTEX
  5
520
  8
RAHMEN
 10
205.0
 20
5.0
 30
0.0
  0
VERTEX
  5
521
  8
RAHMEN
 10
205.0
 20
292.0
 30
0.0
  0
VERTEX
  5
522
  8
RAHMEN
 10
5.0
 20
292.0
 30
0.0
  0
VERTEX
  5
523
  8
RAHMEN
 10
5.0
 20
5.0
 30
0.0
  0
SEQEND
  5
524
  8
RAHMEN
  0
TEXT
  5
330
  8
035
 10
120.5765523522
 20
145.9643646531
 30
0.0
 40
3.5
  1
Print-Bohrplan (Bestückungsseite)
  7
ARIAL
  0
TEXT
  5
332
  8
035
 10
17.7226935135
 20
145.9643646531
 30
0.0
 40
3.5
  1
Frontplattenausschnitt (Rückseite)
  7
ARIAL
  0
LINE
  5
333
  8
0
  6
BYBLOCK
 62
     4
 10
74.6047673358
 20
97.8775676056
 30
0.0
 11
80.2960751616
 21
97.8775676056
 31
0.0
  0
LINE
  5
334
  8
0
  6
BYBLOCK
 62
     4
 10
66.1186455245
 20
112.8775676056
 30
0.0
 11
80.1942955686
 21
112.8775676056
 31
0.0
  0
LINE
  5
335
  8
0
  6
BYBLOCK
 62
     4
 10
73.8047673358
 20
101.1574881974
 30
0.0
 11
73.8047673358
 21
111.1034456133
 31
0.0
  0
ARC
  5
336
  8
05
 10
56.3047673358
 20
97.8775676056
 30
0.0
 40
17.5
 50
121.0027191339
 51
58.9972808661
  0
LINE
  5
337
  8
0
  6
BYBLOCK
 62
     4
 10
38.8047673358
 20
100.4400095377
 30
0.0
 11
38.8047673358
 21
126.1026414835
 31
0.0
  0
LINE
  5
338
  8
MITTE
 10
56.3047673358
 20
77.8921055697
 30
0.0
 11
56.3047673358
 21
117.863028248
 31
0.0
  0
LINE
  5
33B
  8
MITTE
 10
36.3193059966
 20
97.8775676056
 30
0.0
 11
76.2902286749
 21
97.8775676056
 31
0.0
  0
POINT
  5
33C
  8
DEFPOINTS
  6
BYBLOCK
 62
     0
 10
38.8047673358
 20
97.8775676056
 30
0.0
  0
POINT
  5
33E
  8
DEFPOINTS
  6
BYBLOCK
 62
     0
 10
73.8047673358
 20
97.8775676056
 30
0.0
  0
POINT
  5
33F
  8
DEFPOINTS
  6
BYBLOCK
 62
     0
 10
73.8047673358
 20
97.8775676056
 30
0.0
  0
LINE
  5
340
  8
0
  6
BYBLOCK
 62
     4
 10
42.3047673358
 20
125.3026414835
 30
0.0
 11
70.3047673358
 21
125.3026414835
 31
0.0
  0
TEXT
  8
0
  40
3.5
  5
541
  62
3
  72
0
  71
0
 10
49.3048
 20
121.858
 30
0.000000
  1
%%%%%%c7.00 [0.276"]
  0
TEXT
  5
342
  8
035
 10
17.8079575854
 20
140.9677236581
 30
0.0
 40
3.0
  1
Panel cut out (rear side)
  7
ARIAL
  0
SOLID
  5
343
  8
0
  6
BYBLOCK
 62
     4
 10
42.3047673358
 20
125.8859748168
 30
0.0
 11
42.3047673358
 21
124.7193081501
 31
0.0
 12
38.8047673358
 22
125.3026414835
 32
0.0
 13
38.8047673358
 23
125.3026414835
 33
0.0
  0
SOLID
  5
344
  8
0
  6
BYBLOCK
 62
     4
 10
70.3047673358
 20
125.8859748168
 30
0.0
 11
70.3047673358
 21
124.7193081501
 31
0.0
 12
73.8047673358
 22
125.3026414835
 32
0.0
 13
73.8047673358
 23
125.3026414835
 33
0.0
  0
LINE
  5
345
  8
0
  6
BYBLOCK
 62
     4
 10
73.8047673358
 20
114.5627508094
 30
0.0
 11
73.8047673358
 21
126.1026414835
 31
0.0
  0
LINE
  5
346
  8
05
 10
47.2908891471
 20
112.8775676056
 30
0.0
 11
65.3186455245
 21
112.8775676056
 31
0.0
  0
POINT
  5
347
  8
DEFPOINTS
  6
BYBLOCK
 62
     0
 10
65.3186455245
 20
112.8775676056
 30
0.0
  0
POINT
  5
348
  8
DEFPOINTS
  6
BYBLOCK
 62
     0
 10
73.8047673358
 20
125.3026414835
 30
0.0
  0
TEXT
  5
349
  8
MITTE
 10
139.8929932753
 20
112.1452638168
 30
0.0
 40
3.5
  1
3
  7
HELV
  0
LINE
  5
34A
  8
0
  6
BYBLOCK
 62
     4
 10
141.4391984216
 20
124.0684821875
 30
0.0
 11
114.4081861297
 21
124.0684821875
 31
0.0
  0
TEXT
  5
34B
  8
BEM1
 62
     3
 10
119.6147291706
 20
87.3517897407
 30
0.0
 40
3.5
  1
0.9 [0.035"]
 41
0.7
 51
15.0
  0
LINE
  5
34D
  8
BEM1
 62
     4
 10
144.4517910653
 20
85.9781799578
 30
0.0
 11
109.7096948339
 21
85.9781799578
 31
0.0
1001
ACAD
1000
DSTYLE
1002
{
1070
    40
1040
1.0
1002
}
  0
TEXT
  5
34E
  8
035
 10
120.7236952655
 20
140.9677236581
 30
0.0
 40
3.0
  1
PCB-Layout (component side)
  7
ARIAL
  0
LINE
  5
34F
  8
MITTE
 10
140.7200189321
 20
110.6289290365
 30
0.0
 11
158.8331329109
 21
110.6289290365
 31
0.0
  0
LINE
  5
350
  8
MITTE
 10
140.7200189321
 20
109.2289290365
 30
0.0
 11
158.8331329109
 21
109.2289290365
 31
0.0
  0
LINE
  5
351
  8
0
  6
BYBLOCK
 62
     4
 10
113.7464784014
 20
105.7289290365
 30
0.0
 11
113.7464784014
 21
98.2738142039
 31
0.0
  0
LINE
  5
352
  8
0
  6
BYBLOCK
 62
     4
 10
86.6132335978
 20
112.8775676056
 30
0.0
 11
86.6132335978
 21
97.8775676056
 31
0.0
  0
TEXT
  8
0
  40
3.5
  5
542
  62
3
  72
0
  71
0
 10
102.696
 20
103.734
 30
0.000000
  1
0.28 [0.011"]
  0
TEXT
  8
0
  40
3.5
  5
543
  62
3
  72
0
  71
0
 10
75.8243
 20
99.1826
 30
0.000000
  1
3.00 [0.118"]
  0
SOLID
  5
355
  8
0
  6
BYBLOCK
 62
     4
 10
86.0299002644
 20
101.3775676056
 30
0.0
 11
87.1965669311
 21
101.3775676056
 31
0.0
 12
86.6132335978
 22
97.8775676056
 32
0.0
 13
86.6132335978
 23
97.8775676056
 33
0.0
  0
POINT
  5
356
  8
DEFPOINTS
  6
BYBLOCK
 62
     0
 10
86.6132335978
 20
97.8775676056
 30
0.0
  0
LINE
  5
357
  8
0
  6
BYBLOCK
 62
     4
 10
85.588591903
 20
97.8775676056
 30
0.0
 11
87.4132335978
 21
97.8775676056
 31
0.0
  0
TEXT
  5
358
  8
BEM1
 62
     3
 10
116.6958180839
 20
87.3517897407
 30
0.0
 40
3.5
  1
\U+2205
 41
0.7
 51
15.0
  0
TEXT
  5
359
  8
BEM1
 62
     3
 10
111.7958180839
 20
87.3517897407
 30
0.0
 40
3.5
  1
3x
 41
0.7
 51
15.0
  0
LINE
  5
35A
  8
0
  6
BYBLOCK
 62
     4
 10
85.3850336776
 20
112.8775676056
 30
0.0
 11
87.4132335978
 21
112.8775676056
 31
0.0
  0
SOLID
  5
35B
  8
0
  6
BYBLOCK
 62
     4
 10
86.0299002644
 20
109.3775676056
 30
0.0
 11
87.1965669311
 21
109.3775676056
 31
0.0
 12
86.6132335978
 22
112.8775676056
 32
0.0
 13
86.6132335978
 23
112.8775676056
 33
0.0
  0
LINE
  5
35C
  8
0
  6
BYBLOCK
 62
     4
 10
139.9200189321
 20
110.6289290365
 30
0.0
 11
112.9464784014
 21
110.6289290365
 31
0.0
  0
LINE
  5
35D
  8
0
  6
BYBLOCK
 62
     4
 10
139.9200189321
 20
109.2289290365
 30
0.0
 11
112.9464784014
 21
109.2289290365
 31
0.0
  0
SOLID
  5
35E
  8
0
  6
BYBLOCK
 62
     4
 10
113.1631450681
 20
114.1289290365
 30
0.0
 11
114.3298117348
 21
114.1289290365
 31
0.0
 12
113.7464784014
 22
110.6289290365
 32
0.0
 13
113.7464784014
 23
110.6289290365
 33
0.0
  0
SOLID
  5
35F
  8
0
  6
BYBLOCK
 62
     4
 10
113.1631450681
 20
105.7289290365
 30
0.0
 11
114.3298117348
 21
105.7289290365
 31
0.0
 12
113.7464784014
 22
109.2289290365
 32
0.0
 13
113.7464784014
 23
109.2289290365
 33
0.0
  0
POINT
  5
360
  8
DEFPOINTS
  6
BYBLOCK
 62
     0
 10
113.7464784014
 20
109.2289290365
 30
0.0
  0
LINE
  5
361
  8
0
  6
BYBLOCK
 62
     4
 10
113.7464784014
 20
110.6289290365
 30
0.0
 11
113.7464784014
 21
109.2289290365
 31
0.0
  0
LINE
  5
362
  8
0
  6
BYBLOCK
 62
     4
 10
113.7464784014
 20
114.1289290365
 30
0.0
 11
113.7464784014
 21
120.2656720259
 31
0.0
  0
POINT
  5
363
  8
DEFPOINTS
  6
BYBLOCK
 62
     0
 10
140.7200189321
 20
110.6289290365
 30
0.0
  0
POINT
  5
364
  8
DEFPOINTS
  6
BYBLOCK
 62
     0
 10
140.7200189321
 20
109.2289290365
 30
0.0
  0
TEXT
  8
0
  40
3.5
  5
544
  62
3
  72
0
  71
0
 10
121.404
 20
121.923
 30
0.000000
  1
0.96 [0.038"]
  0
SOLID
  5
366
  8
0
  6
BYBLOCK
 62
     4
 10
185.1709207844
 20
100.7289290365
 30
0.0
 11
186.3375874511
 21
100.7289290365
 31
0.0
 12
185.7542541178
 22
104.2289290365
 32
0.0
 13
185.7542541178
 23
104.2289290365
 33
0.0
  0
TEXT
  5
367
  8
MITTE
 10
152.5060507099
 20
99.0753561059
 30
0.0
 40
3.5
  1
1
  7
HELV
  0
SOLID
  5
368
  8
BEM1
 62
     4
 10
146.7202583306
 20
99.4777925273
 30
0.0
 11
148.0174491793
 21
102.7804541327
 31
0.0
 12
147.8615102485
 22
99.2356042307
 32
0.0
 13
147.8615102485
 23
99.2356042307
 33
0.0
1001
ACAD
1000
DSTYLE
1002
{
1070
    40
1040
1.0
1002
}
  0
CIRCLE
  5
369
  8
05
 10
149.7391984216
 20
104.2289290365
 30
0.0
 40
2.25
  0
LINE
  5
36A
  8
MITTE
 10
149.7391984216
 20
99.5056793898
 30
0.0
 11
149.7391984216
 21
116.0719482661
 31
0.0
  0
TEXT
  8
0
  40
3.5
  5
545
  62
3
  72
0
  71
0
 10
175.345
 20
101.237
 30
0.000000
  1
1.00 [0.039"]
  0
LINE
  5
36C
  8
BEM1
 62
     4
 10
147.2908842895
 20
99.356698379
 30
0.0
 11
144.4517910653
 21
85.9781799578
 31
0.0
1001
ACAD
1000
DSTYLE
1002
{
1070
    40
1040
1.0
1002
}
  0
LINE
  5
36D
  8
0
  6
BYBLOCK
 62
     4
 10
185.7542541178
 20
100.7289290365
 30
0.0
 11
185.7542541178
 21
95.2074258689
 31
0.0
  0
LINE
  5
36E
  8
0
  6
BYBLOCK
 62
     4
 10
158.0391984216
 20
124.0684821875
 30
0.0
 11
183.4156866218
 21
124.0684821875
 31
0.0
  0
TEXT
  8
0
  40
3.5
  5
546
  62
3
  72
0
  71
0
 10
163.155
 20
121.923
 30
0.000000
  1
0.96 [0.038"]
  0
LINE
  5
370
  8
0
  6
BYBLOCK
 62
     4
 10
154.2186319517
 20
104.2289290365
 30
0.0
 11
179.6876654616
 21
104.2289290365
 31
0.0
  0
LINE
  5
371
  8
0
  6
BYBLOCK
 62
     4
 10
159.6331329109
 20
109.2289290365
 30
0.0
 11
179.8635082351
 21
109.2289290365
 31
0.0
  0
SOLID
  5
372
  8
0
  6
BYBLOCK
 62
     4
 10
158.0391984216
 20
124.6518155208
 30
0.0
 11
158.0391984216
 21
123.4851488541
 31
0.0
 12
154.5391984216
 22
124.0684821875
 32
0.0
 13
154.5391984216
 23
124.0684821875
 33
0.0
  0
LINE
  5
373
  8
MITTE
 10
154.5391984216
 20
114.3083625666
 30
0.0
 11
154.5391984216
 21
106.9494955063
 31
0.0
  0
LINE
  5
374
  8
MITTE
 10
144.9391984216
 20
114.3083625666
 30
0.0
 11
144.9391984216
 21
106.9494955063
 31
0.0
  0
LINE
  5
375
  8
MITTE
 10
153.4186319517
 20
104.2289290365
 30
0.0
 11
146.0597648914
 21
104.2289290365
 31
0.0
  0
CIRCLE
  5
376
  8
05
 10
144.9391984216
 20
110.6289290365
 30
0.0
 40
2.25
  0
POINT
  5
377
  8
DEFPOINTS
  6
BYBLOCK
 62
     0
 10
153.4186319517
 20
104.2289290365
 30
0.0
  0
CIRCLE
  5
378
  8
05
 10
154.5391984216
 20
110.6289290365
 30
0.0
 40
2.25
  0
LINE
  5
379
  8
0
  6
BYBLOCK
 62
     4
 10
144.9391984216
 20
124.0684821875
 30
0.0
 11
149.7391984216
 21
124.0684821875
 31
0.0
  0
LINE
  5
37A
  8
0
  6
BYBLOCK
 62
     4
 10
144.9391984216
 20
115.1083625666
 30
0.0
 11
144.9391984216
 21
124.8684821875
 31
0.0
  0
POINT
  5
37B
  8
DEFPOINTS
  6
BYBLOCK
 62
     0
 10
144.9391984216
 20
114.3083625666
 30
0.0
  0
LINE
  5
37C
  8
0
  6
BYBLOCK
 62
     4
 10
146.2391984216
 20
124.0684821875
 30
0.0
 11
142.7391984216
 21
124.0684821875
 31
0.0
  0
SOLID
  5
37D
  8
0
  6
BYBLOCK
 62
     4
 10
141.4391984216
 20
124.6518155208
 30
0.0
 11
141.4391984216
 21
123.4851488541
 31
0.0
 12
144.9391984216
 22
124.0684821875
 32
0.0
 13
144.9391984216
 23
124.0684821875
 33
0.0
  0
LINE
  5
37E
  8
0
  6
BYBLOCK
 62
     4
 10
149.7391984216
 20
116.8719482661
 30
0.0
 11
149.7391984216
 21
124.8684821875
 31
0.0
  0
LINE
  5
37F
  8
0
  6
BYBLOCK
 62
     4
 10
149.7391984216
 20
117.6719482661
 30
0.0
 11
149.7391984216
 21
124.8684821875
 31
0.0
  0
LINE
  5
380
  8
0
  6
BYBLOCK
 62
     4
 10
154.5391984216
 20
115.1083625666
 30
0.0
 11
154.5391984216
 21
124.8684821875
 31
0.0
  0
POINT
  5
381
  8
DEFPOINTS
  6
BYBLOCK
 62
     0
 10
149.7391984216
 20
116.8719482661
 30
0.0
  0
POINT
  5
382
  8
DEFPOINTS
  6
BYBLOCK
 62
     0
 10
149.7391984216
 20
116.0719482661
 30
0.0
  0
POINT
  5
383
  8
DEFPOINTS
  6
BYBLOCK
 62
     0
 10
154.5391984216
 20
114.3083625666
 30
0.0
  0
LINE
  5
384
  8
0
  6
BYBLOCK
 62
     4
 10
149.7391984216
 20
124.0684821875
 30
0.0
 11
154.5391984216
 21
124.0684821875
 31
0.0
  0
POLYLINE
  5
385
  8
BEM1
 66
     1
 10
0.0
 20
0.0
 30
0.0
 70
     1
 40
0.25
 41
0.25
  0
VERTEX
  5
525
  8
BEM1
 10
149.3641984216
 20
124.0684821875
 30
0.0
 42
1.0
  0
VERTEX
  5
526
  8
BEM1
 10
150.1141984216
 20
124.0684821875
 30
0.0
 42
1.0
  0
SEQEND
  5
527
  8
BEM1
  0
POINT
  5
386
  8
DEFPOINTS
  6
BYBLOCK
 62
     0
 10
149.7391984216
 20
124.0684821875
 30
0.0
  0
POINT
  5
387
  8
DEFPOINTS
  6
BYBLOCK
 62
     0
 10
154.5391984216
 20
124.0684821875
 30
0.0
  0
LINE
  5
388
  8
0
  6
BYBLOCK
 62
     4
 10
153.2391984216
 20
124.0684821875
 30
0.0
 11
156.7391984216
 21
124.0684821875
 31
0.0
  0
TEXT
  5
389
  8
MITTE
 10
157.5131868577
 20
112.1452638168
 30
0.0
 40
3.5
  1
2
  7
HELV
  0
POINT
  5
38A
  8
DEFPOINTS
  6
BYBLOCK
 62
     0
 10
158.8331329109
 20
109.2289290365
 30
0.0
  0
LINE
  5
38B
  8
0
  6
BYBLOCK
 62
     4
 10
185.7542541178
 20
112.7289290365
 30
0.0
 11
185.7542541178
 21
118.4262145126
 31
0.0
  0
LINE
  5
38C
  8
0
  6
BYBLOCK
 62
     4
 10
185.7542541178
 20
109.2289290365
 30
0.0
 11
185.7542541178
 21
104.2289290365
 31
0.0
  0
POINT
  5
38D
  8
DEFPOINTS
  6
BYBLOCK
 62
     0
 10
185.7542541178
 20
104.2289290365
 30
0.0
  0
LINE
  5
38E
  8
0
  6
BYBLOCK
 62
     4
 10
185.0508811023
 20
104.2289290365
 30
0.0
 11
186.5542541178
 21
104.2289290365
 31
0.0
  0
LINE
  5
38F
  8
0
  6
BYBLOCK
 62
     4
 10
184.8750383287
 20
109.2289290365
 30
0.0
 11
186.5542541178
 21
109.2289290365
 31
0.0
  0
SOLID
  5
390
  8
0
  6
BYBLOCK
 62
     4
 10
185.1709207844
 20
112.7289290365
 30
0.0
 11
186.3375874511
 21
112.7289290365
 31
0.0
 12
185.7542541178
 22
109.2289290365
 32
0.0
 13
185.7542541178
 23
109.2289290365
 33
0.0
  0
LINE
  5
391
  8
MITTE
  6
CENTER
 10
74.1603763253
 20
228.2687889289
 30
0.0
 11
127.5699602908
 21
228.2687889289
 31
0.0
  0
LINE
  5
392
  8
MITTE
 10
90.1785774725
 20
228.2687889289
 30
0.0
 11
40.1796918651
 21
228.2687889289
 31
0.0
  0
LINE
  5
393
  8
05
 10
75.6685763598
 20
209.356358881
 30
0.0
 11
81.1685763598
 21
209.356358881
 31
0.0
  0
LINE
  5
394
  8
05
 10
75.6685763598
 20
247.1812189768
 30
0.0
 11
81.1685763598
 21
247.1812189768
 31
0.0
  0
LINE
  5
395
  8
0
  6
BYBLOCK
 62
     4
 10
97.666974276
 20
262.5422219794
 30
0.0
 11
43.6796918651
 21
262.5422219794
 31
0.0
  0
TEXT
  8
0
  40
3.5
  5
547
  62
3
  72
0
  71
0
 10
63.6733
 20
259.097
 30
0.000000
  1
12.20 [0.480"]
  0
LINE
  5
397
  8
0
  6
BYBLOCK
 62
     4
 10
43.6796918651
 20
271.7174900487
 30
0.0
 11
120.1659144804
 21
271.7174900487
 31
0.0
  0
TEXT
  8
0
  40
3.5
  5
548
  62
3
  72
0
  71
0
 10
74.9228
 20
268.272
 30
0.000000
  1
16.70 [0.657"]
  0
LINE
  5
399
  8
05
 10
75.6785774725
 20
195.7674688143
 30
0.0
 11
85.1785774725
 21
195.7674688143
 31
0.0
  0
LINE
  5
39A
  8
05
 10
75.6785774725
 20
203.7674688143
 30
0.0
 11
89.6785774725
 21
203.7674688143
 31
0.0
  0
LINE
  5
39B
  8
05
 10
40.1796918651
 20
244.2674676998
 30
0.0
 11
40.1796918651
 21
203.2674688143
 31
0.0
  0
LINE
  5
39C
  8
0
  6
BYBLOCK
 62
     4
 10
15.9471014089
 20
244.7674688143
 30
0.0
 11
15.9471014089
 21
199.2674688143
 31
0.0
  0
TEXT
  8
0
  40
3.5
  5
549
  62
3
  72
0
  71
0
 10
6.19710
 20
215.423
 30
0.000000
  1
10.50 [0.413"]
  0
LINE
  5
39E
  8
025
  6
CENTER
 10
60.1796918651
 20
215.7688035155
 30
0.0
 11
40.1796918651
 21
215.7688035155
 31
0.0
  0
LINE
  5
3A0
  8
05
 10
52.6796918651
 20
223.2688035155
 30
0.0
 11
40.1796918651
 21
223.2688035155
 31
0.0
  0
LINE
  5
3A1
  8
05
 10
40.1796918651
 20
195.7674688143
 30
0.0
 11
49.6796918651
 21
195.7674688143
 31
0.0
  0
LINE
  5
3A2
  8
05
 10
52.6796918651
 20
208.2688035155
 30
0.0
 11
40.1796918651
 21
208.2688035155
 31
0.0
  0
LINE
  5
3A3
  8
0
  6
BYBLOCK
 62
     4
 10
39.3796918651
 20
195.7674688143
 30
0.0
 11
15.1471014089
 21
195.7674688143
 31
0.0
  0
POINT
  5
3A4
  8
DEFPOINTS
  6
BYBLOCK
 62
     0
 10
15.9471014089
 20
195.7674688143
 30
0.0
  0
SOLID
  5
3A5
  8
0
  6
BYBLOCK
 62
     4
 10
15.3637680756
 20
199.2674688143
 30
0.0
 11
16.5304347422
 21
199.2674688143
 31
0.0
 12
15.9471014089
 22
195.7674688143
 32
0.0
 13
15.9471014089
 23
195.7674688143
 33
0.0
  0
LINE
  5
3A6
  8
05
 10
40.1796918651
 20
203.2674688143
 30
0.0
 11
40.1796918651
 21
195.7674688143
 31
0.0
  0
POINT
  5
3A7
  8
DEFPOINTS
  6
BYBLOCK
 62
     0
 10
40.1796918651
 20
195.7674688143
 30
0.0
  0
LINE
  5
3A8
  8
035
 10
40.1796918651
 20
231.1687889289
 30
0.0
 11
21.6796918651
 21
231.1687889289
 31
0.0
  0
LINE
  5
3A9
  8
035
 10
40.1796918651
 20
228.1687889289
 30
0.0
 11
21.6796918651
 21
228.1687889289
 31
0.0
  0
LINE
  5
3AA
  8
035
 10
40.1796918651
 20
221.7687889289
 30
0.0
 11
21.6796918651
 21
221.7687889289
 31
0.0
  0
LINE
  5
3AB
  8
035
 10
40.1796918651
 20
224.7687889289
 30
0.0
 11
21.6796918651
 21
224.7687889289
 31
0.0
  0
LINE
  5
3AC
  8
MITTE
 10
19.3513174182
 20
229.6687889289
 30
0.0
 11
42.2449025895
 21
229.6687889289
 31
0.0
  0
LINE
  5
3AD
  8
MITTE
 10
19.3513174182
 20
223.2687889289
 30
0.0
 11
42.0673931762
 21
223.2687889289
 31
0.0
  0
ARC
  5
3AE
  8
035
 10
21.6796918651
 20
229.6687889289
 30
0.0
 40
1.5
 50
90.0
 51
270.0
  0
ARC
  5
3AF
  8
035
 10
21.6796918651
 20
223.2687889289
 30
0.0
 40
1.5
 50
90.0
 51
270.0
  0
ARC
  5
3B0
  8
05
 10
52.6796918651
 20
215.7688035155
 30
0.0
 40
7.5
 50
270.0
 51
90.0
  0
LINE
  5
3B1
  8
05
 10
66.1796918651
 20
227.7687900471
 30
0.0
 11
66.1796918651
 21
204.2674688143
 31
0.0
  0
LINE
  5
3B2
  8
05
  6
CENTER
 62
     4
 10
52.6796918651
 20
225.2675702415
 30
0.0
 11
52.6796918651
 21
206.3100124836
 31
0.0
  0
LINE
  5
3B3
  8
05
 10
50.6796905909
 20
198.7674688143
 30
0.0
 11
74.6785774725
 21
198.7674688143
 31
0.0
  0
ARC
  5
3B4
  8
05
 10
50.6796918651
 20
198.2674688143
 30
0.0
 40
0.5
 50
90.0
 51
180.0
  0
ARC
  5
3B5
  8
05
 10
49.6796918651
 20
196.2674688143
 30
0.0
 40
0.5
 50
270.0
 51
0.0
  0
LINE
  5
3B6
  8
05
 10
50.1796918651
 20
198.2674688143
 30
0.0
 11
50.1796918651
 21
196.2674688143
 31
0.0
  0
LINE
  5
3B7
  8
05
 10
75.1785774725
 20
211.2674704672
 30
0.0
 11
75.1785774725
 21
204.2674688143
 31
0.0
  0
LINE
  5
3B8
  8
05
 10
66.6796918651
 20
203.7674688143
 30
0.0
 11
75.678577138
 21
203.7674688143
 31
0.0
  0
ARC
  5
3B9
  8
05
 10
66.6796918651
 20
204.2674688143
 30
0.0
 40
0.5
 50
180.0
 51
270.0
  0
ARC
  5
3BA
  8
05
 10
74.6785774725
 20
198.2674688143
 30
0.0
 40
0.5
 50
0.0
 51
90.0
  0
ARC
  5
3BB
  8
05
 10
75.6785774725
 20
196.2674688143
 30
0.0
 40
0.5
 50
180.0
 51
270.0
  0
LINE
  5
3BC
  8
05
 10
75.1785774725
 20
198.2674688143
 30
0.0
 11
75.1785774725
 21
196.2674688143
 31
0.0
  0
ARC
  5
3BD
  8
05
 10
75.6785774725
 20
204.2674688143
 30
0.0
 40
0.5
 50
180.0
 51
270.0
  0
ARC
  5
3BE
  8
05
 10
75.6785774725
 20
204.2674688143
 30
0.0
 40
0.5
 50
180.0
 51
270.0
  0
LINE
  5
3BF
  8
05
 62
     4
 10
67.1675203893
 20
211.7674688143
 30
0.0
 11
74.8883143186
 21
211.7674688143
 31
0.0
  0
POLYLINE
  5
3C0
  8
05
 66
     1
 10
0.0
 20
0.0
 30
0.0
  0
VERTEX
  5
528
  8
05
 10
75.1785774725
 20
209.2601287039
 30
0.0
 42
-0.0804764421
  0
VERTEX
  5
529
  8
05
 10
75.1886366074
 20
209.2685459794
 30
0.0
 42
-0.0738395978
  0
VERTEX
  5
52A
  8
05
 10
75.3150229692
 20
209.3203131415
 30
0.0
 42
-0.0349483922
  0
VERTEX
  5
52B
  8
05
 10
75.462738636
 20
209.3458931461
 30
0.0
 42
-0.0254058864
  0
VERTEX
  5
52C
  8
05
 10
75.6685763598
 20
209.356358881
 30
0.0
 42
-0.0254058864
  0
SEQEND
  5
52D
  8
05
  0
ARC
  5
3C1
  8
05
 10
75.6785774725
 20
211.2674688143
 30
0.0
 40
0.5
 50
90.0
 51
180.0
  0
ARC
  5
3C2
  8
05
 10
66.6796918651
 20
227.7687889289
 30
0.0
 40
0.5
 50
90.0
 51
180.0
  0
LINE
  5
3C3
  8
05
 10
75.1686127021
 20
248.2674688143
 30
0.0
 11
40.1796918651
 21
248.2674688143
 31
0.0
  0
LINE
  5
3C4
  8
0
  6
BYBLOCK
 62
     4
 10
40.1796918651
 20
249.0674688143
 30
0.0
 11
40.1796918651
 21
272.5174900487
 31
0.0
  0
LINE
  5
3C5
  8
0
  6
BYBLOCK
 62
     4
 10
39.3796918651
 20
248.2674688143
 30
0.0
 11
15.1471014089
 21
248.2674688143
 31
0.0
  0
SOLID
  5
3C6
  8
0
  6
BYBLOCK
 62
     4
 10
15.3637680756
 20
244.7674688143
 30
0.0
 11
16.5304347422
 21
244.7674688143
 31
0.0
 12
15.9471014089
 22
248.2674688143
 32
0.0
 13
15.9471014089
 23
248.2674688143
 33
0.0
  0
LINE
  5
3C7
  8
05
 10
40.1796918651
 20
248.2674688143
 30
0.0
 11
40.1796918651
 21
244.2674688143
 31
0.0
  0
SOLID
  5
3C8
  8
0
  6
BYBLOCK
 62
     4
 10
43.6796918651
 20
263.1255553128
 30
0.0
 11
43.6796918651
 21
261.9588886461
 31
0.0
 12
40.1796918651
 22
262.5422219794
 32
0.0
 13
40.1796918651
 23
262.5422219794
 33
0.0
  0
SOLID
  5
3C9
  8
0
  6
BYBLOCK
 62
     4
 10
43.6796918651
 20
272.300823382
 30
0.0
 11
43.6796918651
 21
271.1341567153
 31
0.0
 12
40.1796918651
 22
271.7174900487
 32
0.0
 13
40.1796918651
 23
271.7174900487
 33
0.0
  0
LINE
  5
3CA
  8
05
 10
75.1686127021
 20
247.3025607187
 30
0.0
 11
75.1686127021
 21
248.2674688143
 31
0.0
  0
POLYLINE
  5
3CB
  8
05
 66
     1
 10
0.0
 20
0.0
 30
0.0
  0
VERTEX
  5
52E
  8
05
 10
75.1686127021
 20
247.3025607187
 30
0.0
 42
0.2533540707
  0
VERTEX
  5
52F
  8
05
 10
75.1886366074
 20
247.2690318783
 30
0.0
 42
0.0738395978
  0
VERTEX
  5
530
  8
05
 10
75.3150229692
 20
247.2172647163
 30
0.0
 42
0.0349483922
  0
VERTEX
  5
531
  8
05
 10
75.462738636
 20
247.1916847116
 30
0.0
 42
0.0254058864
  0
VERTEX
  5
532
  8
05
 10
75.6685763598
 20
247.1812189768
 30
0.0
 42
0.0254058864
  0
SEQEND
  5
533
  8
05
  0
LINE
  5
3CC
  8
0
  6
BYBLOCK
 62
     4
 10
135.2813102509
 20
242.2679646434
 30
0.0
 11
135.2813102509
 21
214.2696132144
 31
0.0
  0
LINE
  5
3CD
  8
05
 10
185.6799458357
 20
248.2687889289
 30
0.0
 11
197.2269512195
 21
228.2687889289
 31
0.0
  0
LINE
  5
3CE
  8
05
 10
151.0389296843
 20
228.2687889289
 30
0.0
 11
162.5859350681
 21
248.2687889289
 31
0.0
  0
LINE
  5
3CF
  8
0
  6
BYBLOCK
 62
     4
 10
150.6389296843
 20
228.9616092519
 30
0.0
 11
140.5733243343
 21
246.3957491271
 31
0.0
  0
ARC
  5
3D0
  8
05
 62
     4
 10
174.1329404519
 20
228.2687889289
 30
0.0
 40
15.965
 50
110.022995352
 51
10.2317016165
  0
ARC
  5
3D1
  8
05
 10
174.1329404519
 20
228.2687889289
 30
0.0
 40
17.5
 50
121.0027191339
 51
58.9972808661
  0
ARC
  5
3D2
  8
05
 10
174.1329404519
 20
228.2687889289
 30
0.0
 40
15.0
 50
280.3874921506
 51
259.6125078494
  0
ARC
  5
3D3
  8
035
 10
109.8039215015
 20
245.5892970046
 30
0.0
 40
9.3711544529
 50
321.9686171436
 51
0.0
  0
LINE
  5
3D4
  8
05
 10
123.6659144804
 20
243.2679646434
 30
0.0
 11
123.6659144804
 21
213.7694719083
 31
0.0
  0
LINE
  5
3D5
  8
05
 10
119.1750759543
 20
245.5892970046
 30
0.0
 11
119.1750759543
 21
210.9482808532
 31
0.0
  0
LINE
  5
3D6
  8
05
 10
121.1660322354
 20
210.7696132144
 30
0.0
 11
121.1660322354
 21
243.2679646434
 31
0.0
  0
LINE
  5
3D7
  8
05
 10
90.6679163166
 20
209.2697309694
 30
0.0
 11
90.6679163166
 21
247.2678468883
 31
0.0
  0
LINE
  5
3D8
  8
05
 10
106.1667387659
 20
243.2679646434
 30
0.0
 11
106.1667387659
 21
210.7696132144
 31
0.0
  0
LINE
  5
3D9
  8
07
 62
     2
 10
90.1785774725
 20
247.7674688143
 30
0.0
 11
90.1785774725
 21
208.7674688143
 31
0.0
  0
LINE
  5
3DB
  8
05
 10
106.6750759543
 20
245.5892970046
 30
0.0
 11
106.6750759543
 21
210.9482820284
 31
0.0
  0
ARC
  5
3DC
  8
035
 10
116.0462304072
 20
245.5892970046
 30
0.0
 40
9.3711544529
 50
180.0
 51
218.0313828564
  0
LINE
  5
3DD
  8
025
  6
CENTER
 10
174.1329404519
 20
249.9822552686
 30
0.0
 11
174.1329404519
 21
193.7584338419
 31
0.0
  0
LINE
  5
3DE
  8
05
 62
     2
 10
101.166974276
 20
208.2697309694
 30
0.0
 11
101.166974276
 21
248.2678468883
 31
0.0
  0
LINE
  5
3DF
  8
05
 10
91.6679163166
 20
248.2678468883
 30
0.0
 11
91.6679163166
 21
208.2697309694
 31
0.0
  0
CIRCLE
  5
3E0
  8
025
 10
174.1329404519
 20
228.2687889289
 30
0.0
 40
19.9990579594
  0
LINE
  5
3E1
  8
05
 10
85.1785774725
 20
195.7674688143
 30
0.0
 11
85.1785774725
 21
191.7674688143
 31
0.0
  0
LINE
  5
3E2
  8
05
 10
80.1785774725
 20
195.7674688143
 30
0.0
 11
80.1785774725
 21
191.7674688143
 31
0.0
  0
LINE
  5
3E3
  8
05
  6
CENTER
 62
     4
 10
82.6785774725
 20
195.7674688143
 30
0.0
 11
82.6785774725
 21
190.7674688143
 31
0.0
  0
LINE
  5
3E4
  8
05
 10
84.1785774725
 20
190.7674688143
 30
0.0
 11
85.1785774725
 21
191.7674688143
 31
0.0
  0
LINE
  5
3E5
  8
05
 10
80.1785774725
 20
191.7674688143
 30
0.0
 11
85.1785774725
 21
191.7674688143
 31
0.0
  0
LINE
  5
3E6
  8
05
 10
80.1785774725
 20
191.7674688143
 30
0.0
 11
81.1785774725
 21
190.7674688143
 31
0.0
  0
LINE
  5
3E7
  8
05
 10
81.1785774725
 20
190.7674688143
 30
0.0
 11
84.1785774725
 21
190.7674688143
 31
0.0
  0
LINE
  5
3E8
  8
035
 10
117.1853307467
 20
239.8157943127
 30
0.0
 11
108.6648211619
 21
239.8157943127
 31
0.0
  0
LINE
  5
3E9
  8
035
 10
117.1853307467
 20
216.7217835451
 30
0.0
 11
108.6648211619
 21
216.7217835451
 31
0.0
  0
LINE
  5
3EA
  8
05
 10
117.1853307467
 20
205.1747781613
 30
0.0
 11
108.6648211619
 21
205.1747781613
 31
0.0
  0
ARC
  5
3EB
  8
035
 10
141.1750759543
 20
228.2687889289
 30
0.0
 40
34.5
 50
160.4459587332
 51
199.5540412668
  0
LINE
  5
3EC
  8
05
 10
101.166974276
 20
208.2697309694
 30
0.0
 11
91.6679163166
 21
208.2697309694
 31
0.0
  0
LINE
  5
3ED
  8
05
 10
90.1785774725
 20
203.2674688143
 30
0.0
 11
90.1785774725
 21
199.2674688143
 31
0.0
  0
LINE
  5
3EE
  8
05
 10
85.1785774725
 20
195.7674688143
 30
0.0
 11
89.6785774725
 21
195.7674688143
 31
0.0
  0
ARC
  5
3EF
  8
05
 10
89.6785774725
 20
196.2674688143
 30
0.0
 40
0.5
 50
270.0
 51
0.0
  0
LINE
  5
3F0
  8
05
 10
90.1785774725
 20
199.2674670557
 30
0.0
 11
90.1785774725
 21
196.2674688143
 31
0.0
  0
ARC
  5
3F1
  8
05
 10
89.6785774725
 20
203.2674688143
 30
0.0
 40
0.5
 50
0.0
 51
90.0
  0
LINE
  5
3F2
  8
05
 10
89.6785774725
 20
208.2674688143
 30
0.0
 11
82.6685774725
 21
208.2674688143
 31
0.0
  0
POLYLINE
  5
3F3
  8
05
 66
     1
 10
0.0
 20
0.0
 30
0.0
  0
VERTEX
  5
534
  8
05
 10
81.1685774725
 20
209.3563948858
 30
0.0
 42
-0.0309607329
  0
VERTEX
  5
535
  8
05
 10
81.7842891854
 20
209.3182325329
 30
0.0
 42
-0.0420353842
  0
VERTEX
  5
536
  8
05
 10
82.2292376443
 20
209.2244065367
 30
0.0
 42
-0.0841103057
  0
VERTEX
  5
537
  8
05
 10
82.5995553949
 20
209.0410845103
 30
0.0
 42
-0.2402959437
  0
VERTEX
  5
538
  8
05
 10
82.6685774725
 20
208.9057584742
 30
0.0
 42
-0.2402959437
  0
SEQEND
  5
539
  8
05
  0
LINE
  5
3F4
  8
05
 10
82.6685774725
 20
208.9057584742
 30
0.0
 11
82.6685774725
 21
208.2674688143
 31
0.0
  0
LINE
  5
3F5
  8
05
 10
91.6679163166
 20
208.2697309694
 30
0.0
 11
90.6679163166
 21
209.2697309694
 31
0.0
  0
ARC
  5
3F6
  8
05
 10
89.6785774725
 20
208.7674688143
 30
0.0
 40
0.5
 50
270.0
 51
0.0
  0
LINE
  5
3F7
  8
05
 10
90.6679163166
 20
212.7687889289
 30
0.0
 11
90.1785774725
 21
212.7687889289
 31
0.0
  0
ARC
  5
3F8
  8
05
 10
116.0462304072
 20
210.9482808532
 30
0.0
 40
9.3711544529
 50
180.0
 51
218.0313828564
  0
ARC
  5
3F9
  8
035
 10
116.0462304072
 20
210.9482808532
 30
0.0
 40
9.3711544529
 50
141.9686171436
 51
180.0
  0
LINE
  5
3FA
  8
05
 62
     2
 10
106.6767793211
 20
210.7696132144
 30
0.0
 11
101.166974276
 21
210.7696132144
 31
0.0
  0
LINE
  5
3FB
  8
025
 10
106.1667387659
 20
212.7695190103
 30
0.0
 11
106.6750759543
 21
212.7695190103
 31
0.0
  0
ARC
  5
3FC
  8
035
 10
84.6750759543
 20
228.2687889289
 30
0.0
 40
34.5
 50
340.4459587332
 51
19.5540412668
  0
LINE
  5
3FD
  8
0
  6
BYBLOCK
 62
     4
 10
121.9660322354
 20
210.7696132144
 30
0.0
 11
136.0813102509
 21
210.7696132144
 31
0.0
  0
ARC
  5
3FE
  8
05
 10
109.8039215015
 20
210.9482808532
 30
0.0
 40
9.3711544529
 50
321.9686171436
 51
0.0
  0
LINE
  5
3FF
  8
05
 10
121.1660322354
 20
210.7696132144
 30
0.0
 11
123.4159027049
 21
213.0194836838
 31
0.0
  0
ARC
  5
400
  8
035
 10
109.8039215015
 20
210.9482808532
 30
0.0
 40
9.3711544529
 50
0.0
 51
38.0313828564
  0
LINE
  5
401
  8
05
 62
     2
 10
121.1660322354
 20
210.7696132144
 30
0.0
 11
119.1733725875
 21
210.7696132144
 31
0.0
  0
POINT
  5
402
  8
DEFPOINTS
  6
BYBLOCK
 62
     0
 10
121.1660322354
 20
210.7696132144
 30
0.0
  0
LINE
  5
403
  8
025
 10
119.1750759543
 20
212.7695190103
 30
0.0
 11
123.1659380314
 21
212.7695190103
 31
0.0
  0
ARC
  5
404
  8
05
 10
124.3874899346
 20
212.786883313
 30
0.0
 40
0.9990418797
 50
136.242005943
 51
166.5366431232
  0
LINE
  5
405
  8
05
 10
123.6659144804
 20
213.7694719083
 30
0.0
 11
123.6659144804
 21
213.4778344989
 31
0.0
  0
SOLID
  5
406
  8
0
  6
BYBLOCK
 62
     4
 10
134.6979769176
 20
214.2696132144
 30
0.0
 11
135.8646435843
 21
214.2696132144
 31
0.0
 12
135.2813102509
 22
210.7696132144
 32
0.0
 13
135.2813102509
 23
210.7696132144
 33
0.0
  0
POINT
  5
407
  8
DEFPOINTS
  6
BYBLOCK
 62
     0
 10
135.2813102509
 20
210.7696132144
 30
0.0
  0
TEXT
  8
0
  40
3.5
  5
54A
  62
3
  72
0
  71
0
 10
125.531
 20
222.074
 30
0.000000
  1
M7x0.5
  0
LINE
  5
409
  8
05
 10
189.1329404519
 20
195.7687889289
 30
0.0
 11
189.1329404519
 21
191.7687889289
 31
0.0
  0
LINE
  5
40A
  8
05
 10
184.1329404519
 20
195.7687889289
 30
0.0
 11
184.1329404519
 21
191.7687889289
 31
0.0
  0
LINE
  5
40B
  8
05
  6
CENTER
 62
     4
 10
186.6329404519
 20
195.7687889289
 30
0.0
 11
186.6329404519
 21
189.7787541903
 31
0.0
  0
LINE
  5
40C
  8
0
  6
BYBLOCK
 62
     4
 10
199.3829404519
 20
207.4687889289
 30
0.0
 11
199.3829404519
 21
177.1873022649
 31
0.0
  0
LINE
  5
40D
  8
05
 10
164.1329404519
 20
195.7687889289
 30
0.0
 11
164.1329404519
 21
191.7687889289
 31
0.0
  0
LINE
  5
40E
  8
05
 10
159.1329404519
 20
195.7687889289
 30
0.0
 11
159.1329404519
 21
191.7687889289
 31
0.0
  0
LINE
  5
40F
  8
05
  6
CENTER
 62
     4
 10
161.6329404519
 20
195.7687889289
 30
0.0
 11
161.6329404519
 21
189.7787534988
 31
0.0
  0
LINE
  5
410
  8
0
  6
BYBLOCK
 62
     4
 10
148.8829404519
 20
207.4687889289
 30
0.0
 11
148.8829404519
 21
177.1873022649
 31
0.0
  0
LINE
  5
411
  8
0
  6
BYBLOCK
 62
     4
 10
152.3829404519
 20
177.9873022649
 30
0.0
 11
195.8829404519
 21
177.9873022649
 31
0.0
  0
TEXT
  8
0
  40
3.5
  5
54B
  62
3
  72
0
  71
0
 10
167.133
 20
174.542
 30
0.000000
  1
10.10 [0.398"]
  0
SOLID
  5
413
  8
0
  6
BYBLOCK
 62
     4
 10
152.3829404519
 20
178.5706355982
 30
0.0
 11
152.3829404519
 21
177.4039689316
 31
0.0
 12
148.8829404519
 22
177.9873022649
 32
0.0
 13
148.8829404519
 23
177.9873022649
 33
0.0
  0
LINE
  5
414
  8
05
 10
160.1329404519
 20
190.7687889289
 30
0.0
 11
163.1329404519
 21
190.7687889289
 31
0.0
  0
LINE
  5
415
  8
05
 10
159.1329404519
 20
191.7687889289
 30
0.0
 11
164.1329404519
 21
191.7687889289
 31
0.0
  0
LINE
  5
416
  8
05
 10
159.1329404519
 20
191.7687889289
 30
0.0
 11
160.1329404519
 21
190.7687889289
 31
0.0
  0
LINE
  5
417
  8
05
 10
164.1329404519
 20
191.7687889289
 30
0.0
 11
163.1329404519
 21
190.7687889289
 31
0.0
  0
LINE
  5
418
  8
05
 10
189.1329404519
 20
191.7687889289
 30
0.0
 11
188.1329404519
 21
190.7687889289
 31
0.0
  0
LINE
  5
419
  8
05
 10
184.1329404519
 20
191.7687889289
 30
0.0
 11
189.1329404519
 21
191.7687889289
 31
0.0
  0
LINE
  5
41A
  8
05
 10
184.1329404519
 20
191.7687889289
 30
0.0
 11
185.1329404519
 21
190.7687889289
 31
0.0
  0
LINE
  5
41B
  8
05
 10
185.1329404519
 20
190.7687889289
 30
0.0
 11
188.1329404519
 21
190.7687889289
 31
0.0
  0
SOLID
  5
41C
  8
0
  6
BYBLOCK
 62
     4
 10
195.8829404519
 20
178.5706355982
 30
0.0
 11
195.8829404519
 21
177.4039689316
 31
0.0
 12
199.3829404519
 22
177.9873022649
 32
0.0
 13
199.3829404519
 23
177.9873022649
 33
0.0
  0
POINT
  5
41D
  8
DEFPOINTS
  6
BYBLOCK
 62
     0
 10
199.3829404519
 20
177.9873022649
 30
0.0
  0
ARC
  5
41E
  8
05
 10
174.1329404519
 20
228.2687889289
 30
0.0
 40
9.5
 50
250.1547708269
 51
289.8452291731
  0
LINE
  5
41F
  8
MITTE
 10
171.6329404519
 20
223.2687889289
 30
0.0
 11
176.6329404519
 21
223.2687889289
 31
0.0
  0
ARC
  5
420
  8
05
 10
174.1329404519
 20
224.2687889289
 30
0.0
 40
10.0
 50
64.6230664748
 51
115.3769335252
  0
ARC
  5
421
  8
05
 10
174.1329404519
 20
228.2687889289
 30
0.0
 40
8.5
 50
126.0318790725
 51
53.9681209275
  0
CIRCLE
  5
422
  8
VERDECKT
  6
DASHED
 10
174.1329404519
 20
223.2687889289
 30
0.0
 40
2.5
  0
CIRCLE
  5
426
  8
05
 10
174.1329404519
 20
223.2687889289
 30
0.0
 40
1.25
  0
LINE
  5
427
  8
05
 10
172.0116201084
 20
215.7387889289
 30
0.0
 11
176.2542607955
 21
215.7387889289
 31
0.0
  0
LINE
  5
428
  8
025
  6
CENTER
 10
198.3220833533
 20
228.2687889289
 30
0.0
 11
149.7887827574
 21
228.2687889289
 31
0.0
  0
LINE
  5
429
  8
05
 10
177.6317750547
 20
218.7687889289
 30
0.0
 11
170.6341058491
 21
218.7687889289
 31
0.0
  0
LINE
  5
42A
  8
05
 10
171.5834306951
 20
214.7387889289
 30
0.0
 11
176.6824502087
 21
214.7387889289
 31
0.0
  0
LINE
  5
42B
  8
05
 10
176.8686487697
 20
217.7687889289
 30
0.0
 11
171.3972321341
 21
217.7687889289
 31
0.0
  0
ARC
  5
42C
  8
05
 10
174.1329404519
 20
217.4194719083
 30
0.0
 40
3.75
 50
149.3185341663
 51
30.6814658337
  0
ARC
  5
42D
  8
05
 10
174.0889178752
 20
220.4130345364
 30
0.0
 40
7.3936819107
 50
248.9096191028
 51
292.7754139915
  0
ARC
  5
42E
  8
05
 10
174.1329404519
 20
228.2687889289
 30
0.0
 40
13.0
 50
290.5425360191
 51
249.4574639809
  0
ARC
  5
42F
  8
05
 10
174.1329404519
 20
228.2687889289
 30
0.0
 40
12.0
 50
287.9075434803
 51
252.0924565197
  0
ARC
  5
430
  8
05
 10
174.1329404519
 20
232.0187889289
 30
0.0
 40
8.25
 50
7.545479735
 51
172.454520265
  0
LINE
  5
431
  8
05
 10
161.132939248
 20
203.7687889289
 30
0.0
 11
187.1329395133
 21
203.7687889289
 31
0.0
  0
LINE
  5
432
  8
05
 10
167.6329404519
 20
198.7687889289
 30
0.0
 11
180.6329404519
 21
198.7687889289
 31
0.0
  0
LINE
  5
433
  8
05
 10
185.6799458357
 20
208.2687889289
 30
0.0
 11
162.5859350681
 21
208.2687889289
 31
0.0
  0
LINE
  5
434
  8
05
 10
170.6256410825
 20
218.7466309542
 30
0.0
 11
171.3972321341
 21
217.7687889289
 31
0.0
  0
LINE
  5
435
  8
05
 10
150.8829404519
 20
223.2687889289
 30
0.0
 11
150.8829404519
 21
208.2687889289
 31
0.0
  0
LINE
  5
436
  8
05
 10
148.8829404519
 20
223.2687889289
 30
0.0
 11
148.8829404519
 21
208.2687889289
 31
0.0
  0
LINE
  5
437
  8
05
 10
154.1329404519
 20
222.9098050802
 30
0.0
 11
154.1329404519
 21
202.2687899216
 31
0.0
  0
LINE
  5
438
  8
05
 10
162.5859350681
 20
208.2687889289
 30
0.0
 11
151.0389296843
 21
228.2687889289
 31
0.0
  0
LINE
  5
439
  8
05
 10
154.6329404519
 20
195.7687889289
 30
0.0
 11
168.6329404519
 21
195.7687889289
 31
0.0
  0
LINE
  5
43A
  8
05
 10
154.6329404519
 20
203.7687889289
 30
0.0
 11
161.1329404519
 21
203.7687889289
 31
0.0
  0
LINE
  5
43B
  8
05
 10
154.1329404519
 20
203.2687889289
 30
0.0
 11
154.1329404519
 21
196.2687889289
 31
0.0
  0
ARC
  5
43C
  8
05
 10
154.6329404519
 20
196.2687889289
 30
0.0
 40
0.5
 50
180.0
 51
270.0
  0
ARC
  5
43D
  8
05
 10
154.6329404519
 20
203.2687889289
 30
0.0
 40
0.5
 50
90.0
 51
180.0
  0
LINE
  5
43E
  8
025
  6
CENTER
 10
154.1329404519
 20
215.7687889289
 30
0.0
 11
148.0031238064
 21
215.7687889289
 31
0.0
  0
LINE
  5
43F
  8
05
 10
150.8829404519
 20
208.2687889289
 30
0.0
 11
148.8829404519
 21
208.2687889289
 31
0.0
  0
POINT
  5
440
  8
DEFPOINTS
  6
BYBLOCK
 62
     0
 10
148.8829404519
 20
208.2687889289
 30
0.0
  0
LINE
  5
441
  8
05
 10
150.8829404519
 20
210.7687889289
 30
0.0
 11
154.1329404519
 21
210.7687889289
 31
0.0
  0
LINE
  5
442
  8
05
 10
167.6329404519
 20
208.2687889289
 30
0.0
 11
167.6329404519
 21
203.7687889289
 31
0.0
  0
LINE
  5
443
  8
05
 10
162.6329404519
 20
205.2687889289
 30
0.0
 11
162.6329404519
 21
208.2687889289
 31
0.0
  0
ARC
  5
444
  8
05
 10
161.1329404519
 20
205.2687889289
 30
0.0
 40
1.5
 50
270.0
 51
0.0
  0
LINE
  5
445
  8
05
 10
167.6888330255
 20
195.7687889289
 30
0.0
 11
172.6329404519
 21
195.7687889289
 31
0.0
  0
ARC
  5
446
  8
05
 10
167.1329404519
 20
196.2687889289
 30
0.0
 40
0.5
 50
270.0
 51
0.0
  0
LINE
  5
447
  8
05
 10
167.6329404519
 20
198.7687889289
 30
0.0
 11
167.6329404519
 21
196.2687889289
 31
0.0
  0
LINE
  5
448
  8
05
 10
172.6329404519
 20
198.7687889289
 30
0.0
 11
172.6329404519
 21
195.7687889289
 31
0.0
  0
LINE
  5
449
  8
05
 10
170.4255383127
 20
216.855850246
 30
0.0
 11
169.5712058185
 21
216.0954337162
 31
0.0
  0
ARC
  5
44A
  8
05
 10
174.1329404519
 20
217.4194719083
 30
0.0
 40
4.75
 50
196.185309659
 51
235.2928306949
  0
ARC
  5
44B
  8
05
 10
174.1329404519
 20
217.4887889289
 30
0.0
 40
2.75
 50
174.1561208938
 51
219.5211963587
  0
LINE
  5
44C
  8
05
 10
172.0116201084
 20
215.7387889289
 30
0.0
 11
171.5834306951
 21
214.7387889289
 31
0.0
  0
LINE
  5
44D
  8
05
 10
148.8829404519
 20
223.2687889289
 30
0.0
 11
150.8829404519
 21
223.2687889289
 31
0.0
  0
LINE
  5
44E
  8
05
 10
150.8829404519
 20
220.7687889289
 30
0.0
 11
154.1329404519
 21
220.7687889289
 31
0.0
  0
POINT
  5
44F
  8
DEFPOINTS
  6
BYBLOCK
 62
     0
 10
151.0389296843
 20
228.2687889289
 30
0.0
  0
CIRCLE
  5
450
  8
05
 10
169.3329404519
 20
229.6687889289
 30
0.0
 40
1.25
  0
LINE
  5
451
  8
MITTE
 10
169.3329404519
 20
232.1687889289
 30
0.0
 11
169.3329404519
 21
227.1687889289
 31
0.0
  0
CIRCLE
  5
452
  8
VERDECKT
  6
DASHED
 10
169.3329404519
 20
229.6687889289
 30
0.0
 40
2.5
  0
ARC
  5
453
  8
05
 10
174.1329404519
 20
228.2687889289
 30
0.0
 40
9.5
 50
149.4179368228
 51
250.1547708269
  0
LINE
  5
454
  8
MITTE
 10
171.8329404519
 20
229.6687889289
 30
0.0
 11
166.8329404519
 21
229.6687889289
 31
0.0
  0
LINE
  5
455
  8
05
 10
169.1329404519
 20
233.7556219094
 30
0.0
 11
169.1329404519
 21
236.9182108749
 31
0.0
  0
LINE
  5
456
  8
05
 10
167.6329404519
 20
235.1969921591
 30
0.0
 11
167.6329404519
 21
236.5791739982
 31
0.0
  0
ARC
  5
457
  8
05
 10
174.1329404519
 20
228.2687889289
 30
0.0
 40
9.5
 50
133.1735511073
 51
149.4179368228
  0
ARC
  5
458
  8
05
 10
169.6329404519
 20
233.7556219094
 30
0.0
 40
0.5
 50
180.0
 51
295.3769335252
  0
ARC
  5
459
  8
05
 10
168.6329404519
 20
236.9182108749
 30
0.0
 40
0.5
 50
0.0
 51
122.4514910281
  0
ARC
  5
45A
  8
05
 10
168.1329404519
 20
236.5791739982
 30
0.0
 40
0.5
 50
125.8288401004
 51
180.0
  0
ARC
  5
45B
  8
05
 10
174.1329404519
 20
228.2687889289
 30
0.0
 40
10.75
 50
122.4514910281
 51
125.8288401004
  0
ARC
  5
45C
  8
05
 10
174.1329404519
 20
228.2687889289
 30
0.0
 40
10.75
 50
125.8288405165
 51
130.2204244339
  0
LINE
  5
45D
  8
05
 10
176.8686487697
 20
217.7687889289
 30
0.0
 11
177.6402398213
 21
218.7466309542
 31
0.0
  0
LINE
  5
45E
  8
05
 10
197.3829404519
 20
223.2687889289
 30
0.0
 11
197.3829404519
 21
208.2687889289
 31
0.0
  0
LINE
  5
45F
  8
05
 10
199.3829404519
 20
223.2687889289
 30
0.0
 11
199.3829404519
 21
208.2687889289
 31
0.0
  0
LINE
  5
460
  8
05
 10
194.1329404519
 20
222.9098050802
 30
0.0
 11
194.1329404519
 21
202.2687889289
 31
0.0
  0
LINE
  5
461
  8
05
 10
197.2269512195
 20
228.2687889289
 30
0.0
 11
185.6799458357
 21
208.2687889289
 31
0.0
  0
LINE
  5
462
  8
05
 10
179.6329404519
 20
195.7687889289
 30
0.0
 11
193.6329404519
 21
195.7687889289
 31
0.0
  0
LINE
  5
463
  8
05
 10
187.1329404519
 20
203.7687889289
 30
0.0
 11
193.6329404519
 21
203.7687889289
 31
0.0
  0
LINE
  5
464
  8
05
 10
185.6329404519
 20
208.2687889289
 30
0.0
 11
185.6329404519
 21
205.2687889289
 31
0.0
  0
LINE
  5
465
  8
05
 10
180.6329404519
 20
203.7687889289
 30
0.0
 11
180.6329404519
 21
208.2687889289
 31
0.0
  0
ARC
  5
466
  8
05
 10
181.1329404519
 20
196.2687889289
 30
0.0
 40
0.5
 50
180.0
 51
270.0
  0
LINE
  5
467
  8
05
 10
175.6329404519
 20
195.7687889289
 30
0.0
 11
180.6164864886
 21
195.7687889289
 31
0.0
  0
LINE
  5
468
  8
05
 10
175.6329404519
 20
198.7687889289
 30
0.0
 11
175.6329404519
 21
195.7687889289
 31
0.0
  0
LINE
  5
469
  8
05
 10
180.6329404519
 20
198.7687889289
 30
0.0
 11
180.6329404519
 21
196.2687889289
 31
0.0
  0
ARC
  5
46A
  8
05
 10
187.1329404519
 20
205.2687889289
 30
0.0
 40
1.5
 50
180.0
 51
270.0
  0
ARC
  5
46B
  8
05
 10
174.1329404519
 20
217.4887889289
 30
0.0
 40
2.75
 50
320.4788036413
 51
5.8438791062
  0
ARC
  5
46C
  8
05
 10
174.1329404519
 20
217.4194719083
 30
0.0
 40
4.75
 50
304.7071693051
 51
343.814690341
  0
LINE
  5
46D
  8
05
 10
176.2542607955
 20
215.7387889289
 30
0.0
 11
176.6824502087
 21
214.7387889289
 31
0.0
  0
LINE
  5
46E
  8
05
 10
178.6946750854
 20
216.0954337162
 30
0.0
 11
177.8403425911
 21
216.855850246
 31
0.0
  0
LINE
  5
46F
  8
05
 10
194.1329404519
 20
203.2687889289
 30
0.0
 11
194.1329404519
 21
196.2687889289
 31
0.0
  0
ARC
  5
470
  8
05
 10
193.6329404519
 20
196.2687889289
 30
0.0
 40
0.5
 50
270.0
 51
0.0
  0
ARC
  5
471
  8
05
 10
193.6329404519
 20
203.2687889289
 30
0.0
 40
0.5
 50
0.0
 51
90.0
  0
LINE
  5
472
  8
05
 10
197.3829404519
 20
210.7687889289
 30
0.0
 11
194.1329404519
 21
210.7687889289
 31
0.0
  0
LINE
  5
473
  8
025
  6
CENTER
 10
200.5926882723
 20
215.7687889289
 30
0.0
 11
194.1329404519
 21
215.7687889289
 31
0.0
  0
LINE
  5
474
  8
05
 10
199.3829404519
 20
208.2687889289
 30
0.0
 11
197.3829404519
 21
208.2687889289
 31
0.0
  0
POINT
  5
475
  8
DEFPOINTS
  6
BYBLOCK
 62
     0
 10
199.3829404519
 20
208.2687889289
 30
0.0
  0
CIRCLE
  5
476
  8
05
 10
178.9329404519
 20
229.6687889289
 30
0.0
 40
1.25
  0
LINE
  5
477
  8
MITTE
 10
178.9329404519
 20
232.1687889289
 30
0.0
 11
178.9329404519
 21
227.1687889289
 31
0.0
  0
CIRCLE
  5
478
  8
VERDECKT
  6
DASHED
 10
178.9329404519
 20
229.6687889289
 30
0.0
 40
2.5
  0
ARC
  5
479
  8
05
 10
174.1329404519
 20
228.2687889289
 30
0.0
 40
9.5
 50
289.8452291731
 51
30.5820631772
  0
LINE
  5
47A
  8
MITTE
 10
176.4329404519
 20
229.6687889289
 30
0.0
 11
181.4329404519
 21
229.6687889289
 31
0.0
  0
LINE
  5
47B
  8
025
 10
174.5079404519
 20
228.2687889289
 30
0.0
 11
173.7579404519
 21
228.2687889289
 31
0.0
  0
LINE
  5
47C
  8
025
 10
174.1329404519
 20
227.8937889289
 30
0.0
 11
174.1329404519
 21
228.6437889289
 31
0.0
  0
ARC
  5
47D
  8
05
 10
174.1329404519
 20
228.2687889289
 30
0.0
 40
9.5
 50
30.5820631772
 51
46.8264488927
  0
ARC
  5
47E
  8
05
 10
174.1329404519
 20
228.2687889289
 30
0.0
 40
10.75
 50
49.7795755662
 51
54.1711598996
  0
LINE
  5
47F
  8
05
 10
179.1329404519
 20
233.7556219094
 30
0.0
 11
179.1329404519
 21
236.9182108749
 31
0.0
  0
LINE
  5
480
  8
05
 10
180.6329404519
 20
235.1969921591
 30
0.0
 11
180.6329404519
 21
236.5791739982
 31
0.0
  0
ARC
  5
481
  8
05
 10
178.6329404519
 20
233.7556219094
 30
0.0
 40
0.5
 50
244.6230664748
 51
360.0
  0
ARC
  5
482
  8
05
 10
180.1329404519
 20
236.5791739982
 30
0.0
 40
0.5
 50
360.0
 51
54.1711598996
  0
ARC
  5
483
  8
05
 10
174.1329404519
 20
228.2687889289
 30
0.0
 40
10.75
 50
54.1711598996
 51
57.5485089719
  0
ARC
  5
484
  8
05
 10
179.6329404519
 20
236.9182108749
 30
0.0
 40
0.5
 50
57.5485089719
 51
180.0
  0
LINE
  5
485
  8
05
 10
194.1329404519
 20
220.7687889289
 30
0.0
 11
197.3829404519
 21
220.7687889289
 31
0.0
  0
LINE
  5
486
  8
05
 10
197.3829404519
 20
223.2687889289
 30
0.0
 11
199.3829404519
 21
223.2687889289
 31
0.0
  0
LINE
  5
487
  8
05
 10
117.1853307467
 20
251.3627996965
 30
0.0
 11
108.6648211619
 21
251.3627996965
 31
0.0
  0
LINE
  5
488
  8
05
 10
101.166974276
 20
248.2678468883
 30
0.0
 11
91.6679163166
 21
248.2678468883
 31
0.0
  0
LINE
  5
489
  8
05
 10
89.6785774725
 20
248.2674688143
 30
0.0
 11
82.6685774725
 21
248.2674688143
 31
0.0
  0
POLYLINE
  5
48A
  8
05
 66
     1
 10
0.0
 20
0.0
 30
0.0
  0
VERTEX
  5
53A
  8
05
 10
81.1685774725
 20
247.1811829719
 30
0.0
 42
0.0309607329
  0
VERTEX
  5
53B
  8
05
 10
81.7842891854
 20
247.2193453249
 30
0.0
 42
0.0420353842
  0
VERTEX
  5
53C
  8
05
 10
82.2292376443
 20
247.313171321
 30
0.0
 42
0.0841103057
  0
VERTEX
  5
53D
  8
05
 10
82.5995553949
 20
247.4964933475
 30
0.0
 42
0.2402959437
  0
VERTEX
  5
53E
  8
05
 10
82.6685774725
 20
247.6318193836
 30
0.0
 42
0.2402959437
  0
SEQEND
  5
53F
  8
05
  0
LINE
  5
48B
  8
05
 10
82.6685774725
 20
247.6318193836
 30
0.0
 11
82.6685774725
 21
248.2701090435
 31
0.0
  0
LINE
  5
48C
  8
05
 10
90.6679163166
 20
243.7687889289
 30
0.0
 11
90.1785774725
 21
243.7687889289
 31
0.0
  0
LINE
  5
48D
  8
05
 10
91.6679163166
 20
248.2678468883
 30
0.0
 11
90.6679163166
 21
247.2678468883
 31
0.0
  0
ARC
  5
48E
  8
05
 10
89.6785774725
 20
247.7674688143
 30
0.0
 40
0.5
 50
0.0
 51
90.0
  0
LINE
  5
48F
  8
0
  6
BYBLOCK
 62
     4
 10
101.166974276
 20
249.0678468883
 30
0.0
 11
101.166974276
 21
263.3422219794
 31
0.0
  0
ARC
  5
490
  8
05
 10
116.0462304072
 20
245.5892970046
 30
0.0
 40
9.3711544529
 50
141.9686171436
 51
180.0
  0
LINE
  5
491
  8
VERDECKT
 10
106.6767793211
 20
245.7679646434
 30
0.0
 11
101.166974276
 21
245.7679646434
 31
0.0
  0
LINE
  5
492
  8
05
 10
106.6750759543
 20
243.2679646434
 30
0.0
 11
101.166974276
 21
243.2679646434
 31
0.0
  0
POINT
  5
493
  8
DEFPOINTS
  6
BYBLOCK
 62
     0
 10
101.166974276
 20
248.2678468883
 30
0.0
  0
SOLID
  5
494
  8
0
  6
BYBLOCK
 62
     4
 10
97.666974276
 20
263.1255553128
 30
0.0
 11
97.666974276
 21
261.9588886461
 31
0.0
 12
101.166974276
 22
262.5422219794
 32
0.0
 13
101.166974276
 23
262.5422219794
 33
0.0
  0
LINE
  5
495
  8
0
  6
BYBLOCK
 62
     4
 10
123.6659144804
 20
246.8495743201
 30
0.0
 11
123.6659144804
 21
272.5174900487
 31
0.0
  0
LINE
  5
496
  8
0
  6
BYBLOCK
 62
     4
 10
121.9660322354
 20
245.7679646434
 30
0.0
 11
136.0813102509
 21
245.7679646434
 31
0.0
  0
ARC
  5
497
  8
05
 10
109.8039215015
 20
245.5892970046
 30
0.0
 40
9.3711544529
 50
0.0
 51
38.0313828564
  0
LINE
  5
498
  8
05
 10
123.6659144804
 20
243.2679646434
 30
0.0
 11
119.1750759543
 21
243.2679646434
 31
0.0
  0
LINE
  5
499
  8
VERDECKT
 10
121.1660322354
 20
245.7679646434
 30
0.0
 11
119.1733725875
 21
245.7679646434
 31
0.0
  0
POINT
  5
49A
  8
DEFPOINTS
  6
BYBLOCK
 62
     0
 10
121.1660322354
 20
245.7679646434
 30
0.0
  0
LINE
  5
49B
  8
VERDECKT
 10
121.1660322354
 20
245.7679646434
 30
0.0
 11
123.6659144804
 21
243.2680823984
 31
0.0
  0
LINE
  5
49C
  8
0
  6
BYBLOCK
 62
     4
 10
123.6659144804
 20
244.0679646434
 30
0.0
 11
123.6659144804
 21
244.8667644007
 31
0.0
  0
POINT
  5
49D
  8
DEFPOINTS
  6
BYBLOCK
 62
     0
 10
123.6659144804
 20
243.2679646434
 30
0.0
  0
SOLID
  5
49E
  8
0
  6
BYBLOCK
 62
     4
 10
134.6979769176
 20
242.2679646434
 30
0.0
 11
135.8646435843
 21
242.2679646434
 31
0.0
 12
135.2813102509
 22
245.7679646434
 32
0.0
 13
135.2813102509
 23
245.7679646434
 33
0.0
  0
SOLID
  5
49F
  8
0
  6
BYBLOCK
 62
     4
 10
120.1659144804
 20
272.300823382
 30
0.0
 11
120.1659144804
 21
271.1341567153
 31
0.0
 12
123.6659144804
 22
271.7174900487
 32
0.0
 13
123.6659144804
 23
271.7174900487
 33
0.0
  0
POINT
  5
4A0
  8
DEFPOINTS
  6
BYBLOCK
 62
     0
 10
123.6659144804
 20
271.7174900487
 30
0.0
  0
SOLID
  5
4A1
  8
0
  6
BYBLOCK
 62
     4
 10
172.2915849058
 20
264.4581102896
 30
0.0
 11
172.8749182391
 21
263.4477473185
 31
0.0
 12
175.6143404857
 22
265.702928804
 32
0.0
 13
175.6143404857
 23
265.702928804
 33
0.0
  0
LINE
  5
4A2
  8
05
 10
162.5859350681
 20
248.2687889289
 30
0.0
 11
185.6799458357
 21
248.2687889289
 31
0.0
  0
LINE
  5
4A3
  8
05
 10
165.1190622633
 20
243.2687889289
 30
0.0
 11
183.1468186406
 21
243.2687889289
 31
0.0
  0
TEXT
  8
0
  40
3.5
  5
54C
  62
3
  72
0
  71
0
 10
149.919
 20
251.889
 30
0.000000
  1
SW8 [0.315"]
  0
LINE
  5
4A5
  8
0
  6
BYBLOCK
 62
     4
 10
144.0044132476
 20
247.452928804
 30
0.0
 11
172.5832515725
 21
263.952928804
 31
0.0
  0
SOLID
  5
4A6
  8
0
  6
BYBLOCK
 62
     4
 10
143.7127465809
 20
247.9581102896
 30
0.0
 11
144.2960799142
 21
246.9477473185
 31
0.0
 12
140.9733243343
 22
245.702928804
 32
0.0
 13
140.9733243343
 23
245.702928804
 33
0.0
  0
LINE
  5
4A7
  8
0
  6
BYBLOCK
 62
     4
 10
185.2799458357
 20
248.9616092519
 30
0.0
 11
175.2143404857
 21
266.3957491271
 31
0.0
  0
POINT
  5
4A8
  8
DEFPOINTS
  6
BYBLOCK
 62
     0
 10
185.6799458357
 20
248.2687889289
 30
0.0
  0
POINT
  5
4A9
  8
DEFPOINTS
  6
BYBLOCK
 62
     0
 10
175.6143404857
 20
265.702928804
 30
0.0
  0
ENDSEC
  0
EOF
