999
DXF file: st-gns18.dxf
999
Pro/ENGINEER 2011310 by Parametric Technology Corporation
  0
SECTION
  2
HEADER
  9
$ACADVER
  1
AC1018
  9
$DWGCODEPAGE
  3
ANSI_1252
  9
$EXTMAX
 10
210.0
 20
297.0
 30
0.0
  9
$EXTMIN
 10
0.0
 20
0.0
 30
0.0
  9
$LIMMIN
 10
0.0
 20
0.0
  9
$LIMMAX
 10
210.0
 20
297.0
  9
$VIEWCTR
 10
105.0
 20
148.5
  9
$VIEWSIZE
 40
297.0
  9
$CLAYER
  8
0
  9
$LTSCALE
 40
19.36
  9
$CELTYPE
  6
BYLAYER
  9
$DIMSCALE
 40
1.0
  9
$DIMASZ
 40
3.5
  9
$DIMEXO
 40
2.2
  9
$DIMDLI
 40
13.376
  9
$DIMEXE
 40
6.336
  9
$DIMCEN
 40
3.168
  9
$DIMLFAC
 40
1.0
  9
$DIMBLK
  1
_FILLED
  9
$DIMTXT
 40
3.5
  9
$DIMTOL
 70
1
  9
$DIMLIM
 70
0
  9
$DIMTFAC
 40
1.0
  9
$DIMTP
 40
0.005
  9
$DIMTM
 40
0.005
  9
$PDMODE
 70
3
  9
$PDSIZE
 40
0.3125
  9
$HANDSEED
  5
65D
  9
$TILEMODE
 70
1
  9
$MEASUREMENT
 70
1
  9
$INSUNITS
 70
4
  0
ENDSEC
  0
SECTION
  2
CLASSES
  0
CLASS
  1
ACDBDICTIONARYWDFLT
  2
AcDbDictionaryWithDefault
  3
AutoCAD 2000
 90
0
 91
1
280
0
281
0
  0
CLASS
  1
ACDBPLACEHOLDER
  2
AcDbPlaceHolder
  3
AutoCAD 2000
 90
0
 91
1
280
0
281
0
  0
CLASS
  1
LAYOUT
  2
AcDbLayout
  3
AutoCAD 2000
 90
0
 91
0
280
0
281
0
  0
CLASS
  1
TABLESTYLE
  2
AcDbTableStyle
  3
ObjectDBX Classes
 90
2047
 91
1
280
0
281
0
  0
CLASS
  1
ACAD_TABLE
  2
AcDbTable
  3
ObjectDBX Classes
 90
1025
 91
1
280
0
281
1
  0
ENDSEC
  0
SECTION
  2
TABLES
  0
TABLE
  2
VPORT
  5
8
100
AcDbSymbolTable
 70
2
  0
VPORT
  5
1F4
100
AcDbSymbolTableRecord
100
AcDbViewportTableRecord
  2
*ACTIVE
 70
0
 10
0.0
 20
0.0
 11
1.0
 21
1.0
 12
105.0
 22
148.5
 13
0.0
 23
0.0
 14
1.0
 24
1.0
 15
0.0
 25
0.0
 16
0.0
 26
0.0
 36
1.0
 17
0.0
 27
0.0
 37
0.0
 40
297.0
 41
0.7070707071
 42
50.0
 43
0.0
 44
0.0
 50
0.0
 51
0.0
 71
0
 72
100
 73
1
 74
1
 75
0
 76
0
 77
0
 78
0
  0
ENDTAB
  0
TABLE
  2
LTYPE
  5
5
100
AcDbSymbolTable
 70
6
  0
LTYPE
  5
14
100
AcDbSymbolTableRecord
100
AcDbLinetypeTableRecord
  2
BYBLOCK
 70
0
  3

 72
65
 73
0
 40
0.0
  0
LTYPE
  5
15
100
AcDbSymbolTableRecord
100
AcDbLinetypeTableRecord
  2
BYLAYER
 70
0
  3

 72
65
 73
0
 40
0.0
  0
LTYPE
  5
16
100
AcDbSymbolTableRecord
100
AcDbLinetypeTableRecord
  2
CONTINUOUS
 70
64
  3
Solid line
 72
65
 73
0
 40
0.0
  0
LTYPE
  5
1F5
100
AcDbSymbolTableRecord
100
AcDbLinetypeTableRecord
  2
CENTER
 70
64
  3
____ _ ____ _ ____ _ ____ _ ____ _ ____ _ ____
 72
65
 73
4
 40
0.6
 49
0.375
 74
0
 49
-0.075
 74
0
 49
0.075
 74
0
 49
-0.075
 74
0
  0
LTYPE
  5
1F6
100
AcDbSymbolTableRecord
100
AcDbLinetypeTableRecord
  2
HIDDEN
 70
64
  3
- - - - - - - - - - - - - - - - - - - -
 72
65
 73
2
 40
0.2
 49
0.1
 74
0
 49
-0.1
 74
0
  0
LTYPE
  5
1F7
100
AcDbSymbolTableRecord
100
AcDbLinetypeTableRecord
  2
PHANTOM
 70
64
  3
_____ _ _ _____ _ _ _____ _ _ _____
 72
65
 73
6
 40
0.8
 49
0.45
 74
0
 49
-0.05
 74
0
 49
0.1
 74
0
 49
-0.05
 74
0
 49
0.1
 74
0
 49
-0.05
 74
0
  0
LTYPE
  5
1F8
100
AcDbSymbolTableRecord
100
AcDbLinetypeTableRecord
  2
DOT
 70
64
  3
. . . . . . . . . . . . . . . . . . . .
 72
65
 73
2
 40
0.2
 49
0.1
 74
0
 49
-0.1
 74
0
  0
LTYPE
  5
1F9
100
AcDbSymbolTableRecord
100
AcDbLinetypeTableRecord
  2
DASHED
 70
64
  3
- - - - - - - - - - - - - - - - - - - -
 72
65
 73
2
 40
0.2
 49
0.1
 74
0
 49
-0.1
 74
0
  0
ENDTAB
  0
TABLE
  2
LAYER
  5
2
100
AcDbSymbolTable
 70
36
  0
LAYER
  5
10
100
AcDbSymbolTableRecord
100
AcDbLayerTableRecord
  2
0
 70
0
 62
7
  6
CONTINUOUS
370
-3
390
F
  0
LAYER
  5
1FA
100
AcDbSymbolTableRecord
100
AcDbLayerTableRecord
  2
DEFAULT_1
 70
0
 62
7
  6
CENTER
370
-3
390
F
  0
LAYER
  5
1FB
100
AcDbSymbolTableRecord
100
AcDbLayerTableRecord
  2
DEFAULT_2
 70
0
 62
8
  6
HIDDEN
370
-3
390
F
  0
LAYER
  5
1FC
100
AcDbSymbolTableRecord
100
AcDbLayerTableRecord
  2
DEFAULT_3
 70
0
 62
7
  6
PHANTOM
370
-3
390
F
  0
LAYER
  5
1FD
100
AcDbSymbolTableRecord
100
AcDbLayerTableRecord
  2
010
 70
0
 62
7
  6
CONTINUOUS
370
-3
390
F
  0
LAYER
  5
1FE
100
AcDbSymbolTableRecord
100
AcDbLayerTableRecord
  2
025
 70
0
 62
7
  6
CONTINUOUS
370
-3
390
F
  0
LAYER
  5
1FF
100
AcDbSymbolTableRecord
100
AcDbLayerTableRecord
  2
035
 70
0
 62
7
  6
CONTINUOUS
370
-3
390
F
  0
LAYER
  5
200
100
AcDbSymbolTableRecord
100
AcDbLayerTableRecord
  2
05
 70
0
 62
7
  6
CONTINUOUS
370
-3
390
F
  0
LAYER
  5
201
100
AcDbSymbolTableRecord
100
AcDbLayerTableRecord
  2
07
 70
0
 62
7
  6
CONTINUOUS
370
-3
390
F
  0
LAYER
  5
202
100
AcDbSymbolTableRecord
100
AcDbLayerTableRecord
  2
DEFPOINTS
 70
0
 62
7
  6
CONTINUOUS
290
0
370
-3
390
F
  0
LAYER
  5
203
100
AcDbSymbolTableRecord
100
AcDbLayerTableRecord
  2
MITTE
 70
0
 62
7
  6
CONTINUOUS
370
-3
390
F
  0
LAYER
  5
204
100
AcDbSymbolTableRecord
100
AcDbLayerTableRecord
  2
RAHMEN
 70
0
 62
7
  6
CONTINUOUS
370
-3
390
F
  0
LAYER
  5
205
100
AcDbSymbolTableRecord
100
AcDbLayerTableRecord
  2
SCHRAFFIERT
 70
0
 62
7
  6
CONTINUOUS
370
-3
390
F
  0
LAYER
  5
206
100
AcDbSymbolTableRecord
100
AcDbLayerTableRecord
  2
ZEICHNUNGSBEMASSUNGEN
 70
0
 62
7
  6
CONTINUOUS
370
-3
390
F
  0
ENDTAB
  0
TABLE
  2
STYLE
  5
3
100
AcDbSymbolTable
 70
1
  0
STYLE
  5
11
100
AcDbSymbolTableRecord
100
AcDbTextStyleTableRecord
  2
STANDARD
 70
0
 40
0.0
 41
0.7
 50
0.0
 71
0
 42
0.2
  3
txt
  4

  0
STYLE
  5
207
100
AcDbSymbolTableRecord
100
AcDbTextStyleTableRecord
  2
TEXTSTYLE_1
 70
0
 40
0.0
 41
0.8
 50
0.0
 71
0
 42
0.2
  3
gdt
  4

  0
STYLE
  5
208
100
AcDbSymbolTableRecord
100
AcDbTextStyleTableRecord
  2
TEXTSTYLE_2
 70
0
 40
0.0
 41
0.8
 50
0.0
 71
0
 42
0.2
  3
txt
  4

  0
STYLE
  5
209
100
AcDbSymbolTableRecord
100
AcDbTextStyleTableRecord
  2
TEXTSTYLE_3
 70
0
 40
0.0
 41
0.7
 50
0.0
 71
0
 42
0.2
  3
gdt
  4

  0
STYLE
  5
20A
100
AcDbSymbolTableRecord
100
AcDbTextStyleTableRecord
  2
TEXTSTYLE_4
 70
0
 40
0.0
 41
1.0
 50
0.0
 71
0
 42
0.2
  3
triumb.ttf
  4

  0
ENDTAB
  0
TABLE
  2
VIEW
  5
6
100
AcDbSymbolTable
 70
0
  0
ENDTAB
  0
TABLE
  2
UCS
  5
7
100
AcDbSymbolTable
 70
0
  0
ENDTAB
  0
TABLE
  2
APPID
  5
9
100
AcDbSymbolTable
 70
1
  0
APPID
  5
20B
100
AcDbSymbolTableRecord
100
AcDbRegAppTableRecord
  2
ACAD
 70
0
  0
ENDTAB
  0
TABLE
  2
BLOCK_RECORD
  5
1
100
AcDbSymbolTable
 70
0
  0
BLOCK_RECORD
  5
20C
100
AcDbSymbolTableRecord
100
AcDbBlockTableRecord
  2
*Model_Space
  0
BLOCK_RECORD
  5
20D
100
AcDbSymbolTableRecord
100
AcDbBlockTableRecord
  2
*Paper_Space
  0
BLOCK_RECORD
  5
20E
100
AcDbSymbolTableRecord
100
AcDbBlockTableRecord
  2
SYMBOL_3_BL0
  0
BLOCK_RECORD
  5
20F
100
AcDbSymbolTableRecord
100
AcDbBlockTableRecord
  2
*T1
  0
ENDTAB
  0
TABLE
  2
DIMSTYLE
  5
A
100
AcDbSymbolTable
 70
1
100
AcDbDimStyleTable
 71
0
  0
DIMSTYLE
105
210
100
AcDbSymbolTableRecord
100
AcDbDimStyleTableRecord
  2
STANDARD
 70
0
  3

  4

 40
1.0
 41
3.5
 42
0.0625
 43
0.38
 44
0.18
 45
0.0
 46
0.0
 47
0.005
 48
0.005
140
3.5
141
0.09
142
0.0
143
25.4
144
1.0
145
0.0
146
1.0
147
0.09
 71
1.0
 72
0.0
 73
0
 74
0
 75
0
 76
0
 77
1
 78
8
170
0
171
2
172
0
173
0
174
0
175
0
176
0
177
0
178
5
270
2
271
3
272
3
273
2
274
2
275
0
280
0
281
0
282
0
283
1
284
8
285
0
286
0
287
3
288
0
340
11
  0
ENDTAB
  0
ENDSEC
  0
SECTION
  2
BLOCKS
  0
BLOCK
  5
20
100
AcDbEntity
  8
0
100
AcDbBlockBegin
  2
*Model_Space
 70
0
 10
0.0
 20
0.0
 30
0.0
  3
*Model_Space
  1

  0
ENDBLK
  5
21
100
AcDbEntity
  8
0
100
AcDbBlockEnd
  0
BLOCK
  5
1C
100
AcDbEntity
  8
0
100
AcDbBlockBegin
  2
*Paper_Space
 70
0
 10
0.0
 20
0.0
 30
0.0
  3
*Paper_Space
  1

  0
ENDBLK
  5
1D
100
AcDbEntity
  8
0
100
AcDbBlockEnd
  0
BLOCK
  5
211
100
AcDbEntity
  8
0
100
AcDbBlockBegin
 62
2
  6
CONTINUOUS
  2
SYMBOL_3_BL0
 70
64
 10
98.0245925022
 20
9.2066660654
  3
SYMBOL_3_BL0
  1

  0
LINE
  5
212
100
AcDbEntity
  8
0
100
AcDbLine
 62
2
  6
CONTINUOUS
 10
77.5544360471
 20
8.0329859648
 11
75.0539855722
 21
9.5420032339
  0
LINE
  5
213
100
AcDbEntity
  8
0
100
AcDbLine
 62
2
  6
CONTINUOUS
 10
75.2018073047
 20
10.3803457168
 11
77.7022587796
 21
8.8713284476
  0
LINE
  5
214
100
AcDbEntity
  8
0
100
AcDbLine
 62
2
  6
CONTINUOUS
 10
107.6509415813
 20
8.0329859648
 11
106.0530264731
 21
8.9551632959
  0
LINE
  5
215
100
AcDbEntity
  8
0
100
AcDbLine
 62
2
  6
CONTINUOUS
 10
97.3194792782
 20
8.8713284476
 11
98.5968389666
 21
8.0329859648
  0
LINE
  5
216
100
AcDbEntity
  8
0
100
AcDbLine
 62
2
  6
CONTINUOUS
 10
100.5250274771
 20
8.0329859648
 11
99.2476677888
 21
8.8713284476
  0
LINE
  5
217
100
AcDbEntity
  8
0
100
AcDbLine
 62
2
  6
CONTINUOUS
 10
107.8554912111
 20
9.2904996891
 11
109.7467977884
 21
8.0329859648
  0
LINE
  5
218
100
AcDbEntity
  8
0
100
AcDbLine
 62
2
  6
CONTINUOUS
 10
115.1413990258
 20
10.1843850714
 11
115.471200429
 21
8.8651804588
  0
LINE
  5
219
100
AcDbEntity
  8
0
100
AcDbLine
 62
2
  6
CONTINUOUS
 10
115.5621982643
 20
8.5011891175
 11
115.6792490525
 21
8.0329859648
  0
LINE
  5
21A
100
AcDbEntity
  8
0
100
AcDbLine
 62
2
  6
CONTINUOUS
 10
116.611688365
 20
10.3803457168
 11
117.198528303
 21
8.0329859648
  0
LINE
  5
21B
100
AcDbEntity
  8
0
100
AcDbLine
 62
2
  6
CONTINUOUS
 10
73.1950539363
 20
8.0329859648
 11
73.6089561873
 21
10.3803457168
  0
LINE
  5
21C
100
AcDbEntity
  8
0
100
AcDbLine
 62
2
  6
CONTINUOUS
 10
75.0539855722
 20
9.5420032339
 11
74.7879050537
 21
8.0329859648
  0
LINE
  5
21D
100
AcDbEntity
  8
0
100
AcDbLine
 62
2
  6
CONTINUOUS
 10
77.7022587796
 20
8.8713284476
 11
77.9683382981
 21
10.3803457168
  0
LINE
  5
21E
100
AcDbEntity
  8
0
100
AcDbLine
 62
2
  6
CONTINUOUS
 10
79.5611904155
 20
10.3803457168
 11
79.1472871645
 21
8.0329859648
  0
LINE
  5
21F
100
AcDbEntity
  8
0
100
AcDbLine
 62
2
  6
CONTINUOUS
 10
80.4048008888
 20
8.0329859648
 11
80.8187041397
 21
10.3803457168
  0
LINE
  5
220
100
AcDbEntity
  8
0
100
AcDbLine
 62
2
  6
CONTINUOUS
 10
82.2390275694
 20
9.8773396271
 11
82.1651167031
 21
9.4581683856
  0
LINE
  5
221
100
AcDbEntity
  8
0
100
AcDbLine
 62
2
  6
CONTINUOUS
 10
82.0764228636
 20
8.9551632959
 11
82.0025119974
 21
8.5359920545
  0
LINE
  5
222
100
AcDbEntity
  8
0
100
AcDbLine
 62
2
  6
CONTINUOUS
 10
84.3448077585
 20
9.4581683856
 11
84.256113919
 21
8.9551632959
  0
LINE
  5
223
100
AcDbEntity
  8
0
100
AcDbLine
 62
2
  6
CONTINUOUS
 10
85.010417554
 20
10.3803457168
 11
84.9217247145
 21
9.8773396271
  0
LINE
  5
224
100
AcDbEntity
  8
0
100
AcDbLine
 62
2
  6
CONTINUOUS
 10
84.6852081425
 20
8.5359920545
 11
84.596515303
 21
8.0329859648
  0
LINE
  5
225
100
AcDbEntity
  8
0
100
AcDbLine
 62
2
  6
CONTINUOUS
 10
85.5789415251
 20
8.850126486
 11
85.8487610368
 21
10.3803457168
  0
LINE
  5
226
100
AcDbEntity
  8
0
100
AcDbLine
 62
2
  6
CONTINUOUS
 10
87.357777306
 20
10.3803457168
 11
87.1119527508
 21
8.9862012398
  0
LINE
  5
227
100
AcDbEntity
  8
0
100
AcDbLine
 62
2
  6
CONTINUOUS
 10
88.9423444384
 20
8.907020383
 11
89.2021319682
 21
10.3803457168
  0
LINE
  5
228
100
AcDbEntity
  8
0
100
AcDbLine
 62
2
  6
CONTINUOUS
 10
90.7111492373
 20
10.3803457168
 11
90.4145627741
 21
8.6983237607
  0
LINE
  5
229
100
AcDbEntity
  8
0
100
AcDbLine
 62
2
  6
CONTINUOUS
 10
91.1945133626
 20
9.7935057788
 11
91.2979891753
 21
10.3803457168
  0
LINE
  5
22A
100
AcDbEntity
  8
0
100
AcDbLine
 62
2
  6
CONTINUOUS
 10
92.0577658004
 20
8.0329859648
 11
92.3681932386
 21
9.7935057788
  0
LINE
  5
22B
100
AcDbEntity
  8
0
100
AcDbLine
 62
2
  6
CONTINUOUS
 10
94.0448782043
 20
9.7935057788
 11
93.7344517661
 21
8.0329859648
  0
LINE
  5
22C
100
AcDbEntity
  8
0
100
AcDbLine
 62
2
  6
CONTINUOUS
 10
95.322033893
 20
10.3803457168
 11
95.2185580803
 21
9.7935057788
  0
LINE
  5
22D
100
AcDbEntity
  8
0
100
AcDbLine
 62
2
  6
CONTINUOUS
 10
95.908873831
 20
10.3803457168
 11
95.49497158
 21
8.0329859648
  0
LINE
  5
22E
100
AcDbEntity
  8
0
100
AcDbLine
 62
2
  6
CONTINUOUS
 10
97.1716565457
 20
8.0329859648
 11
97.3194792782
 21
8.8713284476
  0
LINE
  5
22F
100
AcDbEntity
  8
0
100
AcDbLine
 62
2
  6
CONTINUOUS
 10
97.4081721177
 20
9.3743345373
 11
97.5116479304
 21
9.9611744753
  0
LINE
  5
230
100
AcDbEntity
  8
0
100
AcDbLine
 62
2
  6
CONTINUOUS
 10
101.1957022634
 20
8.0329859648
 11
101.6096045144
 21
10.3803457168
  0
LINE
  5
231
100
AcDbEntity
  8
0
100
AcDbLine
 62
2
  6
CONTINUOUS
 10
103.28629048
 20
10.3803457168
 11
102.8723872291
 21
8.0329859648
  0
LINE
  5
232
100
AcDbEntity
  8
0
100
AcDbLine
 62
2
  6
CONTINUOUS
 10
104.2137358016
 20
8.0329859648
 11
104.6276390526
 21
10.3803457168
  0
LINE
  5
233
100
AcDbEntity
  8
0
100
AcDbLine
 62
2
  6
CONTINUOUS
 10
106.3043240183
 20
10.3803457168
 11
106.1121553661
 21
9.2904996891
  0
LINE
  5
234
100
AcDbEntity
  8
0
100
AcDbLine
 62
2
  6
CONTINUOUS
 10
106.0530264731
 20
8.9551632959
 11
105.8904217673
 21
8.0329859648
  0
LINE
  5
235
100
AcDbEntity
  8
0
100
AcDbLine
 62
2
  6
CONTINUOUS
 10
117.8923160475
 20
8.5313940628
 11
118.1405795982
 21
9.9393685148
  0
LINE
  5
236
100
AcDbEntity
  8
0
100
AcDbLine
 62
2
  6
CONTINUOUS
 10
119.4637212037
 20
8.8526434815
 11
119.6196779214
 21
9.7371138808
  0
LINE
  5
237
100
AcDbEntity
  8
0
100
AcDbLine
 62
2
  6
CONTINUOUS
 10
120.5561772267
 20
8.8812524297
 11
120.5944831573
 21
9.0984910365
  0
LINE
  5
238
100
AcDbEntity
  8
0
100
AcDbLine
 62
2
  6
CONTINUOUS
 10
121.0125094008
 20
8.0329859648
 11
121.017391392
 21
8.0606719147
  0
LINE
  5
239
100
AcDbEntity
  8
0
100
AcDbLine
 62
2
  6
CONTINUOUS
 10
121.1430231646
 20
8.7731656253
 11
121.1620821301
 21
8.8812524297
  0
LINE
  5
23A
100
AcDbEntity
  8
0
100
AcDbLine
 62
2
  6
CONTINUOUS
 10
122.5272706596
 20
8.0329859648
 11
122.7151483196
 21
9.0984910365
  0
LINE
  5
23B
100
AcDbEntity
  8
0
100
AcDbLine
 62
2
  6
CONTINUOUS
 10
122.8291061133
 20
9.7447798669
 11
122.854131068
 21
9.8867056101
  0
LINE
  5
23C
100
AcDbEntity
  8
0
100
AcDbLine
 62
2
  6
CONTINUOUS
 10
109.7467977884
 20
8.0329859648
 11
107.6509415813
 21
8.0329859648
  0
LINE
  5
23D
100
AcDbEntity
  8
0
100
AcDbLine
 62
2
  6
CONTINUOUS
 10
73.1950539363
 20
8.0329859648
 11
74.7879050537
 21
8.0329859648
  0
LINE
  5
23E
100
AcDbEntity
  8
0
100
AcDbLine
 62
2
  6
CONTINUOUS
 10
105.8904217673
 20
8.0329859648
 11
104.2137358016
 21
8.0329859648
  0
LINE
  5
23F
100
AcDbEntity
  8
0
100
AcDbLine
 62
2
  6
CONTINUOUS
 10
102.8723872291
 20
8.0329859648
 11
101.1957022634
 21
8.0329859648
  0
LINE
  5
240
100
AcDbEntity
  8
0
100
AcDbLine
 62
2
  6
CONTINUOUS
 10
93.7344517661
 20
8.0329859648
 11
92.0577658004
 21
8.0329859648
  0
LINE
  5
241
100
AcDbEntity
  8
0
100
AcDbLine
 62
2
  6
CONTINUOUS
 10
95.49497158
 20
8.0329859648
 11
97.1716565457
 21
8.0329859648
  0
LINE
  5
242
100
AcDbEntity
  8
0
100
AcDbLine
 62
2
  6
CONTINUOUS
 10
84.596515303
 20
8.0329859648
 11
80.4048008888
 21
8.0329859648
  0
LINE
  5
243
100
AcDbEntity
  8
0
100
AcDbLine
 62
2
  6
CONTINUOUS
 10
98.5968389666
 20
8.0329859648
 11
100.5250274771
 21
8.0329859648
  0
LINE
  5
244
100
AcDbEntity
  8
0
100
AcDbLine
 62
2
  6
CONTINUOUS
 10
79.1472871645
 20
8.0329859648
 11
77.5544360471
 21
8.0329859648
  0
LINE
  5
245
100
AcDbEntity
  8
0
100
AcDbLine
 62
2
  6
CONTINUOUS
 10
111.8930159044
 20
8.0329859648
 11
113.5278499458
 21
8.0329859648
  0
LINE
  5
246
100
AcDbEntity
  8
0
100
AcDbLine
 62
2
  6
CONTINUOUS
 10
115.6792490525
 20
8.0329859648
 11
117.198528303
 21
8.0329859648
  0
LINE
  5
247
100
AcDbEntity
  8
0
100
AcDbLine
 62
2
  6
CONTINUOUS
 10
121.0125094008
 20
8.0329859648
 11
122.5272706596
 21
8.0329859648
  0
LINE
  5
248
100
AcDbEntity
  8
0
100
AcDbLine
 62
2
  6
CONTINUOUS
 10
113.8790013104
 20
8.5011891175
 11
115.5621982643
 21
8.5011891175
  0
LINE
  5
249
100
AcDbEntity
  8
0
100
AcDbLine
 62
2
  6
CONTINUOUS
 10
82.0025119974
 20
8.5359920545
 11
84.6852081425
 21
8.5359920545
  0
LINE
  5
24A
100
AcDbEntity
  8
0
100
AcDbLine
 62
2
  6
CONTINUOUS
 10
114.1519948163
 20
8.8651804588
 11
115.471200429
 21
8.8651804588
  0
LINE
  5
24B
100
AcDbEntity
  8
0
100
AcDbLine
 62
2
  6
CONTINUOUS
 10
120.5561772267
 20
8.8812524297
 11
121.1620821301
 21
8.8812524297
  0
LINE
  5
24C
100
AcDbEntity
  8
0
100
AcDbLine
 62
2
  6
CONTINUOUS
 10
84.256113919
 20
8.9551632959
 11
82.0764228636
 21
8.9551632959
  0
LINE
  5
24D
100
AcDbEntity
  8
0
100
AcDbLine
 62
2
  6
CONTINUOUS
 10
120.5944831573
 20
9.0984910365
 11
122.7151483196
 21
9.0984910365
  0
LINE
  5
24E
100
AcDbEntity
  8
0
100
AcDbLine
 62
2
  6
CONTINUOUS
 10
98.4693321973
 20
9.3743345373
 11
97.4081721177
 21
9.3743345373
  0
LINE
  5
24F
100
AcDbEntity
  8
0
100
AcDbLine
 62
2
  6
CONTINUOUS
 10
82.1651167031
 20
9.4581683856
 11
84.3448077585
 21
9.4581683856
  0
LINE
  5
250
100
AcDbEntity
  8
0
100
AcDbLine
 62
2
  6
CONTINUOUS
 10
121.2929528933
 20
9.7447798669
 11
122.8291061133
 21
9.7447798669
  0
LINE
  5
251
100
AcDbEntity
  8
0
100
AcDbLine
 62
2
  6
CONTINUOUS
 10
95.2185580803
 20
9.7935057788
 11
94.0448782043
 21
9.7935057788
  0
LINE
  5
252
100
AcDbEntity
  8
0
100
AcDbLine
 62
2
  6
CONTINUOUS
 10
92.3681932386
 20
9.7935057788
 11
91.1945133626
 21
9.7935057788
  0
LINE
  5
253
100
AcDbEntity
  8
0
100
AcDbLine
 62
2
  6
CONTINUOUS
 10
84.9217247145
 20
9.8773396271
 11
82.2390275694
 21
9.8773396271
  0
LINE
  5
254
100
AcDbEntity
  8
0
100
AcDbLine
 62
2
  6
CONTINUOUS
 10
97.5116479304
 20
9.9611744753
 11
98.7657596609
 21
9.9611744753
  0
LINE
  5
255
100
AcDbEntity
  8
0
100
AcDbLine
 62
2
  6
CONTINUOUS
 10
73.6089561873
 20
10.3803457168
 11
75.2018073047
 21
10.3803457168
  0
LINE
  5
256
100
AcDbEntity
  8
0
100
AcDbLine
 62
2
  6
CONTINUOUS
 10
77.9683382981
 20
10.3803457168
 11
79.5611904155
 21
10.3803457168
  0
LINE
  5
257
100
AcDbEntity
  8
0
100
AcDbLine
 62
2
  6
CONTINUOUS
 10
80.8187041397
 20
10.3803457168
 11
85.010417554
 21
10.3803457168
  0
LINE
  5
258
100
AcDbEntity
  8
0
100
AcDbLine
 62
2
  6
CONTINUOUS
 10
99.0107422175
 20
10.3803457168
 11
95.908873831
 21
10.3803457168
  0
LINE
  5
259
100
AcDbEntity
  8
0
100
AcDbLine
 62
2
  6
CONTINUOUS
 10
85.8487610368
 20
10.3803457168
 11
87.357777306
 21
10.3803457168
  0
LINE
  5
25A
100
AcDbEntity
  8
0
100
AcDbLine
 62
2
  6
CONTINUOUS
 10
89.2021319682
 20
10.3803457168
 11
90.7111492373
 21
10.3803457168
  0
LINE
  5
25B
100
AcDbEntity
  8
0
100
AcDbLine
 62
2
  6
CONTINUOUS
 10
91.2979891753
 20
10.3803457168
 11
95.322033893
 21
10.3803457168
  0
LINE
  5
25C
100
AcDbEntity
  8
0
100
AcDbLine
 62
2
  6
CONTINUOUS
 10
101.6096045144
 20
10.3803457168
 11
103.28629048
 21
10.3803457168
  0
LINE
  5
25D
100
AcDbEntity
  8
0
100
AcDbLine
 62
2
  6
CONTINUOUS
 10
104.6276390526
 20
10.3803457168
 11
106.3043240183
 21
10.3803457168
  0
LINE
  5
25E
100
AcDbEntity
  8
0
100
AcDbLine
 62
2
  6
CONTINUOUS
 10
108.0476608634
 20
10.3803457168
 11
110.1607010394
 21
10.3803457168
  0
LINE
  5
25F
100
AcDbEntity
  8
0
100
AcDbLine
 62
2
  6
CONTINUOUS
 10
113.6535357184
 20
10.3803457168
 11
116.611688365
 21
10.3803457168
  0
LINE
  5
260
100
AcDbEntity
  8
0
100
AcDbLine
 62
2
  6
CONTINUOUS
 10
111.8930159044
 20
8.0329859648
 11
113.6535357184
 21
10.3803457168
  0
LINE
  5
261
100
AcDbEntity
  8
0
100
AcDbLine
 62
2
  6
CONTINUOUS
 10
113.5278499458
 20
8.0329859648
 11
113.8790013104
 21
8.5011891175
  0
LINE
  5
262
100
AcDbEntity
  8
0
100
AcDbLine
 62
2
  6
CONTINUOUS
 10
114.1519948163
 20
8.8651804588
 11
115.1413990258
 21
10.1843850714
  0
LINE
  5
263
100
AcDbEntity
  8
0
100
AcDbLine
 62
2
  6
CONTINUOUS
 10
106.1121553661
 20
9.2904996891
 11
108.0476608634
 21
10.3803457168
  0
LINE
  5
264
100
AcDbEntity
  8
0
100
AcDbLine
 62
2
  6
CONTINUOUS
 10
110.1607010394
 20
10.3803457168
 11
107.8554912111
 21
9.2904996891
  0
ARC
  5
265
100
AcDbEntity
  8
0
100
AcDbCircle
 62
2
  6
CONTINUOUS
 10
87.4421951532
 20
8.9279703451
 40
0.335336967
100
AcDbArc
 50
169.9999581174
 51
257.3876854477
  0
ARC
  5
266
100
AcDbEntity
  8
0
100
AcDbCircle
 62
2
  6
CONTINUOUS
 10
87.9547452256
 20
11.2186881996
 40
2.6826964808
100
AcDbArc
 50
257.3877479741
 51
286.262665946
  0
ARC
  5
267
100
AcDbEntity
  8
0
100
AcDbCircle
 62
2
  6
CONTINUOUS
 10
88.612102036
 20
8.9652512777
 40
0.3353371135
100
AcDbArc
 50
286.2627744417
 51
349.9999581174
  0
ARC
  5
268
100
AcDbEntity
  8
0
100
AcDbCircle
 62
2
  6
CONTINUOUS
 10
89.9191986705
 20
8.7856696027
 40
0.5030061094
100
AcDbArc
 50
284.4613069912
 51
350.0000240953
  0
ARC
  5
269
100
AcDbEntity
  8
0
100
AcDbCircle
 62
2
  6
CONTINUOUS
 10
87.9512572319
 20
16.4164137933
 40
8.3834278607
100
AcDbArc
 50
256.2209051549
 51
284.4612653568
  0
ARC
  5
26A
100
AcDbEntity
  8
0
100
AcDbCircle
 62
2
  6
CONTINUOUS
 10
86.0743056287
 20
8.7627806441
 40
0.503005856
100
AcDbArc
 50
170.0000240953
 51
256.2208762229
  0
ARC
  5
26B
100
AcDbEntity
  8
0
100
AcDbCircle
 62
2
  6
CONTINUOUS
 10
99.5460702487
 20
10.1920990574
 40
1.3167024847
100
AcDbArc
 50
270.8139664646
 51
287.332045501
  0
ARC
  5
26C
100
AcDbEntity
  8
0
100
AcDbCircle
 62
2
  6
CONTINUOUS
 10
99.6328970916
 20
9.9138785609
 40
1.025248295
100
AcDbArc
 50
287.332041554
 51
306.9952583027
  0
ARC
  5
26D
100
AcDbEntity
  8
0
100
AcDbCircle
 62
2
  6
CONTINUOUS
 10
99.765875851
 20
9.7373788803
 40
0.8042604703
100
AcDbArc
 50
306.9952804959
 51
331.1991469186
  0
ARC
  5
26E
100
AcDbEntity
  8
0
100
AcDbCircle
 62
2
  6
CONTINUOUS
 10
99.9698034819
 20
9.6252650832
 40
0.5715468569
100
AcDbArc
 50
331.1991187457
 51
28.8007934081
  0
ARC
  5
26F
100
AcDbEntity
  8
0
100
AcDbCircle
 62
2
  6
CONTINUOUS
 10
99.765875851
 20
9.5131502861
 40
0.8042612359
100
AcDbArc
 50
28.8008530814
 51
53.0047195041
  0
ARC
  5
270
100
AcDbEntity
  8
0
100
AcDbCircle
 62
2
  6
CONTINUOUS
 10
99.6328970916
 20
9.3366506055
 40
1.0252479986
100
AcDbArc
 50
53.0047416973
 51
72.667958446
  0
ARC
  5
271
100
AcDbEntity
  8
0
100
AcDbCircle
 62
2
  6
CONTINUOUS
 10
99.5460702487
 20
9.058430109
 40
1.3167024858
100
AcDbArc
 50
72.667954499
 51
88.2637233921
  0
ARC
  5
272
100
AcDbEntity
  8
0
100
AcDbCircle
 62
2
  6
CONTINUOUS
 10
99.1751869199
 20
-1.8011792383
 40
12.1826353158
100
AcDbArc
 50
88.0677150838
 51
90.7734183662
  0
ARC
  5
273
100
AcDbEntity
  8
0
100
AcDbCircle
 62
2
  6
CONTINUOUS
 10
97.8450613271
 20
126.7276131626
 40
117.8646306221
100
AcDbArc
 50
270.6818443076
 51
270.8360085966
  0
ARC
  5
274
100
AcDbEntity
  8
0
100
AcDbCircle
 62
2
  6
CONTINUOUS
 10
98.7233307377
 20
9.4400284185
 40
0.5228699142
100
AcDbArc
 50
74.2117758502
 51
85.3455498836
  0
ARC
  5
275
100
AcDbEntity
  8
0
100
AcDbCircle
 62
2
  6
CONTINUOUS
 10
98.7726766484
 20
9.6145531026
 40
0.3415029724
100
AcDbArc
 50
49.80595642
 51
74.2116374161
  0
ARC
  5
276
100
AcDbEntity
  8
0
100
AcDbCircle
 62
2
  6
CONTINUOUS
 10
98.8829964487
 20
9.7451268663
 40
0.1705654939
100
AcDbArc
 50
340.193968067
 51
49.8058745946
  0
ARC
  5
277
100
AcDbEntity
  8
0
100
AcDbCircle
 62
2
  6
CONTINUOUS
 10
98.7221697398
 20
9.8030467615
 40
0.3415041793
100
AcDbArc
 50
315.7883508031
 51
340.1940327095
  0
ARC
  5
278
100
AcDbEntity
  8
0
100
AcDbCircle
 62
2
  6
CONTINUOUS
 10
98.592172975
 20
9.9295155326
 40
0.5228695114
100
AcDbArc
 50
298.8638229053
 51
315.7882717965
  0
ARC
  5
279
100
AcDbEntity
  8
0
100
AcDbCircle
 62
2
  6
CONTINUOUS
 10
98.4693321973
 20
10.1523731293
 40
0.777340892
100
AcDbArc
 50
285.0000006491
 51
298.8638426666
  0
ARC
  5
27A
100
AcDbEntity
  8
0
100
AcDbCircle
 62
2
  6
CONTINUOUS
 10
98.4666332022
 20
10.1523751293
 40
0.7780452733
100
AcDbArc
 50
270.1987562222
 51
285.191946156
  0
ARC
  5
27B
100
AcDbEntity
  8
0
100
AcDbCircle
 62
2
  6
CONTINUOUS
 10
120.6619260353
 20
-2.9792851063
 40
13.3596308353
100
AcDbArc
 50
81.6598945895
 51
99.8027888696
  0
ARC
  5
27C
100
AcDbEntity
  8
0
100
AcDbCircle
 62
2
  6
CONTINUOUS
 10
120.1292479993
 20
21.3907487912
 40
13.3596309136
100
AcDbArc
 50
261.4614728694
 51
273.8118136955
  0
ARC
  5
27D
100
AcDbEntity
  8
0
100
AcDbCircle
 62
2
  6
CONTINUOUS
 10
118.4389290582
 20
9.88676061
 40
0.302952678
100
AcDbArc
 50
99.8027796749
 51
169.9998425607
  0
ARC
  5
27E
100
AcDbEntity
  8
0
100
AcDbCircle
 62
2
  6
CONTINUOUS
 10
118.1906655075
 20
8.478787158
 40
0.3029519545
100
AcDbArc
 50
170.000028812
 51
261.4614258049
  0
ARC
  5
27F
100
AcDbEntity
  8
0
100
AcDbCircle
 62
2
  6
CONTINUOUS
 10
122.555781608
 20
9.9393125149
 40
0.3029519545
100
AcDbArc
 50
350.000028812
 51
81.6598857953
  0
ARC
  5
280
100
AcDbEntity
  8
0
100
AcDbCircle
 62
2
  6
CONTINUOUS
 10
120.4567834065
 20
6.5595326313
 40
3.4740280808
100
AcDbArc
 50
80.2083456985
 51
99.7818280968
  0
ARC
  5
281
100
AcDbEntity
  8
0
100
AcDbCircle
 62
2
  6
CONTINUOUS
 10
120.2291178185
 20
11.9365299005
 40
3.4740282835
100
AcDbArc
 50
261.5304821195
 51
281.1930777907
  0
ARC
  5
282
100
AcDbEntity
  8
0
100
AcDbCircle
 62
2
  6
CONTINUOUS
 10
119.9180273815
 20
9.684506976
 40
0.3029528628
100
AcDbArc
 50
99.7818543358
 51
170.000028812
  0
ARC
  5
283
100
AcDbEntity
  8
0
100
AcDbCircle
 62
2
  6
CONTINUOUS
 10
120.9960754306
 20
9.6844149762
 40
0.3029523856
100
AcDbArc
 50
11.4934186918
 51
80.2083192078
  0
ARC
  5
284
100
AcDbEntity
  8
0
100
AcDbCircle
 62
2
  6
CONTINUOUS
 10
119.7620716637
 20
8.8000365767
 40
0.3029529393
100
AcDbArc
 50
170.000061653
 51
261.5304593161
  0
ARC
  5
285
100
AcDbEntity
  8
0
100
AcDbCircle
 62
2
  6
CONTINUOUS
 10
120.8446737046
 20
8.8257725301
 40
0.3029520503
100
AcDbArc
 50
281.1930976978
 51
350.000028812
  0
ENDBLK
  5
286
100
AcDbEntity
  8
0
  6
BYBLOCK
 62
0
100
AcDbBlockEnd
  0
BLOCK
  5
287
100
AcDbEntity
  8
0
100
AcDbBlockBegin
  2
*T1
 70
1
 10
0.0
 20
0.0
  3
*T1
  1

  0
LINE
  5
288
100
AcDbEntity
  8
0
100
AcDbLine
 62
7
  6
CONTINUOUS
 10
0.0
 20
0.0
 11
133.0
 21
0.0
  0
LINE
  5
289
100
AcDbEntity
  8
0
100
AcDbLine
 62
7
  6
CONTINUOUS
 10
0.0
 20
0.0
 11
0.0
 21
-46.0
  0
LINE
  5
28A
100
AcDbEntity
  8
0
100
AcDbLine
 62
7
  6
CONTINUOUS
 10
82.0
 20
-5.0
 11
133.0
 21
-5.0
  0
LINE
  5
28B
100
AcDbEntity
  8
0
100
AcDbLine
 62
7
  6
CONTINUOUS
 10
0.0
 20
-10.0
 11
41.0
 21
-10.0
  0
LINE
  5
28C
100
AcDbEntity
  8
0
100
AcDbLine
 62
7
  6
CONTINUOUS
 10
82.0
 20
-10.0
 11
133.0
 21
-10.0
  0
LINE
  5
28D
100
AcDbEntity
  8
0
100
AcDbLine
 62
7
  6
CONTINUOUS
 10
82.0
 20
-15.0
 11
133.0
 21
-15.0
  0
LINE
  5
28E
100
AcDbEntity
  8
0
100
AcDbLine
 62
7
  6
CONTINUOUS
 10
0.0
 20
-20.0
 11
133.0
 21
-20.0
  0
LINE
  5
28F
100
AcDbEntity
  8
0
100
AcDbLine
 62
7
  6
CONTINUOUS
 10
82.0
 20
-28.0
 11
133.0
 21
-28.0
  0
LINE
  5
290
100
AcDbEntity
  8
0
100
AcDbLine
 62
7
  6
CONTINUOUS
 10
0.0
 20
-37.0
 11
133.0
 21
-37.0
  0
LINE
  5
291
100
AcDbEntity
  8
0
100
AcDbLine
 62
7
  6
CONTINUOUS
 10
0.0
 20
-46.0
 11
133.0
 21
-46.0
  0
LINE
  5
292
100
AcDbEntity
  8
0
100
AcDbLine
 62
7
  6
CONTINUOUS
 10
41.0
 20
0.0
 11
41.0
 21
-20.0
  0
LINE
  5
293
100
AcDbEntity
  8
0
100
AcDbLine
 62
7
  6
CONTINUOUS
 10
64.0
 20
0.0
 11
64.0
 21
-20.0
  0
LINE
  5
294
100
AcDbEntity
  8
0
100
AcDbLine
 62
7
  6
CONTINUOUS
 10
82.0
 20
0.0
 11
82.0
 21
-46.0
  0
LINE
  5
295
100
AcDbEntity
  8
0
100
AcDbLine
 62
7
  6
CONTINUOUS
 10
101.0
 20
0.0
 11
101.0
 21
-20.0
  0
LINE
  5
296
100
AcDbEntity
  8
0
100
AcDbLine
 62
7
  6
CONTINUOUS
 10
116.0
 20
0.0
 11
116.0
 21
-37.0
  0
LINE
  5
297
100
AcDbEntity
  8
0
100
AcDbLine
 62
7
  6
CONTINUOUS
 10
133.0
 20
0.0
 11
133.0
 21
-46.0
  0
MTEXT
  5
298
100
AcDbEntity
  8
0
100
AcDbMText
 62
5
  6
CONTINUOUS
  7
TEXTSTYLE_2
 71
1
 72
1
 10
0.0625
 20
-2.7341257188
 30
0.0
 11
1.0
 21
0.0
 31
0.0
 44
0.9
  1
\Q15.0; Allgemeintoleranzen\P ISO 2768-m
 40
1.8
 41
49.2
  0
MTEXT
  5
299
100
AcDbEntity
  8
0
100
AcDbMText
 62
5
  6
CONTINUOUS
  7
TEXTSTYLE_2
 71
2
 72
1
 10
52.5
 20
-1.5352761804
 30
0.0
 11
1.0
 21
0.0
 31
0.0
 44
0.9
  1
\Q15.0;Werkstoff
 40
2.0
 41
26.2857142857
  0
MTEXT
  5
29A
100
AcDbEntity
  8
0
100
AcDbMText
 62
5
  6
CONTINUOUS
  7
TEXTSTYLE_2
 71
2
 72
1
 10
73.0
 20
-1.5352761804
 30
0.0
 11
1.0
 21
0.0
 31
0.0
 44
0.9
  1
\Q15.0;Massstab:
 40
2.0
 41
24.2857142857
  0
MTEXT
  5
29B
100
AcDbEntity
  8
0
100
AcDbMText
 62
5
  6
CONTINUOUS
  7
TEXTSTYLE_2
 71
2
 72
1
 10
108.5
 20
-1.5352761804
 30
0.0
 11
1.0
 21
0.0
 31
0.0
 44
0.9
  1
\Q15.0;Datum
 40
2.0
 41
15.3333333333
  0
MTEXT
  5
29C
100
AcDbEntity
  8
0
100
AcDbMText
 62
5
  6
CONTINUOUS
  7
TEXTSTYLE_2
 71
2
 72
1
 10
124.5
 20
-1.5352761804
 30
0.0
 11
1.0
 21
0.0
 31
0.0
 44
0.9
  1
\Q15.0;Name
 40
2.0
 41
12.5714285714
  0
MTEXT
  5
29D
100
AcDbEntity
  8
0
100
AcDbMText
 62
5
  6
CONTINUOUS
  7
TEXTSTYLE_2
 71
1
 72
1
 10
82.0625
 20
-6.5352761804
 30
0.0
 11
1.0
 21
0.0
 31
0.0
 44
0.9
  1
\Q15.0; Gezeichnet
 40
2.0
 41
30.380952381
  0
MTEXT
  5
29E
100
AcDbEntity
  8
0
100
AcDbMText
 62
5
  6
CONTINUOUS
  7
TEXTSTYLE_2
 71
2
 72
1
 10
108.5
 20
-6.5352761804
 30
0.0
 11
1.0
 21
0.0
 31
0.0
 44
0.9
  1
\Q15.0;19.05.98
 40
2.0
 41
22.2857142857
  0
MTEXT
  5
29F
100
AcDbEntity
  8
0
100
AcDbMText
 62
5
  6
CONTINUOUS
  7
TEXTSTYLE_2
 71
2
 72
1
 10
124.5
 20
-6.5352761804
 30
0.0
 11
1.0
 21
0.0
 31
0.0
 44
0.9
  1
\Q15.0;Alinjak
 40
2.0
 41
18.0952380952
  0
MTEXT
  5
2A0
100
AcDbEntity
  8
0
100
AcDbMText
 62
5
  6
CONTINUOUS
  7
TEXTSTYLE_2
 71
1
 72
1
 10
0.0625
 20
-12.7341257188
 30
0.0
 11
1.0
 21
0.0
 31
0.0
 44
0.9
  1
\Q15.0; Zeichnung urheberrechtlich\P geschuetzt (DIN 34) (C)
 40
1.8
 41
66.0
  0
MTEXT
  5
2A1
100
AcDbEntity
  8
0
100
AcDbMText
 62
5
  6
CONTINUOUS
  7
TEXTSTYLE_2
 71
1
 72
1
 10
82.0625
 20
-11.5352761804
 30
0.0
 11
1.0
 21
0.0
 31
0.0
 44
0.9
  1
\Q15.0; Freigegeben
 40
2.0
 41
33.5238095238
  0
MTEXT
  5
2A2
100
AcDbEntity
  8
0
100
AcDbMText
 62
5
  6
CONTINUOUS
  7
TEXTSTYLE_2
 71
2
 72
1
 10
73.0
 20
-16.5352761804
 30
0.0
 11
1.0
 21
0.0
 31
0.0
 44
0.9
  1
(\Q15.0;A4\Q0.0;)
 40
2.0
 41
10.0
  0
MTEXT
  5
2A3
100
AcDbEntity
  8
0
100
AcDbMText
 62
5
  6
CONTINUOUS
  7
TEXTSTYLE_2
 71
1
 72
1
 10
82.0625
 20
-16.5352761804
 30
0.0
 11
1.0
 21
0.0
 31
0.0
 44
0.9
  1
\Q15.0; Geaendert
 40
2.0
 41
28.2857142857
  0
MTEXT
  5
2A4
100
AcDbEntity
  8
0
100
AcDbMText
 62
5
  6
CONTINUOUS
  7
TEXTSTYLE_2
 71
1
 72
1
 10
0.0625
 20
-20.921875
 30
0.0
 11
1.0
 21
0.0
 31
0.0
 44
0.9
  1
\Q15.0; Benennung
 40
2.0
 41
29.1428571429
  0
MTEXT
  5
2A5
100
AcDbEntity
  8
0
100
AcDbMText
 62
5
  6
CONTINUOUS
  7
TEXTSTYLE_2
 71
1
 72
1
 10
82.0625
 20
-20.9647238196
 30
0.0
 11
1.0
 21
0.0
 31
0.0
 44
1.2
  1
\Q15.0; Aend.-Nr.\P  
 40
2.0
 41
28.2857142857
  0
MTEXT
  5
2A6
100
AcDbEntity
  8
0
100
AcDbMText
 62
5
  6
CONTINUOUS
  7
TEXTSTYLE_2
 71
2
 72
1
 10
124.5
 20
-20.835314297
 30
0.0
 11
1.0
 21
0.0
 31
0.0
 44
0.9
  1
\Q15.0;Aend.-Index\P\H3.0; 
 40
2.0
 41
31.1428571429
  0
MTEXT
  5
2A7
100
AcDbEntity
  8
0
100
AcDbMText
 62
5
  6
CONTINUOUS
  7
TEXTSTYLE_2
 71
2
 72
1
 10
41.0
 20
-23.8117333157
 30
0.0
 11
1.0
 21
0.0
 31
0.0
 44
0.9
  1
\Q15.0;Gooseneck
 40
3.5
 41
46.3333333333
  0
MTEXT
  5
2A8
100
AcDbEntity
  8
0
100
AcDbMText
 62
5
  6
CONTINUOUS
  7
TEXTSTYLE_2
 71
2
 72
1
 10
40.25
 20
-30.088190451
 30
0.0
 11
1.0
 21
0.0
 31
0.0
 44
0.9
  1
\Q15.0;GNS18
 40
5.0
 41
37.1428571429
  0
MTEXT
  5
2A9
100
AcDbEntity
  8
0
100
AcDbMText
 62
5
  6
CONTINUOUS
  7
TEXTSTYLE_2
 71
1
 72
1
 10
82.0625
 20
-31.5352761804
 30
0.0
 11
1.0
 21
0.0
 31
0.0
 44
0.9
  1
\Q15.0; Ersatz fuer:
 40
2.0
 41
34.5714285714
  0
MTEXT
  5
2AA
100
AcDbEntity
  8
0
100
AcDbMText
 62
5
  6
CONTINUOUS
  7
TEXTSTYLE_2
 71
2
 72
1
 10
124.5
 20
-29.4647238196
 30
0.0
 11
1.0
 21
0.0
 31
0.0
 44
1.2
  1
\Q15.0;Blatt 1\Pvon 1 Bl.
 40
2.0
 41
24.5714285714
  0
MTEXT
  5
2AB
100
AcDbEntity
  8
0
100
AcDbMText
 62
5
  6
CONTINUOUS
  7
TEXTSTYLE_2
 71
1
 72
1
 10
82.0625
 20
-37.5352761804
 30
0.0
 11
1.0
 21
0.0
 31
0.0
 44
0.9
  1
\Q15.0; Zeichn. Nr.
 40
2.0
 41
32.9523809524
  0
MTEXT
  5
2AC
100
AcDbEntity
  8
0
100
AcDbMText
 62
5
  6
CONTINUOUS
  7
TEXTSTYLE_2
 71
2
 72
1
 10
108.5
 20
-41.3117333157
 30
0.0
 11
1.0
 21
0.0
 31
0.0
 44
0.9
  1
\Q15.0;ST-GNS18
 40
3.5
 41
42.5
  0
ENDBLK
  5
2AD
100
AcDbEntity
  8
0
  6
BYBLOCK
 62
0
100
AcDbBlockEnd
  0
ENDSEC
  0
SECTION
  2
ENTITIES
  0
MTEXT
  5
2AE
100
AcDbEntity
  8
0
100
AcDbMText
 62
4
  6
CONTINUOUS
  7
STANDARD
 71
1
 72
1
 10
126.0467415329
 20
10.4742136272
 30
0.0
 11
1.0
 21
0.0
 31
0.0
 44
0.9
  1
\Q15.0;FL-9494 SCHAAN
 40
2.43
 41
26.4985714286
  0
INSERT
  5
2AF
100
AcDbEntity
  8
0
100
AcDbBlockReference
 62
2
  6
CONTINUOUS
  2
SYMBOL_3_BL0
 10
98.0245925022
 20
9.2066660654
  0
ACAD_TABLE
  5
2B0
100
AcDbEntity
  8
0
 62
2
  6
CONTINUOUS
100
AcDbBlockReference
  2
*T1
 10
72.0
 20
51.0
 30
0.0
100
AcDbTable
342
       65B
343
20F
 11
1.0
 21
0.0
 31
0.0
 90
22
 91
9
 92
8
 93
0
 94
0
 95
0
 96
0
141
5.0
141
5.0
141
5.0
141
5.0
141
3.0
141
5.0
141
9.0
141
3.0
141
6.0
142
20.5
142
19.0
142
1.5
142
23.0
142
18.0
142
19.0
142
15.0
142
17.0
171
1
172
0
173
0
174
0
175
2
176
2
177
41
178
0
145
0.0
  1
\Q15.0; Allgemeintoleranzen\P ISO 2768-m
170
4
140
1.8
 64
5
171
1
172
0
173
1
174
0
175
1
176
1
177
1
178
0
145
0.0
170
1
171
1
172
0
173
0
174
0
175
1
176
2
177
1
178
0
145
0.0
170
1
171
1
172
0
173
0
174
0
175
1
176
1
177
41
178
0
145
0.0
  1
\Q15.0;Werkstoff
170
5
140
2.0
 64
5
171
1
172
0
173
0
174
0
175
1
176
1
177
41
178
0
145
0.0
  1
\Q15.0;Massstab:
170
5
140
2.0
 64
5
171
1
172
0
173
0
174
0
175
1
176
1
177
1
178
0
145
0.0
170
1
171
1
172
0
173
0
174
0
175
1
176
1
177
41
178
0
145
0.0
  1
\Q15.0;Datum
170
5
140
2.0
 64
5
171
1
172
0
173
0
174
0
175
1
176
1
177
41
178
0
145
0.0
  1
\Q15.0;Name
170
5
140
2.0
 64
5
171
1
172
0
173
1
174
0
175
1
176
1
177
1
178
0
145
0.0
170
1
171
1
172
0
173
1
174
0
175
1
176
1
177
1
178
0
145
0.0
170
1
171
1
172
0
173
1
174
0
175
1
176
1
177
1
178
0
145
0.0
170
1
171
1
172
0
173
0
174
0
175
1
176
1
177
1
178
0
145
0.0
170
1
171
1
172
0
173
0
174
0
175
1
176
1
177
1
178
0
145
0.0
170
1
171
1
172
0
173
0
174
0
175
1
176
1
177
41
178
0
145
0.0
  1
\Q15.0; Gezeichnet
170
4
140
2.0
 64
5
171
1
172
0
173
0
174
0
175
1
176
1
177
41
178
0
145
0.0
  1
\Q15.0;19.05.98
170
5
140
2.0
 64
5
171
1
172
0
173
0
174
0
175
1
176
1
177
41
178
0
145
0.0
  1
\Q15.0;Alinjak
170
5
140
2.0
 64
5
171
1
172
0
173
0
174
0
175
2
176
2
177
41
178
0
145
0.0
  1
\Q15.0; Zeichnung urheberrechtlich\P geschuetzt (DIN 34) (C)
170
4
140
1.8
 64
5
171
1
172
0
173
1
174
0
175
1
176
1
177
1
178
0
145
0.0
170
1
171
1
172
0
173
0
174
0
175
1
176
2
177
1
178
0
145
0.0
170
1
171
1
172
0
173
0
174
0
175
1
176
1
177
41
178
0
145
0.0
  1
\Q15.0; 
170
5
140
2.0
 64
5
171
1
172
0
173
0
174
0
175
1
176
1
177
41
178
0
145
0.0
  1
\Q15.0; 
170
2
140
3.5
 64
5
171
1
172
0
173
0
174
0
175
1
176
1
177
41
178
0
145
0.0
  1
\Q15.0; Freigegeben
170
4
140
2.0
 64
5
171
1
172
0
173
0
174
0
175
1
176
1
177
1
178
0
145
0.0
170
1
171
1
172
0
173
0
174
0
175
1
176
1
177
1
178
0
145
0.0
170
1
171
1
172
0
173
1
174
0
175
1
176
1
177
1
178
0
145
0.0
170
1
171
1
172
0
173
1
174
0
175
1
176
1
177
1
178
0
145
0.0
170
1
171
1
172
0
173
1
174
0
175
1
176
1
177
1
178
0
145
0.0
170
1
171
1
172
0
173
0
174
0
175
1
176
1
177
41
178
0
145
0.0
  1
\Q15.0; 
170
5
140
2.0
 64
5
171
1
172
0
173
0
174
0
175
1
176
1
177
41
178
0
145
0.0
  1
(\Q15.0;A4\Q0.0;)
170
5
140
2.0
 64
5
171
1
172
0
173
0
174
0
175
1
176
1
177
41
178
0
145
0.0
  1
\Q15.0; Geaendert
170
4
140
2.0
 64
5
171
1
172
0
173
0
174
0
175
1
176
1
177
41
178
0
145
0.0
  1
\Q15.0; 
170
5
140
2.0
 64
5
171
1
172
0
173
0
174
0
175
1
176
1
177
41
178
0
145
0.0
  1
\Q15.0; 
170
5
140
2.0
 64
5
171
1
172
0
173
0
174
0
175
2
176
1
177
41
178
0
145
0.0
  1
\Q15.0; Benennung
170
7
140
2.0
 64
5
171
1
172
0
173
1
174
0
175
1
176
1
177
1
178
0
145
0.0
170
1
171
1
172
0
173
0
174
0
175
1
176
1
177
1
178
0
145
0.0
170
1
171
1
172
0
173
0
174
0
175
1
176
1
177
1
178
0
145
0.0
170
1
171
1
172
0
173
0
174
0
175
1
176
1
177
1
178
0
145
0.0
170
1
171
1
172
0
173
0
174
0
175
2
176
2
177
41
178
0
145
0.0
  1
\Q15.0; Aend.-Nr.\P  
170
4
140
2.0
 64
5
171
1
172
0
173
1
174
0
175
1
176
1
177
1
178
0
145
0.0
170
1
171
1
172
0
173
0
174
0
175
1
176
2
177
41
178
0
145
0.0
  1
\Q15.0;Aend.-Index\P\H3.0; 
170
5
140
2.0
 64
5
171
1
172
0
173
0
174
0
175
5
176
1
177
41
178
0
145
0.0
  1
\Q15.0;Gooseneck
170
5
140
3.5
 64
5
171
1
172
0
173
1
174
0
175
1
176
1
177
1
178
0
145
0.0
170
1
171
1
172
0
173
1
174
0
175
1
176
1
177
1
178
0
145
0.0
170
1
171
1
172
0
173
1
174
0
175
1
176
1
177
1
178
0
145
0.0
170
1
171
1
172
0
173
1
174
0
175
1
176
1
177
1
178
0
145
0.0
170
1
171
1
172
0
173
1
174
0
175
1
176
1
177
1
178
0
145
0.0
170
1
171
1
172
0
173
1
174
0
175
1
176
1
177
1
178
0
145
0.0
170
1
171
1
172
0
173
1
174
0
175
1
176
1
177
1
178
0
145
0.0
170
1
171
1
172
0
173
0
174
0
175
1
176
1
177
1
178
0
145
0.0
170
1
171
1
172
0
173
0
174
0
175
1
176
1
177
1
178
0
145
0.0
170
1
171
1
172
0
173
0
174
0
175
1
176
1
177
41
178
0
145
0.0
  1
\Q15.0;GNS18
170
5
140
5.0
 64
5
171
1
172
0
173
0
174
0
175
1
176
1
177
1
178
0
145
0.0
170
1
171
1
172
0
173
0
174
0
175
1
176
1
177
1
178
0
145
0.0
170
1
171
1
172
0
173
0
174
0
175
1
176
1
177
41
178
0
145
0.0
  1
\Q15.0; Ersatz fuer:
170
4
140
2.0
 64
5
171
1
172
0
173
0
174
0
175
1
176
1
177
1
178
0
145
0.0
170
1
171
1
172
0
173
0
174
0
175
1
176
1
177
41
178
0
145
0.0
  1
\Q15.0;Blatt 1\Pvon 1 Bl.
170
5
140
2.0
 64
5
171
1
172
0
173
0
174
0
175
5
176
2
177
1
178
0
145
0.0
170
1
171
1
172
0
173
1
174
0
175
1
176
1
177
1
178
0
145
0.0
170
1
171
1
172
0
173
1
174
0
175
1
176
1
177
1
178
0
145
0.0
170
1
171
1
172
0
173
1
174
0
175
1
176
1
177
1
178
0
145
0.0
170
1
171
1
172
0
173
1
174
0
175
1
176
1
177
1
178
0
145
0.0
170
1
171
1
172
0
173
0
174
0
175
1
176
1
177
41
178
0
145
0.0
  1
\Q15.0; Zeichn. Nr.
170
4
140
2.0
 64
5
171
1
172
0
173
0
174
0
175
1
176
1
177
1
178
0
145
0.0
170
1
171
1
172
0
173
0
174
0
175
1
176
1
177
1
178
0
145
0.0
170
1
171
1
172
0
173
1
174
0
175
1
176
1
177
1
178
0
145
0.0
170
1
171
1
172
0
173
1
174
0
175
1
176
1
177
1
178
0
145
0.0
170
1
171
1
172
0
173
1
174
0
175
1
176
1
177
1
178
0
145
0.0
170
1
171
1
172
0
173
1
174
0
175
1
176
1
177
1
178
0
145
0.0
170
1
171
1
172
0
173
1
174
0
175
1
176
1
177
1
178
0
145
0.0
170
1
171
1
172
0
173
0
174
0
175
1
176
1
177
1
178
0
145
0.0
170
1
171
1
172
0
173
0
174
0
175
1
176
1
177
41
178
0
145
0.0
  1
\Q15.0;ST-GNS18
170
5
140
3.5
 64
5
171
1
172
0
173
0
174
0
175
1
176
1
177
1
178
0
145
0.0
170
1
  0
MTEXT
  5
2B1
100
AcDbEntity
  8
0
100
AcDbMText
 62
5
  6
CONTINUOUS
  7
TEXTSTYLE_3
 71
2
 72
1
 10
44.1556468225
 20
178.5084833984
 30
0.0
 11
1.0
 21
0.0
 31
0.0
 44
1.0000002
  1
\Q15.0;{\Fgdt;n}\Ftxt;12.0 [0.472"]
 40
3.5
 41
35.1666666667
  0
MTEXT
  5
2B2
100
AcDbEntity
  8
0
100
AcDbMText
 62
5
  6
CONTINUOUS
  7
STANDARD
 71
2
 72
1
 10
80.3485229538
 20
184.074695473
 30
0.0
 11
0.0
 21
1.0
 31
0.0
 44
1.0000002
  1
\Q15.0;230.0 [9.055"]
 40
3.5
 41
33.9166666667
  0
MTEXT
  5
2B3
100
AcDbEntity
  8
0
100
AcDbMText
 62
5
  6
CONTINUOUS
  7
STANDARD
 71
2
 72
1
 10
48.7989306571
 20
151.5216048766
 30
0.0
 11
0.0
 21
1.0
 31
0.0
  1
\Q15.0;35.0 [1.378"]
 40
3.5
 41
29.75
  0
MTEXT
  5
2B4
100
AcDbEntity
  8
0
100
AcDbMText
 62
5
  6
CONTINUOUS
  7
STANDARD
 71
2
 72
1
 10
133.7193949954
 20
75.812831455
 30
0.0
 11
1.0
 21
0.0
 31
0.0
  1
\Q15.0;M17x1
 40
3.5
 41
12.25
  0
MTEXT
  5
2B5
100
AcDbEntity
  8
0
100
AcDbMText
 62
5
  6
CONTINUOUS
  7
STANDARD
 71
2
 72
1
 10
134.4354595342
 20
109.2847775294
 30
0.0
 11
1.0
 21
0.0
 31
0.0
  1
\Q15.0;3/8"
 40
3.5
 41
10.1666666667
  0
MTEXT
  5
2B6
100
AcDbEntity
  8
025
100
AcDbMText
 62
5
  6
CONTINUOUS
  7
STANDARD
 71
1
 72
1
 10
127.7569905325
 20
119.3551179203
 30
0.0
 11
1.0
 21
0.0
 31
0.0
 44
0.9
  1
\Q15.0;3/8"
 40
3.5
 41
10.1666666667
  0
MTEXT
  5
2B7
100
AcDbEntity
  8
0
100
AcDbMText
 62
5
  6
CONTINUOUS
  7
STANDARD
 71
2
 72
1
 10
133.7193949955
 20
215.7980665295
 30
0.0
 11
1.0
 21
0.0
 31
0.0
  1
\Q15.0;M17x1
 40
3.5
 41
12.25
  0
MTEXT
  5
2B8
100
AcDbEntity
  8
0
100
AcDbMText
 62
5
  6
CONTINUOUS
  7
STANDARD
 71
2
 72
1
 10
133.7193949954
 20
205.4751177654
 30
0.0
 11
1.0
 21
0.0
 31
0.0
  1
\Q15.0;M17x1
 40
3.5
 41
12.25
  0
MTEXT
  5
2B9
100
AcDbEntity
  8
0
100
AcDbMText
 62
5
  6
CONTINUOUS
  7
STANDARD
 71
2
 72
1
 10
134.4023789444
 20
150.324458846
 30
0.0
 11
1.0
 21
0.0
 31
0.0
  1
\Q15.0;5/8"
 40
3.5
 41
10.1666666667
  0
MTEXT
  5
2BA
100
AcDbEntity
  8
0
100
AcDbMText
 62
5
  6
CONTINUOUS
  7
TEXTSTYLE_4
 71
1
 72
1
 10
87.6676363636
 20
277.2978398438
 30
0.0
 11
1.0
 21
0.0
 31
0.0
 44
0.9
  1
\Q15.0;GNS18
 40
5.0
 41
22.7777777778
  0
MTEXT
  5
2BB
100
AcDbEntity
  8
0
100
AcDbMText
 62
5
  6
CONTINUOUS
  7
STANDARD
 71
1
 72
1
 10
160.0471583867
 20
236.2959174754
 30
0.0
 11
1.0
 21
0.0
 31
0.0
 44
0.9
  1
\Q15.0;NC3FX-Spec
 40
3.5
 41
26.8333333333
  0
MTEXT
  5
2BC
100
AcDbEntity
  8
0
100
AcDbMText
 62
5
  6
CONTINUOUS
  7
STANDARD
 71
1
 72
1
 10
159.9135002008
 20
179.8405088748
 30
0.0
 11
1.0
 21
0.0
 31
0.0
 44
0.9
  1
\Q15.0;Cable outlet
 40
3.5
 41
28.8333333333
  0
MTEXT
  5
2BD
100
AcDbEntity
  8
0
100
AcDbMText
 62
5
  6
CONTINUOUS
  7
STANDARD
 71
1
 72
1
 10
159.8986027412
 20
133.0307849981
 30
0.0
 11
1.0
 21
0.0
 31
0.0
 44
0.9
  1
\Q15.0;NAM5
 40
3.5
 41
11.9166666667
  0
MTEXT
  5
2BE
100
AcDbEntity
  8
0
100
AcDbMText
 62
5
  6
CONTINUOUS
  7
STANDARD
 71
1
 72
1
 10
159.8780972688
 20
89.6152609894
 30
0.0
 11
1.0
 21
0.0
 31
0.0
 44
0.9
  1
\Q15.0;M17x1 bolt
 40
3.5
 41
24.4166666667
  0
MTEXT
  5
2BF
100
AcDbEntity
  8
0
100
AcDbMText
 62
5
  6
CONTINUOUS
  7
STANDARD
 71
1
 72
1
 10
59.4120140163
 20
115.6268844295
 30
0.0
 11
1.0
 21
0.0
 31
0.0
 44
0.9
  1
\Q15.0;M1:2
 40
3.5
 41
9.6666666667
  0
MTEXT
  5
2C0
100
AcDbEntity
  8
0
100
AcDbMText
 62
5
  6
CONTINUOUS
  7
STANDARD
 71
1
 72
1
 10
128.5950194654
 20
61.7635084001
 30
0.0
 11
1.0
 21
0.0
 31
0.0
 44
0.9
  1
\Q15.0;M1:1
 40
3.5
 41
8.9166666667
  0
LINE
  5
2C1
100
AcDbEntity
  8
0
100
AcDbLine
 62
7
  6
CONTINUOUS
 10
0.0
 20
0.0
 11
210.0
 21
0.0
  0
LINE
  5
2C2
100
AcDbEntity
  8
0
100
AcDbLine
 62
7
  6
CONTINUOUS
 10
5.0
 20
5.0
 11
205.0
 21
5.0
  0
LINE
  5
2C3
100
AcDbEntity
  8
0
100
AcDbLine
 62
7
  6
CONTINUOUS
 10
0.0
 20
0.0
 11
0.0
 21
297.0
  0
LINE
  5
2C4
100
AcDbEntity
  8
0
100
AcDbLine
 62
7
  6
CONTINUOUS
 10
5.0
 20
5.0
 11
5.0
 21
292.0
  0
LINE
  5
2C5
100
AcDbEntity
  8
05
100
AcDbLine
 62
7
  6
CONTINUOUS
 10
59.1206901424
 20
233.8771016753
 11
58.8206901424
 21
233.5771016753
  0
LINE
  5
2C6
100
AcDbEntity
  8
05
100
AcDbLine
 62
7
  6
CONTINUOUS
 10
60.9206901424
 20
221.8049894389
 11
61.1156901424
 21
221.9175727413
  0
LINE
  5
2C7
100
AcDbEntity
  8
SCHRAFFIERT
100
AcDbLine
 62
2
  6
CONTINUOUS
 10
60.9254136522
 20
221.8049900326
 11
61.1204136522
 21
221.917573335
  0
LINE
  5
2C8
100
AcDbEntity
  8
SCHRAFFIERT
100
AcDbLine
 62
2
  6
CONTINUOUS
 10
69.5004136522
 20
225.4395199787
 11
69.4004136522
 21
225.3395199787
  0
LINE
  5
2C9
100
AcDbEntity
  8
SCHRAFFIERT
100
AcDbLine
 62
2
  6
CONTINUOUS
 10
69.4004136522
 20
222.187573335
 11
69.1304136522
 21
221.917573335
  0
LINE
  5
2CA
100
AcDbEntity
  8
SCHRAFFIERT
100
AcDbLine
 62
2
  6
CONTINUOUS
 10
68.3754136522
 20
220.1895199787
 11
67.1254136522
 21
218.9395199787
  0
LINE
  5
2CB
100
AcDbEntity
  8
SCHRAFFIERT
100
AcDbLine
 62
2
  6
CONTINUOUS
 10
62.307513156
 20
216.9776678782
 11
63.1254136522
 21
217.4498829498
  0
LINE
  5
2CC
100
AcDbEntity
  8
SCHRAFFIERT
100
AcDbLine
 62
2
  6
CONTINUOUS
 10
60.3797749819
 20
217.8837762339
 11
60.420803089
 21
217.1009133154
  0
LINE
  5
2CD
100
AcDbEntity
  8
SCHRAFFIERT
100
AcDbLine
 62
2
  6
CONTINUOUS
 10
60.3754136522
 20
218.0503286951
 11
60.3797749819
 21
217.8837762339
  0
LINE
  5
2CE
100
AcDbEntity
  8
SCHRAFFIERT
100
AcDbLine
 62
2
  6
CONTINUOUS
 10
60.3754136522
 20
225.4395199787
 11
60.3754136522
 21
218.0503286951
  0
LINE
  5
2CF
100
AcDbEntity
  8
SCHRAFFIERT
100
AcDbLine
 62
2
  6
CONTINUOUS
 10
60.7254136522
 20
220.5895199787
 11
60.7254136522
 21
221.458579871
  0
LINE
  5
2D0
100
AcDbEntity
  8
SCHRAFFIERT
100
AcDbLine
 62
2
  6
CONTINUOUS
 10
60.8504136522
 20
222.187573335
 11
60.8504136522
 21
221.749053622
  0
LINE
  5
2D1
100
AcDbEntity
  8
SCHRAFFIERT
100
AcDbLine
 62
2
  6
CONTINUOUS
 10
60.8504136522
 20
221.749053622
 11
60.8504136522
 21
222.187573335
  0
LINE
  5
2D2
100
AcDbEntity
  8
SCHRAFFIERT
100
AcDbLine
 62
2
  6
CONTINUOUS
 10
60.8504136522
 20
222.187573335
 11
60.8504136522
 21
225.3395199787
  0
LINE
  5
2D3
100
AcDbEntity
  8
SCHRAFFIERT
100
AcDbLine
 62
2
  6
CONTINUOUS
 10
63.1254136522
 20
217.4498829498
 11
63.1254136522
 21
218.9395199787
  0
LINE
  5
2D4
100
AcDbEntity
  8
SCHRAFFIERT
100
AcDbLine
 62
2
  6
CONTINUOUS
 10
67.1254136522
 20
218.9395199787
 11
67.1254136522
 21
217.4498829498
  0
LINE
  5
2D5
100
AcDbEntity
  8
SCHRAFFIERT
100
AcDbLine
 62
2
  6
CONTINUOUS
 10
69.4004136522
 20
225.3395199787
 11
69.4004136522
 21
224.0395199787
  0
LINE
  5
2D6
100
AcDbEntity
  8
SCHRAFFIERT
100
AcDbLine
 62
2
  6
CONTINUOUS
 10
69.4004136522
 20
224.0395199787
 11
69.4004136522
 21
222.187573335
  0
LINE
  5
2D7
100
AcDbEntity
  8
SCHRAFFIERT
100
AcDbLine
 62
2
  6
CONTINUOUS
 10
69.4004136522
 20
222.187573335
 11
69.4004136522
 21
221.749053622
  0
LINE
  5
2D8
100
AcDbEntity
  8
SCHRAFFIERT
100
AcDbLine
 62
2
  6
CONTINUOUS
 10
69.4004136522
 20
221.749053622
 11
69.4004136522
 21
222.187573335
  0
LINE
  5
2D9
100
AcDbEntity
  8
SCHRAFFIERT
100
AcDbLine
 62
2
  6
CONTINUOUS
 10
69.5254136522
 20
221.458579871
 11
69.5254136522
 21
220.5895199787
  0
LINE
  5
2DA
100
AcDbEntity
  8
SCHRAFFIERT
100
AcDbLine
 62
2
  6
CONTINUOUS
 10
69.8099894863
 20
216.718627909
 11
69.8754136522
 21
217.9669953618
  0
LINE
  5
2DB
100
AcDbEntity
  8
SCHRAFFIERT
100
AcDbLine
 62
2
  6
CONTINUOUS
 10
69.8754136522
 20
217.9669953618
 11
69.8754136522
 21
225.4395199787
  0
LINE
  5
2DC
100
AcDbEntity
  8
SCHRAFFIERT
100
AcDbLine
 62
2
  6
CONTINUOUS
 10
63.1254136522
 20
218.9395199787
 11
61.8754136522
 21
220.1895199787
  0
LINE
  5
2DD
100
AcDbEntity
  8
SCHRAFFIERT
100
AcDbLine
 62
2
  6
CONTINUOUS
 10
61.1204136522
 20
221.917573335
 11
60.8504136522
 21
222.187573335
  0
LINE
  5
2DE
100
AcDbEntity
  8
SCHRAFFIERT
100
AcDbLine
 62
2
  6
CONTINUOUS
 10
60.8504136522
 20
225.3395199787
 11
60.7504136522
 21
225.4395199787
  0
LINE
  5
2DF
100
AcDbEntity
  8
SCHRAFFIERT
100
AcDbLine
 62
2
  6
CONTINUOUS
 10
61.6567233475
 20
217.235624387
 11
62.307513156
 21
216.9776678782
  0
LINE
  5
2E0
100
AcDbEntity
  8
SCHRAFFIERT
100
AcDbLine
 62
2
  6
CONTINUOUS
 10
67.1254136522
 20
217.4498829498
 11
68.0850246065
 21
216.895851307
  0
LINE
  5
2E1
100
AcDbEntity
  8
SCHRAFFIERT
100
AcDbLine
 62
2
  6
CONTINUOUS
 10
69.1304136522
 20
221.917573335
 11
69.3254136522
 21
221.8049900326
  0
LINE
  5
2E2
100
AcDbEntity
  8
SCHRAFFIERT
100
AcDbLine
 62
2
  6
CONTINUOUS
 10
60.420803089
 20
217.1009133154
 11
61.6567233475
 21
217.235624387
  0
LINE
  5
2E3
100
AcDbEntity
  8
SCHRAFFIERT
100
AcDbLine
 62
2
  6
CONTINUOUS
 10
69.1254136522
 20
220.1895199787
 11
68.3754136522
 21
220.1895199787
  0
LINE
  5
2E4
100
AcDbEntity
  8
SCHRAFFIERT
100
AcDbLine
 62
2
  6
CONTINUOUS
 10
61.8754136522
 20
220.1895199787
 11
61.1254136522
 21
220.1895199787
  0
LINE
  5
2E5
100
AcDbEntity
  8
SCHRAFFIERT
100
AcDbLine
 62
2
  6
CONTINUOUS
 10
68.0850246065
 20
216.895851307
 11
69.8099894863
 21
216.718627909
  0
LINE
  5
2E6
100
AcDbEntity
  8
SCHRAFFIERT
100
AcDbLine
 62
2
  6
CONTINUOUS
 10
69.8754136522
 20
225.4395199787
 11
69.5004136522
 21
225.4395199787
  0
LINE
  5
2E7
100
AcDbEntity
  8
SCHRAFFIERT
100
AcDbLine
 62
2
  6
CONTINUOUS
 10
60.7504136522
 20
225.4395199787
 11
60.3754136522
 21
225.4395199787
  0
ARC
  5
2E8
100
AcDbEntity
  8
SCHRAFFIERT
100
AcDbCircle
 62
2
  6
CONTINUOUS
 10
61.1254136522
 20
220.5895199787
 40
0.4
100
AcDbArc
 50
180.0
 51
270.0
  0
ARC
  5
2E9
100
AcDbEntity
  8
SCHRAFFIERT
100
AcDbCircle
 62
2
  6
CONTINUOUS
 10
61.1254136522
 20
221.458579871
 40
0.4
100
AcDbArc
 50
133.4325365578
 51
180.0
  0
ARC
  5
2EA
100
AcDbEntity
  8
SCHRAFFIERT
100
AcDbCircle
 62
2
  6
CONTINUOUS
 10
61.1254136522
 20
221.458579871
 40
0.4
100
AcDbArc
 50
120.0
 51
133.4325365578
  0
ARC
  5
2EB
100
AcDbEntity
  8
SCHRAFFIERT
100
AcDbCircle
 62
2
  6
CONTINUOUS
 10
69.1254136522
 20
221.458579871
 40
0.4
100
AcDbArc
 50
0.0
 51
46.5674634422
  0
ARC
  5
2EC
100
AcDbEntity
  8
SCHRAFFIERT
100
AcDbCircle
 62
2
  6
CONTINUOUS
 10
69.1254136522
 20
220.5895199787
 40
0.4
100
AcDbArc
 50
270.0
 51
360.0
  0
ARC
  5
2ED
100
AcDbEntity
  8
SCHRAFFIERT
100
AcDbCircle
 62
2
  6
CONTINUOUS
 10
69.1254136522
 20
221.458579871
 40
0.4
100
AcDbArc
 50
46.5674634422
 51
60.0
  0
HATCH
  5
2EE
100
AcDbEntity
  8
SCHRAFFIERT
100
AcDbHatch
 62
4
  6
CONTINUOUS
 10
0.0
 20
0.0
 30
0.0
210
0.0
220
0.0
230
1.0
  2
ANSI31
 70
0
 71
1
 91
1
 92
1
 93
17
 72
2
 10
69.1254136522
 20
221.458579871
 40
0.4
 50
0.0
 51
46.5674634422
 73
1
 72
1
 10
69.5254136522
 20
221.458579871
 11
69.5254136522
 21
220.5895199787
 72
2
 10
69.1254136522
 20
220.5895199787
 40
0.4
 50
270.0
 51
360.0
 73
1
 72
1
 10
69.1254136522
 20
220.1895199787
 11
68.3754136522
 21
220.1895199787
 72
1
 10
68.3754136522
 20
220.1895199787
 11
67.1254136522
 21
218.9395199787
 72
1
 10
67.1254136522
 20
218.9395199787
 11
67.1254136522
 21
217.4498829498
 72
1
 10
67.1254136522
 20
217.4498829498
 11
68.0850246065
 21
216.895851307
 72
1
 10
68.0850246065
 20
216.895851307
 11
69.8099894863
 21
216.718627909
 72
1
 10
69.8099894863
 20
216.718627909
 11
69.8754136522
 21
217.9669953618
 72
1
 10
69.8754136522
 20
217.9669953618
 11
69.8754136522
 21
225.4395199787
 72
1
 10
69.8754136522
 20
225.4395199787
 11
69.5004136522
 21
225.4395199787
 72
1
 10
69.5004136522
 20
225.4395199787
 11
69.4004136522
 21
225.3395199787
 72
1
 10
69.4004136522
 20
225.3395199787
 11
69.4004136522
 21
224.0395199787
 72
1
 10
69.4004136522
 20
224.0395199787
 11
69.4004136522
 21
222.187573335
 72
1
 10
69.4004136522
 20
222.187573335
 11
69.1304136522
 21
221.917573335
 72
1
 10
69.1304136522
 20
221.917573335
 11
69.3254136522
 21
221.8049900326
 72
1
 10
69.4004136522
 20
221.749053622
 11
69.3254136522
 21
221.8049900326
 97
39
330
2C7
330
2C8
330
2C9
330
2CA
330
2CB
330
2CC
330
2CD
330
2CE
330
2CF
330
2D0
330
2D1
330
2D2
330
2D3
330
2D4
330
2D5
330
2D6
330
2D7
330
2D8
330
2D9
330
2DA
330
2DB
330
2DC
330
2DD
330
2DE
330
2DF
330
2E0
330
2E1
330
2E2
330
2E3
330
2E4
330
2E5
330
2E6
330
2E7
330
2E8
330
2E9
330
2EA
330
2EB
330
2EC
330
2ED
 75
0
 76
0
 52
45.0
 41
0.75
 77
0
 78
1
 53
45.0
 43
-3.6388234908
 44
3.6388234908
 45
-0.5303300859
 46
0.5303300859
 79
0
 98
1
 10
0.0
 20
0.0
  0
LINE
  5
2EF
100
AcDbEntity
  8
035
100
AcDbLine
 62
7
  6
CONTINUOUS
 10
60.6383394673
 20
236.4391853007
 11
61.1831901424
 21
237.3828943526
  0
LINE
  5
2F0
100
AcDbEntity
  8
05
100
AcDbLine
 62
7
  6
CONTINUOUS
 10
71.4206901424
 20
230.1771016753
 11
71.1206901424
 21
229.8771016753
  0
LINE
  5
2F1
100
AcDbEntity
  8
05
100
AcDbLine
 62
7
  6
CONTINUOUS
 10
69.4956901424
 20
225.439519385
 11
69.3956901424
 21
225.339519385
  0
LINE
  5
2F2
100
AcDbEntity
  8
05
100
AcDbLine
 62
7
  6
CONTINUOUS
 10
69.1256901424
 20
221.9175727413
 11
69.3956901424
 21
222.1875727413
  0
LINE
  5
2F3
100
AcDbEntity
  8
05
100
AcDbLine
 62
7
  6
CONTINUOUS
 10
67.1206901424
 20
218.939519385
 11
68.3706901424
 21
220.189519385
  0
LINE
  5
2F4
100
AcDbEntity
  8
05
100
AcDbLine
 62
7
  6
CONTINUOUS
 10
62.3027896463
 20
216.9776672845
 11
63.1206901424
 21
217.4498823561
  0
LINE
  5
2F5
100
AcDbEntity
  8
0
100
AcDbLine
 62
2
  6
CONTINUOUS
 10
138.6011219987
 20
69.8912726691
 11
142.1011219987
 21
70.4746060024
  0
LINE
  5
2F6
100
AcDbEntity
  8
0
100
AcDbLine
 62
2
  6
CONTINUOUS
 10
142.1011219987
 20
70.4746060024
 11
138.6011219987
 21
71.0579393357
  0
LINE
  5
2F7
100
AcDbEntity
  8
0
100
AcDbLine
 62
2
  6
CONTINUOUS
 10
138.6011219987
 20
71.0579393357
 11
138.6011219987
 21
69.8912726691
  0
HATCH
  5
2F8
100
AcDbEntity
  8
0
100
AcDbHatch
 62
2
  6
CONTINUOUS
 10
0.0
 20
0.0
 30
0.0
210
0.0
220
0.0
230
1.0
  2

 70
1
 71
1
 91
1
 92
1
 93
3
 72
1
 10
142.1011219987
 20
70.4746060024
 11
138.6011219987
 21
71.0579393357
 72
1
 10
138.6011219987
 20
71.0579393357
 11
138.6011219987
 21
69.8912726691
 72
1
 10
138.6011219987
 20
69.8912726691
 11
142.1011219987
 21
70.4746060024
 97
3
330
2F5
330
2F6
330
2F7
 75
0
 76
1
 98
1
 10
0.0
 20
0.0
  0
LINE
  5
2F9
100
AcDbEntity
  8
0
100
AcDbLine
 62
2
  6
CONTINUOUS
 10
125.0991336946
 20
70.4746060024
 11
128.5991336946
 21
71.0579393357
  0
LINE
  5
2FA
100
AcDbEntity
  8
0
100
AcDbLine
 62
2
  6
CONTINUOUS
 10
128.5991336946
 20
69.8912726691
 11
125.0991336946
 21
70.4746060024
  0
LINE
  5
2FB
100
AcDbEntity
  8
0
100
AcDbLine
 62
2
  6
CONTINUOUS
 10
128.5991336946
 20
71.0579393357
 11
128.5991336946
 21
69.8912726691
  0
HATCH
  5
2FC
100
AcDbEntity
  8
0
100
AcDbHatch
 62
2
  6
CONTINUOUS
 10
0.0
 20
0.0
 30
0.0
210
0.0
220
0.0
230
1.0
  2

 70
1
 71
1
 91
1
 92
1
 93
3
 72
1
 10
128.5991336946
 20
71.0579393357
 11
128.5991336946
 21
69.8912726691
 72
1
 10
128.5991336946
 20
69.8912726691
 11
125.0991336946
 21
70.4746060024
 72
1
 10
125.0991336946
 20
70.4746060024
 11
128.5991336946
 21
71.0579393357
 97
3
330
2F9
330
2FA
330
2FB
 75
0
 76
1
 98
1
 10
0.0
 20
0.0
  0
LINE
  5
2FD
100
AcDbEntity
  8
0
100
AcDbLine
 62
2
  6
CONTINUOUS
 10
128.5991336946
 20
70.4746060024
 11
138.6011219987
 21
70.4746060024
  0
LINE
  5
2FE
100
AcDbEntity
  8
07
100
AcDbLine
 62
7
  6
CONTINUOUS
 10
141.5010518232
 20
79.9568630852
 11
125.69920387
 21
79.9568630852
  0
LINE
  5
2FF
100
AcDbEntity
  8
025
100
AcDbLine
 62
2
  6
CONTINUOUS
 10
142.1011219987
 20
80.5569332607
 11
125.0991336946
 21
80.5569332607
  0
LINE
  5
300
100
AcDbEntity
  8
0
100
AcDbLine
 62
2
  6
CONTINUOUS
 10
53.7611286827
 20
160.3333381924
 11
53.7611286827
 21
142.8333381924
  0
LINE
  5
301
100
AcDbEntity
  8
0
100
AcDbLine
 62
2
  6
CONTINUOUS
 10
53.1777953493
 20
156.8333381924
 11
53.7611286827
 21
160.3333381924
  0
LINE
  5
302
100
AcDbEntity
  8
0
100
AcDbLine
 62
2
  6
CONTINUOUS
 10
53.7611286827
 20
160.3333381924
 11
54.344462016
 21
156.8333381924
  0
LINE
  5
303
100
AcDbEntity
  8
0
100
AcDbLine
 62
2
  6
CONTINUOUS
 10
54.344462016
 20
156.8333381924
 11
53.1777953493
 21
156.8333381924
  0
HATCH
  5
304
100
AcDbEntity
  8
0
100
AcDbHatch
 62
2
  6
CONTINUOUS
 10
0.0
 20
0.0
 30
0.0
210
0.0
220
0.0
230
1.0
  2

 70
1
 71
1
 91
1
 92
1
 93
3
 72
1
 10
53.7611286827
 20
160.3333381924
 11
54.344462016
 21
156.8333381924
 72
1
 10
54.344462016
 20
156.8333381924
 11
53.1777953493
 21
156.8333381924
 72
1
 10
53.1777953493
 20
156.8333381924
 11
53.7611286827
 21
160.3333381924
 97
3
330
301
330
302
330
303
 75
0
 76
1
 98
1
 10
0.0
 20
0.0
  0
LINE
  5
305
100
AcDbEntity
  8
0
100
AcDbLine
 62
2
  6
CONTINUOUS
 10
53.7611286827
 20
142.8333381924
 11
54.344462016
 21
146.3333381924
  0
LINE
  5
306
100
AcDbEntity
  8
0
100
AcDbLine
 62
2
  6
CONTINUOUS
 10
53.1777953493
 20
146.3333381924
 11
53.7611286827
 21
142.8333381924
  0
LINE
  5
307
100
AcDbEntity
  8
0
100
AcDbLine
 62
2
  6
CONTINUOUS
 10
54.344462016
 20
146.3333381924
 11
53.1777953493
 21
146.3333381924
  0
HATCH
  5
308
100
AcDbEntity
  8
0
100
AcDbHatch
 62
2
  6
CONTINUOUS
 10
0.0
 20
0.0
 30
0.0
210
0.0
220
0.0
230
1.0
  2

 70
1
 71
1
 91
1
 92
1
 93
3
 72
1
 10
54.344462016
 20
146.3333381924
 11
53.1777953493
 21
146.3333381924
 72
1
 10
53.1777953493
 20
146.3333381924
 11
53.7611286827
 21
142.8333381924
 72
1
 10
53.7611286827
 20
142.8333381924
 11
54.344462016
 21
146.3333381924
 97
3
330
305
330
306
330
307
 75
0
 76
1
 98
1
 10
0.0
 20
0.0
  0
LINE
  5
309
100
AcDbEntity
  8
05
100
AcDbLine
 62
7
  6
CONTINUOUS
 10
121.6001278466
 20
246.8355462896
 11
121.0001278466
 21
246.2355462896
  0
LINE
  5
30A
100
AcDbEntity
  8
0
100
AcDbLine
 62
2
  6
CONTINUOUS
 10
134.8506834022
 20
103.6305202027
 11
138.3506834022
 21
104.213853536
  0
LINE
  5
30B
100
AcDbEntity
  8
0
100
AcDbLine
 62
2
  6
CONTINUOUS
 10
138.3506834022
 20
104.213853536
 11
134.8506834022
 21
104.7971868694
  0
LINE
  5
30C
100
AcDbEntity
  8
0
100
AcDbLine
 62
2
  6
CONTINUOUS
 10
134.8506834022
 20
104.7971868694
 11
134.8506834022
 21
103.6305202027
  0
HATCH
  5
30D
100
AcDbEntity
  8
0
100
AcDbHatch
 62
2
  6
CONTINUOUS
 10
0.0
 20
0.0
 30
0.0
210
0.0
220
0.0
230
1.0
  2

 70
1
 71
1
 91
1
 92
1
 93
3
 72
1
 10
138.3506834022
 20
104.213853536
 11
134.8506834022
 21
104.7971868694
 72
1
 10
134.8506834022
 20
104.7971868694
 11
134.8506834022
 21
103.6305202027
 72
1
 10
134.8506834022
 20
103.6305202027
 11
138.3506834022
 21
104.213853536
 97
3
330
30A
330
30B
330
30C
 75
0
 76
1
 98
1
 10
0.0
 20
0.0
  0
LINE
  5
30E
100
AcDbEntity
  8
0
100
AcDbLine
 62
2
  6
CONTINUOUS
 10
128.8495722911
 20
104.213853536
 11
132.3495722911
 21
104.7971868694
  0
LINE
  5
30F
100
AcDbEntity
  8
0
100
AcDbLine
 62
2
  6
CONTINUOUS
 10
132.3495722911
 20
103.6305202027
 11
128.8495722911
 21
104.213853536
  0
LINE
  5
310
100
AcDbEntity
  8
0
100
AcDbLine
 62
2
  6
CONTINUOUS
 10
132.3495722911
 20
104.7971868694
 11
132.3495722911
 21
103.6305202027
  0
HATCH
  5
311
100
AcDbEntity
  8
0
100
AcDbHatch
 62
2
  6
CONTINUOUS
 10
0.0
 20
0.0
 30
0.0
210
0.0
220
0.0
230
1.0
  2

 70
1
 71
1
 91
1
 92
1
 93
3
 72
1
 10
132.3495722911
 20
104.7971868694
 11
132.3495722911
 21
103.6305202027
 72
1
 10
132.3495722911
 20
103.6305202027
 11
128.8495722911
 21
104.213853536
 72
1
 10
128.8495722911
 20
104.213853536
 11
132.3495722911
 21
104.7971868694
 97
3
330
30E
330
30F
330
310
 75
0
 76
1
 98
1
 10
0.0
 20
0.0
  0
LINE
  5
312
100
AcDbEntity
  8
025
100
AcDbLine
 62
2
  6
CONTINUOUS
 10
125.0991336946
 20
89.3579625005
 11
142.1011219987
 21
89.3579625005
  0
LINE
  5
313
100
AcDbEntity
  8
07
100
AcDbLine
 62
7
  6
CONTINUOUS
 10
141.5010518232
 20
89.9580326759
 11
125.69920387
 21
89.9580326759
  0
LINE
  5
314
100
AcDbEntity
  8
07
100
AcDbLine
 62
7
  6
CONTINUOUS
 10
137.1001278466
 20
91.7077110385
 11
130.1001278466
 21
91.7077110385
  0
LINE
  5
315
100
AcDbEntity
  8
025
100
AcDbLine
 62
2
  6
CONTINUOUS
 10
138.3506834022
 20
92.958266594
 11
128.8495722911
 21
92.958266594
  0
LINE
  5
316
100
AcDbEntity
  8
025
100
AcDbLine
 62
2
  6
CONTINUOUS
 10
138.3506834022
 20
96.9589683484
 11
128.8495722911
 21
96.9589683484
  0
LINE
  5
317
100
AcDbEntity
  8
07
100
AcDbLine
 62
7
  6
CONTINUOUS
 10
137.3506834022
 20
97.9589683484
 11
129.8495722911
 21
97.9589683484
  0
LINE
  5
318
100
AcDbEntity
  8
05
100
AcDbLine
 62
7
  6
CONTINUOUS
 10
60.3761510298
 20
227.8771016753
 11
60.4800510183
 21
226.6895193725
  0
LINE
  5
319
100
AcDbEntity
  8
05
100
AcDbLine
 62
7
  6
CONTINUOUS
 10
60.3750514721
 20
217.8837756402
 11
60.8713753751
 21
208.4133514069
  0
LINE
  5
31A
100
AcDbEntity
  8
05
100
AcDbLine
 62
7
  6
CONTINUOUS
 10
60.3750514721
 20
217.8837756402
 11
60.3706901424
 21
218.0503281014
  0
LINE
  5
31B
100
AcDbEntity
  8
0
100
AcDbLine
 62
2
  6
CONTINUOUS
 10
58.6219556201
 20
174.5908843033
 11
58.6219556201
 21
173.4242176366
  0
LINE
  5
31C
100
AcDbEntity
  8
0
100
AcDbLine
 62
2
  6
CONTINUOUS
 10
62.1219556201
 20
174.00755097
 11
58.6219556201
 21
174.5908843033
  0
LINE
  5
31D
100
AcDbEntity
  8
0
100
AcDbLine
 62
2
  6
CONTINUOUS
 10
58.6219556201
 20
173.4242176366
 11
62.1219556201
 21
174.00755097
  0
HATCH
  5
31E
100
AcDbEntity
  8
0
100
AcDbHatch
 62
2
  6
CONTINUOUS
 10
0.0
 20
0.0
 30
0.0
210
0.0
220
0.0
230
1.0
  2

 70
1
 71
1
 91
1
 92
1
 93
3
 72
1
 10
58.6219556201
 20
173.4242176366
 11
62.1219556201
 21
174.00755097
 72
1
 10
62.1219556201
 20
174.00755097
 11
58.6219556201
 21
174.5908843033
 72
1
 10
58.6219556201
 20
174.5908843033
 11
58.6219556201
 21
173.4242176366
 97
3
330
31B
330
31C
330
31D
 75
0
 76
1
 98
1
 10
0.0
 20
0.0
  0
LINE
  5
31F
100
AcDbEntity
  8
05
100
AcDbLine
 62
7
  6
CONTINUOUS
 10
58.8206901424
 20
230.1771016753
 11
58.8206901424
 21
233.5771016753
  0
LINE
  5
320
100
AcDbEntity
  8
SCHRAFFIERT
100
AcDbLine
 62
2
  6
CONTINUOUS
 10
58.9456901424
 20
233.7021016753
 11
58.9456901424
 21
230.0521016753
  0
LINE
  5
321
100
AcDbEntity
  8
05
100
AcDbLine
 62
7
  6
CONTINUOUS
 10
59.1206901424
 20
228.2771016753
 11
59.1206901424
 21
229.8771016753
  0
LINE
  5
322
100
AcDbEntity
  8
05
100
AcDbLine
 62
7
  6
CONTINUOUS
 10
59.1206901424
 20
233.8771016753
 11
59.1206901424
 21
234.9771016753
  0
LINE
  5
323
100
AcDbEntity
  8
SCHRAFFIERT
100
AcDbLine
 62
2
  6
CONTINUOUS
 10
59.1956901424
 20
233.8771016753
 11
59.1956901424
 21
229.8771016753
  0
LINE
  5
324
100
AcDbEntity
  8
SCHRAFFIERT
100
AcDbLine
 62
2
  6
CONTINUOUS
 10
59.5456901424
 20
233.8771016753
 11
59.5456901424
 21
229.8771016753
  0
LINE
  5
325
100
AcDbEntity
  8
SCHRAFFIERT
100
AcDbLine
 62
2
  6
CONTINUOUS
 10
60.0456901424
 20
233.8771016753
 11
60.0456901424
 21
229.8771016753
  0
LINE
  5
326
100
AcDbEntity
  8
07
100
AcDbLine
 62
7
  6
CONTINUOUS
 10
60.3701345869
 20
142.5833089526
 11
60.3701345869
 21
131.9811744497
  0
LINE
  5
327
100
AcDbEntity
  8
05
100
AcDbLine
 62
7
  6
CONTINUOUS
 10
60.3706901424
 20
225.439519385
 11
60.3706901424
 21
218.0503281014
  0
LINE
  5
328
100
AcDbEntity
  8
05
100
AcDbLine
 62
7
  6
CONTINUOUS
 10
60.3706901424
 20
142.8333381924
 11
60.3706901424
 21
150.2225294759
  0
LINE
  5
329
100
AcDbEntity
  8
05
100
AcDbLine
 62
7
  6
CONTINUOUS
 10
60.3706901899
 20
225.6895193825
 11
60.3706901899
 21
227.8578789555
  0
LINE
  5
32A
100
AcDbEntity
  8
035
100
AcDbLine
 62
7
  6
CONTINUOUS
 10
60.6383394673
 20
236.4391853007
 11
60.6383394673
 21
236.2391853007
  0
LINE
  5
32B
100
AcDbEntity
  8
SCHRAFFIERT
100
AcDbLine
 62
2
  6
CONTINUOUS
 10
60.6456901424
 20
233.8771016753
 11
60.6456901424
 21
229.8771016753
  0
LINE
  5
32C
100
AcDbEntity
  8
05
100
AcDbLine
 62
7
  6
CONTINUOUS
 10
60.7206901424
 20
221.4585792773
 11
60.7206901424
 21
220.589519385
  0
LINE
  5
32D
100
AcDbEntity
  8
010
100
AcDbLine
 62
2
  6
CONTINUOUS
 10
60.8456901424
 20
222.1875727413
 11
60.8456901424
 21
221.7490530283
  0
LINE
  5
32E
100
AcDbEntity
  8
05
100
AcDbLine
 62
7
  6
CONTINUOUS
 10
60.8456901424
 20
222.1875727413
 11
60.8456901424
 21
225.439519385
  0
LINE
  5
32F
100
AcDbEntity
  8
07
100
AcDbLine
 62
7
  6
CONTINUOUS
 10
60.8701930664
 20
127.131501935
 11
60.8701930664
 21
131.5320165549
  0
LINE
  5
330
100
AcDbEntity
  8
010
100
AcDbLine
 62
2
  6
CONTINUOUS
 10
61.1156901424
 20
224.039519385
 11
61.1156901424
 21
221.9175727413
  0
LINE
  5
331
100
AcDbEntity
  8
010
100
AcDbLine
 62
2
  6
CONTINUOUS
 10
61.1452252302
 20
126.8564697713
 11
61.1452252302
 21
131.8070487187
  0
LINE
  5
332
100
AcDbEntity
  8
05
100
AcDbLine
 62
7
  6
CONTINUOUS
 10
61.1831901424
 20
235.9026230155
 11
61.1831901424
 21
241.439519385
  0
LINE
  5
333
100
AcDbEntity
  8
SCHRAFFIERT
100
AcDbLine
 62
2
  6
CONTINUOUS
 10
61.4456901424
 20
233.8771016753
 11
61.4456901424
 21
229.8771016753
  0
LINE
  5
334
100
AcDbEntity
  8
025
100
AcDbLine
 62
2
  6
CONTINUOUS
 10
62.1219556201
 20
207.6487613257
 11
62.1219556201
 21
206.7084801619
  0
LINE
  5
335
100
AcDbEntity
  8
025
100
AcDbLine
 62
2
  6
CONTINUOUS
 10
62.1219556201
 20
206.2510460822
 11
62.1219556201
 21
205.3107649184
  0
LINE
  5
336
100
AcDbEntity
  8
025
100
AcDbLine
 62
2
  6
CONTINUOUS
 10
62.1219556201
 20
204.8533308388
 11
62.1219556201
 21
203.913049675
  0
LINE
  5
337
100
AcDbEntity
  8
025
100
AcDbLine
 62
2
  6
CONTINUOUS
 10
62.1219556201
 20
203.4556155953
 11
62.1219556201
 21
202.5153344315
  0
LINE
  5
338
100
AcDbEntity
  8
025
100
AcDbLine
 62
2
  6
CONTINUOUS
 10
62.1219556201
 20
202.0579003518
 11
62.1219556201
 21
201.117619188
  0
LINE
  5
339
100
AcDbEntity
  8
025
100
AcDbLine
 62
2
  6
CONTINUOUS
 10
62.1219556201
 20
200.6601851083
 11
62.1219556201
 21
199.7199039446
  0
LINE
  5
33A
100
AcDbEntity
  8
025
100
AcDbLine
 62
2
  6
CONTINUOUS
 10
62.1219556201
 20
199.2624698649
 11
62.1219556201
 21
198.3221887011
  0
LINE
  5
33B
100
AcDbEntity
  8
025
100
AcDbLine
 62
2
  6
CONTINUOUS
 10
62.1219556201
 20
197.8647546214
 11
62.1219556201
 21
196.9244734576
  0
LINE
  5
33C
100
AcDbEntity
  8
025
100
AcDbLine
 62
2
  6
CONTINUOUS
 10
62.1219556201
 20
196.4670393779
 11
62.1219556201
 21
195.5267582141
  0
LINE
  5
33D
100
AcDbEntity
  8
025
100
AcDbLine
 62
2
  6
CONTINUOUS
 10
62.1219556201
 20
195.0693241345
 11
62.1219556201
 21
194.1290429707
  0
LINE
  5
33E
100
AcDbEntity
  8
025
100
AcDbLine
 62
2
  6
CONTINUOUS
 10
62.1219556201
 20
193.671608891
 11
62.1219556201
 21
192.7313277272
  0
LINE
  5
33F
100
AcDbEntity
  8
025
100
AcDbLine
 62
2
  6
CONTINUOUS
 10
62.1219556201
 20
192.2738936475
 11
62.1219556201
 21
191.3336124837
  0
LINE
  5
340
100
AcDbEntity
  8
025
100
AcDbLine
 62
2
  6
CONTINUOUS
 10
62.1219556201
 20
190.876178404
 11
62.1219556201
 21
189.9358972402
  0
LINE
  5
341
100
AcDbEntity
  8
025
100
AcDbLine
 62
2
  6
CONTINUOUS
 10
62.1219556201
 20
189.4784631606
 11
62.1219556201
 21
188.5381819968
  0
LINE
  5
342
100
AcDbEntity
  8
025
100
AcDbLine
 62
2
  6
CONTINUOUS
 10
62.1219556201
 20
188.0807479171
 11
62.1219556201
 21
187.1404667533
  0
LINE
  5
343
100
AcDbEntity
  8
025
100
AcDbLine
 62
2
  6
CONTINUOUS
 10
62.1219556201
 20
185.8388459552
 11
62.1219556201
 21
185.7427515098
  0
LINE
  5
344
100
AcDbEntity
  8
025
100
AcDbLine
 62
2
  6
CONTINUOUS
 10
62.1219556201
 20
185.2853174302
 11
62.1219556201
 21
184.3450362664
  0
LINE
  5
345
100
AcDbEntity
  8
025
100
AcDbLine
 62
2
  6
CONTINUOUS
 10
62.1219556201
 20
183.8876021867
 11
62.1219556201
 21
182.9473210229
  0
LINE
  5
346
100
AcDbEntity
  8
025
100
AcDbLine
 62
2
  6
CONTINUOUS
 10
62.1219556201
 20
182.4898869432
 11
62.1219556201
 21
181.5496057794
  0
LINE
  5
347
100
AcDbEntity
  8
025
100
AcDbLine
 62
2
  6
CONTINUOUS
 10
62.1219556201
 20
181.0921716997
 11
62.1219556201
 21
180.1518905359
  0
LINE
  5
348
100
AcDbEntity
  8
025
100
AcDbLine
 62
2
  6
CONTINUOUS
 10
62.1219556201
 20
179.6944564563
 11
62.1219556201
 21
178.7541752925
  0
LINE
  5
349
100
AcDbEntity
  8
025
100
AcDbLine
 62
2
  6
CONTINUOUS
 10
62.1219556201
 20
178.2967412128
 11
62.1219556201
 21
177.356460049
  0
LINE
  5
34A
100
AcDbEntity
  8
025
100
AcDbLine
 62
2
  6
CONTINUOUS
 10
62.1219556201
 20
176.8990259693
 11
62.1219556201
 21
175.9587448055
  0
LINE
  5
34B
100
AcDbEntity
  8
025
100
AcDbLine
 62
2
  6
CONTINUOUS
 10
62.1219556201
 20
175.5013107258
 11
62.1219556201
 21
174.5610295621
  0
LINE
  5
34C
100
AcDbEntity
  8
025
100
AcDbLine
 62
2
  6
CONTINUOUS
 10
62.1219556201
 20
174.1035954824
 11
62.1219556201
 21
173.1633143186
  0
LINE
  5
34D
100
AcDbEntity
  8
025
100
AcDbLine
 62
2
  6
CONTINUOUS
 10
62.1219556201
 20
172.7058802389
 11
62.1219556201
 21
171.7655990751
  0
LINE
  5
34E
100
AcDbEntity
  8
025
100
AcDbLine
 62
2
  6
CONTINUOUS
 10
62.1219556201
 20
171.3081649954
 11
62.1219556201
 21
170.3678838316
  0
LINE
  5
34F
100
AcDbEntity
  8
025
100
AcDbLine
 62
2
  6
CONTINUOUS
 10
62.1219556201
 20
169.910449752
 11
62.1219556201
 21
168.9701685882
  0
LINE
  5
350
100
AcDbEntity
  8
025
100
AcDbLine
 62
2
  6
CONTINUOUS
 10
62.1219556201
 20
168.5127345085
 11
62.1219556201
 21
167.5724533447
  0
LINE
  5
351
100
AcDbEntity
  8
025
100
AcDbLine
 62
2
  6
CONTINUOUS
 10
62.1219556201
 20
167.115019265
 11
62.1219556201
 21
166.1747381012
  0
LINE
  5
352
100
AcDbEntity
  8
025
100
AcDbLine
 62
2
  6
CONTINUOUS
 10
62.1219556201
 20
165.7173040215
 11
62.1219556201
 21
164.7770228578
  0
LINE
  5
353
100
AcDbEntity
  8
025
100
AcDbLine
 62
2
  6
CONTINUOUS
 10
62.1219556201
 20
164.3195887781
 11
62.1219556201
 21
163.3793076143
  0
LINE
  5
354
100
AcDbEntity
  8
025
100
AcDbLine
 62
2
  6
CONTINUOUS
 10
62.1219556201
 20
162.9218735346
 11
62.1219556201
 21
161.9815923708
  0
LINE
  5
355
100
AcDbEntity
  8
025
100
AcDbLine
 62
2
  6
CONTINUOUS
 10
62.1219556201
 20
161.5241582911
 11
62.1219556201
 21
160.5838771273
  0
LINE
  5
356
100
AcDbEntity
  8
035
100
AcDbLine
 62
7
  6
CONTINUOUS
 10
62.2085592145
 20
235.9026230155
 11
62.2085592145
 21
241.8711738048
  0
LINE
  5
357
100
AcDbEntity
  8
025
100
AcDbLine
 62
2
  6
CONTINUOUS
 10
62.3760856644
 20
207.939519385
 11
62.3760856644
 21
207.7203068046
  0
LINE
  5
358
100
AcDbEntity
  8
025
100
AcDbLine
 62
2
  6
CONTINUOUS
 10
62.3760856644
 20
206.7800256408
 11
62.3760856644
 21
206.3225915612
  0
LINE
  5
359
100
AcDbEntity
  8
025
100
AcDbLine
 62
2
  6
CONTINUOUS
 10
62.3760856644
 20
205.3823103974
 11
62.3760856644
 21
204.9248763177
  0
LINE
  5
35A
100
AcDbEntity
  8
025
100
AcDbLine
 62
2
  6
CONTINUOUS
 10
62.3760856644
 20
203.9845951539
 11
62.3760856644
 21
203.5271610742
  0
LINE
  5
35B
100
AcDbEntity
  8
025
100
AcDbLine
 62
2
  6
CONTINUOUS
 10
62.3760856644
 20
202.5868799104
 11
62.3760856644
 21
202.1294458307
  0
LINE
  5
35C
100
AcDbEntity
  8
025
100
AcDbLine
 62
2
  6
CONTINUOUS
 10
62.3760856644
 20
201.189164667
 11
62.3760856644
 21
200.7317305873
  0
LINE
  5
35D
100
AcDbEntity
  8
025
100
AcDbLine
 62
2
  6
CONTINUOUS
 10
62.3760856644
 20
199.7914494235
 11
62.3760856644
 21
199.3340153438
  0
LINE
  5
35E
100
AcDbEntity
  8
025
100
AcDbLine
 62
2
  6
CONTINUOUS
 10
62.3760856644
 20
198.39373418
 11
62.3760856644
 21
197.9363001003
  0
LINE
  5
35F
100
AcDbEntity
  8
025
100
AcDbLine
 62
2
  6
CONTINUOUS
 10
62.3760856644
 20
196.9960189365
 11
62.3760856644
 21
196.5385848569
  0
LINE
  5
360
100
AcDbEntity
  8
025
100
AcDbLine
 62
2
  6
CONTINUOUS
 10
62.3760856644
 20
195.5983036931
 11
62.3760856644
 21
195.1408696134
  0
LINE
  5
361
100
AcDbEntity
  8
025
100
AcDbLine
 62
2
  6
CONTINUOUS
 10
62.3760856644
 20
194.2005884496
 11
62.3760856644
 21
193.7431543699
  0
LINE
  5
362
100
AcDbEntity
  8
025
100
AcDbLine
 62
2
  6
CONTINUOUS
 10
62.3760856644
 20
192.8028732061
 11
62.3760856644
 21
192.3454391264
  0
LINE
  5
363
100
AcDbEntity
  8
025
100
AcDbLine
 62
2
  6
CONTINUOUS
 10
62.3760856644
 20
191.4051579627
 11
62.3760856644
 21
190.947723883
  0
LINE
  5
364
100
AcDbEntity
  8
025
100
AcDbLine
 62
2
  6
CONTINUOUS
 10
62.3760856644
 20
190.0074427192
 11
62.3760856644
 21
189.5500086395
  0
LINE
  5
365
100
AcDbEntity
  8
025
100
AcDbLine
 62
2
  6
CONTINUOUS
 10
62.3760856644
 20
188.6097274757
 11
62.3760856644
 21
188.152293396
  0
LINE
  5
366
100
AcDbEntity
  8
025
100
AcDbLine
 62
2
  6
CONTINUOUS
 10
62.3760856644
 20
187.2120122322
 11
62.3760856644
 21
186.7545781526
  0
LINE
  5
367
100
AcDbEntity
  8
025
100
AcDbLine
 62
2
  6
CONTINUOUS
 10
62.3760856644
 20
185.7277838987
 11
62.3760856644
 21
185.3568629091
  0
LINE
  5
368
100
AcDbEntity
  8
025
100
AcDbLine
 62
2
  6
CONTINUOUS
 10
62.3760856644
 20
184.4165817453
 11
62.3760856644
 21
183.9591476656
  0
LINE
  5
369
100
AcDbEntity
  8
025
100
AcDbLine
 62
2
  6
CONTINUOUS
 10
62.3760856644
 20
183.0188665018
 11
62.3760856644
 21
182.5614324221
  0
LINE
  5
36A
100
AcDbEntity
  8
025
100
AcDbLine
 62
2
  6
CONTINUOUS
 10
62.3760856644
 20
181.6211512583
 11
62.3760856644
 21
181.1637171787
  0
LINE
  5
36B
100
AcDbEntity
  8
025
100
AcDbLine
 62
2
  6
CONTINUOUS
 10
62.3760856644
 20
180.2234360149
 11
62.3760856644
 21
179.7660019352
  0
LINE
  5
36C
100
AcDbEntity
  8
025
100
AcDbLine
 62
2
  6
CONTINUOUS
 10
62.3760856644
 20
178.8257207714
 11
62.3760856644
 21
178.3682866917
  0
LINE
  5
36D
100
AcDbEntity
  8
025
100
AcDbLine
 62
2
  6
CONTINUOUS
 10
62.3760856644
 20
177.4280055279
 11
62.3760856644
 21
176.9705714482
  0
LINE
  5
36E
100
AcDbEntity
  8
025
100
AcDbLine
 62
2
  6
CONTINUOUS
 10
62.3760856644
 20
176.0302902845
 11
62.3760856644
 21
175.5728562048
  0
LINE
  5
36F
100
AcDbEntity
  8
025
100
AcDbLine
 62
2
  6
CONTINUOUS
 10
62.3760856644
 20
174.632575041
 11
62.3760856644
 21
174.1751409613
  0
LINE
  5
370
100
AcDbEntity
  8
025
100
AcDbLine
 62
2
  6
CONTINUOUS
 10
62.3760856644
 20
173.2348597975
 11
62.3760856644
 21
172.7774257178
  0
LINE
  5
371
100
AcDbEntity
  8
025
100
AcDbLine
 62
2
  6
CONTINUOUS
 10
62.3760856644
 20
171.837144554
 11
62.3760856644
 21
171.3797104744
  0
LINE
  5
372
100
AcDbEntity
  8
025
100
AcDbLine
 62
2
  6
CONTINUOUS
 10
62.3760856644
 20
170.4394293106
 11
62.3760856644
 21
169.9819952309
  0
LINE
  5
373
100
AcDbEntity
  8
025
100
AcDbLine
 62
2
  6
CONTINUOUS
 10
62.3760856644
 20
169.0417140671
 11
62.3760856644
 21
168.5842799874
  0
LINE
  5
374
100
AcDbEntity
  8
025
100
AcDbLine
 62
2
  6
CONTINUOUS
 10
62.3760856644
 20
167.6439988236
 11
62.3760856644
 21
167.1865647439
  0
LINE
  5
375
100
AcDbEntity
  8
025
100
AcDbLine
 62
2
  6
CONTINUOUS
 10
62.3760856644
 20
166.2462835802
 11
62.3760856644
 21
165.7888495005
  0
LINE
  5
376
100
AcDbEntity
  8
025
100
AcDbLine
 62
2
  6
CONTINUOUS
 10
62.3760856644
 20
164.8485683367
 11
62.3760856644
 21
164.391134257
  0
LINE
  5
377
100
AcDbEntity
  8
025
100
AcDbLine
 62
2
  6
CONTINUOUS
 10
62.3760856644
 20
163.4508530932
 11
62.3760856644
 21
162.9934190135
  0
LINE
  5
378
100
AcDbEntity
  8
025
100
AcDbLine
 62
2
  6
CONTINUOUS
 10
62.3760856644
 20
162.0531378497
 11
62.3760856644
 21
161.5957037701
  0
LINE
  5
379
100
AcDbEntity
  8
025
100
AcDbLine
 62
2
  6
CONTINUOUS
 10
62.3760856644
 20
160.6554226063
 11
62.3760856644
 21
160.3333381924
  0
LINE
  5
37A
100
AcDbEntity
  8
SCHRAFFIERT
100
AcDbLine
 62
2
  6
CONTINUOUS
 10
62.3956901424
 20
233.8771016753
 11
62.3956901424
 21
229.8771016753
  0
LINE
  5
37B
100
AcDbEntity
  8
05
100
AcDbLine
 62
7
  6
CONTINUOUS
 10
63.1206901424
 20
218.939519385
 11
63.1206901424
 21
217.4498823561
  0
LINE
  5
37C
100
AcDbEntity
  8
05
100
AcDbLine
 62
7
  6
CONTINUOUS
 10
63.3706901424
 20
142.8333381924
 11
63.3706901424
 21
140.8333381924
  0
LINE
  5
37D
100
AcDbEntity
  8
SCHRAFFIERT
100
AcDbLine
 62
2
  6
CONTINUOUS
 10
63.4456901424
 20
233.8771016753
 11
63.4456901424
 21
229.8771016753
  0
LINE
  5
37E
100
AcDbEntity
  8
05
100
AcDbLine
 62
7
  6
CONTINUOUS
 10
64.0614137328
 20
226.6895193725
 11
64.0614137328
 21
227.8578789555
  0
LINE
  5
37F
100
AcDbEntity
  8
05
100
AcDbLine
 62
7
  6
CONTINUOUS
 10
64.5253906808
 20
138.8333381924
 11
64.5253906808
 21
141.3333381924
  0
LINE
  5
380
100
AcDbEntity
  8
SCHRAFFIERT
100
AcDbLine
 62
2
  6
CONTINUOUS
 10
64.6456901424
 20
233.8771016753
 11
64.6456901424
 21
229.8771016753
  0
LINE
  5
381
100
AcDbEntity
  8
MITTE
100
AcDbLine
 62
2
  6
CENTER
 10
65.1206901424
 20
126.1942397421
 11
65.1206901424
 21
243.0127436744
  0
LINE
  5
382
100
AcDbEntity
  8
SCHRAFFIERT
100
AcDbLine
 62
2
  6
CONTINUOUS
 10
65.5956901424
 20
233.8771016753
 11
65.5956901424
 21
229.8771016753
  0
LINE
  5
383
100
AcDbEntity
  8
05
100
AcDbLine
 62
7
  6
CONTINUOUS
 10
66.1799665521
 20
226.6895193725
 11
66.1799665521
 21
227.8578789555
  0
LINE
  5
384
100
AcDbEntity
  8
SCHRAFFIERT
100
AcDbLine
 62
2
  6
CONTINUOUS
 10
66.7956901424
 20
233.8771016753
 11
66.7956901424
 21
229.8771016753
  0
LINE
  5
385
100
AcDbEntity
  8
05
100
AcDbLine
 62
7
  6
CONTINUOUS
 10
66.8706901424
 20
131.8320516426
 11
66.8706901424
 21
132.4569200637
  0
LINE
  5
386
100
AcDbEntity
  8
05
100
AcDbLine
 62
7
  6
CONTINUOUS
 10
67.1206901424
 20
218.939519385
 11
67.1206901424
 21
217.4498823561
  0
LINE
  5
387
100
AcDbEntity
  8
SCHRAFFIERT
100
AcDbLine
 62
2
  6
CONTINUOUS
 10
67.1206889428
 20
150.822975815
 11
67.1206889428
 21
149.3333387861
  0
LINE
  5
388
100
AcDbEntity
  8
SCHRAFFIERT
100
AcDbLine
 62
2
  6
CONTINUOUS
 10
69.3711860188
 20
146.5024276232
 11
69.3711860188
 21
144.2474855558
  0
LINE
  5
389
100
AcDbEntity
  8
SCHRAFFIERT
100
AcDbLine
 62
2
  6
CONTINUOUS
 10
69.3956889428
 20
144.2333387861
 11
69.3956889428
 21
143.9001675332
  0
LINE
  5
38A
100
AcDbEntity
  8
SCHRAFFIERT
100
AcDbLine
 62
2
  6
CONTINUOUS
 10
69.3956889428
 20
143.9001675332
 11
69.3956889428
 21
142.9333387861
  0
LINE
  5
38B
100
AcDbEntity
  8
SCHRAFFIERT
100
AcDbLine
 62
2
  6
CONTINUOUS
 10
69.5206889428
 20
147.6833387861
 11
69.5206889428
 21
146.8142788937
  0
LINE
  5
38C
100
AcDbEntity
  8
SCHRAFFIERT
100
AcDbLine
 62
2
  6
CONTINUOUS
 10
69.8706889428
 20
150.305863403
 11
69.8305845743
 21
151.0711003413
  0
LINE
  5
38D
100
AcDbEntity
  8
SCHRAFFIERT
100
AcDbLine
 62
2
  6
CONTINUOUS
 10
69.8706889428
 20
142.8333387861
 11
69.8706889428
 21
144.0747440618
  0
LINE
  5
38E
100
AcDbEntity
  8
SCHRAFFIERT
100
AcDbLine
 62
2
  6
CONTINUOUS
 10
69.8706889428
 20
144.0747440618
 11
69.8706889428
 21
150.305863403
  0
LINE
  5
38F
100
AcDbEntity
  8
SCHRAFFIERT
100
AcDbLine
 62
2
  6
CONTINUOUS
 10
69.3956889428
 20
142.9333387861
 11
69.4956889428
 21
142.8333387861
  0
LINE
  5
390
100
AcDbEntity
  8
SCHRAFFIERT
100
AcDbLine
 62
2
  6
CONTINUOUS
 10
67.1206889428
 20
149.3333387861
 11
68.3706889428
 21
148.0833387861
  0
LINE
  5
391
100
AcDbEntity
  8
SCHRAFFIERT
100
AcDbLine
 62
2
  6
CONTINUOUS
 10
68.0802998971
 20
151.3770074577
 11
67.1206889428
 21
150.822975815
  0
LINE
  5
392
100
AcDbEntity
  8
SCHRAFFIERT
100
AcDbLine
 62
2
  6
CONTINUOUS
 10
69.3711860188
 20
144.2474855558
 11
69.3956889428
 21
144.2333387861
  0
LINE
  5
393
100
AcDbEntity
  8
SCHRAFFIERT
100
AcDbLine
 62
2
  6
CONTINUOUS
 10
69.8706889428
 20
144.0747440618
 11
69.3956889428
 21
143.9001675332
  0
LINE
  5
394
100
AcDbEntity
  8
SCHRAFFIERT
100
AcDbLine
 62
2
  6
CONTINUOUS
 10
69.3956889428
 20
143.9001675332
 11
69.8706889428
 21
144.0747440618
  0
LINE
  5
395
100
AcDbEntity
  8
SCHRAFFIERT
100
AcDbLine
 62
2
  6
CONTINUOUS
 10
69.4956889428
 20
142.8333387861
 11
69.6212152586
 21
142.8333387861
  0
LINE
  5
396
100
AcDbEntity
  8
SCHRAFFIERT
100
AcDbLine
 62
2
  6
CONTINUOUS
 10
69.6212152586
 20
142.8333387861
 11
69.8706889428
 21
142.8333387861
  0
LINE
  5
397
100
AcDbEntity
  8
SCHRAFFIERT
100
AcDbLine
 62
2
  6
CONTINUOUS
 10
68.3706889428
 20
148.0833387861
 11
69.1206889428
 21
148.0833387861
  0
LINE
  5
398
100
AcDbEntity
  8
SCHRAFFIERT
100
AcDbLine
 62
2
  6
CONTINUOUS
 10
69.8305845743
 20
151.0711003413
 11
68.7068943698
 21
151.1930874074
  0
LINE
  5
399
100
AcDbEntity
  8
SCHRAFFIERT
100
AcDbLine
 62
2
  6
CONTINUOUS
 10
68.7068943698
 20
151.1930874074
 11
68.0802998971
 21
151.3770074577
  0
ARC
  5
39A
100
AcDbEntity
  8
SCHRAFFIERT
100
AcDbCircle
 62
2
  6
CONTINUOUS
 10
69.1206889428
 20
147.6833387861
 40
0.4
100
AcDbArc
 50
0.0
 51
90.0
  0
ARC
  5
39B
100
AcDbEntity
  8
SCHRAFFIERT
100
AcDbCircle
 62
2
  6
CONTINUOUS
 10
69.1206889428
 20
146.8142788937
 40
0.4
100
AcDbArc
 50
308.7734558361
 51
360.0
  0
HATCH
  5
39C
100
AcDbEntity
  8
SCHRAFFIERT
100
AcDbHatch
 62
4
  6
CONTINUOUS
 10
0.0
 20
0.0
 30
0.0
210
0.0
220
0.0
230
1.0
  2
ANSI31
 70
0
 71
1
 91
1
 92
1
 93
2
 72
1
 10
69.8706889428
 20
144.0747440618
 11
69.3956889428
 21
143.9001675332
 72
1
 10
69.3956889428
 20
143.9001675332
 11
69.8706889428
 21
144.0747440618
 97
21
330
387
330
388
330
389
330
38A
330
38B
330
38C
330
38D
330
38E
330
38F
330
390
330
391
330
392
330
393
330
394
330
395
330
396
330
397
330
398
330
399
330
39A
330
39B
 75
0
 76
0
 52
45.0
 41
0.625
 77
0
 78
1
 53
45.0
 43
-3.6388234908
 44
3.6388234908
 45
-0.4419417382
 46
0.4419417382
 79
0
 98
1
 10
0.0
 20
0.0
  0
LINE
  5
39D
100
AcDbEntity
  8
SCHRAFFIERT
100
AcDbLine
 62
2
  6
CONTINUOUS
 10
67.1206889428
 20
138.8241625503
 11
67.1206889428
 21
137.3711249526
  0
LINE
  5
39E
100
AcDbEntity
  8
SCHRAFFIERT
100
AcDbLine
 62
2
  6
CONTINUOUS
 10
67.1206889428
 20
137.3711249526
 11
67.1206889428
 21
135.8325200726
  0
LINE
  5
39F
100
AcDbEntity
  8
SCHRAFFIERT
100
AcDbLine
 62
2
  6
CONTINUOUS
 10
67.2459374808
 20
132.8321691954
 11
67.2459374808
 21
132.4919580888
  0
LINE
  5
3A0
100
AcDbEntity
  8
SCHRAFFIERT
100
AcDbLine
 62
2
  6
CONTINUOUS
 10
67.4959667206
 20
135.5824908328
 11
67.4959667206
 21
133.0821984352
  0
LINE
  5
3A1
100
AcDbEntity
  8
SCHRAFFIERT
100
AcDbLine
 62
2
  6
CONTINUOUS
 10
67.6294558218
 20
139.3329294293
 11
67.6294558218
 21
137.3079638223
  0
LINE
  5
3A2
100
AcDbEntity
  8
SCHRAFFIERT
100
AcDbLine
 62
2
  6
CONTINUOUS
 10
67.6294558218
 20
137.3079638223
 11
67.6294558218
 21
132.1084397478
  0
LINE
  5
3A3
100
AcDbEntity
  8
SCHRAFFIERT
100
AcDbLine
 62
2
  6
CONTINUOUS
 10
67.6294558218
 20
132.1084397478
 11
67.6294558218
 21
137.3079638223
  0
LINE
  5
3A4
100
AcDbEntity
  8
SCHRAFFIERT
100
AcDbLine
 62
2
  6
CONTINUOUS
 10
67.6294558218
 20
137.3079638223
 11
67.6294558218
 21
139.3329294293
  0
LINE
  5
3A5
100
AcDbEntity
  8
SCHRAFFIERT
100
AcDbLine
 62
2
  6
CONTINUOUS
 10
68.8461246153
 20
139.3329294293
 11
68.8461246153
 21
137.1569198388
  0
LINE
  5
3A6
100
AcDbEntity
  8
SCHRAFFIERT
100
AcDbLine
 62
2
  6
CONTINUOUS
 10
68.8461246153
 20
137.1569198388
 11
68.8461246153
 21
132.1084397478
  0
LINE
  5
3A7
100
AcDbEntity
  8
SCHRAFFIERT
100
AcDbLine
 62
2
  6
CONTINUOUS
 10
68.8461246153
 20
132.1084397478
 11
68.8461246153
 21
137.1569198388
  0
LINE
  5
3A8
100
AcDbEntity
  8
SCHRAFFIERT
100
AcDbLine
 62
2
  6
CONTINUOUS
 10
68.8461246153
 20
137.1569198388
 11
68.8461246153
 21
139.3329294293
  0
LINE
  5
3A9
100
AcDbEntity
  8
SCHRAFFIERT
100
AcDbLine
 62
2
  6
CONTINUOUS
 10
69.1526664587
 20
132.2356314675
 11
69.1526664587
 21
133.4312336331
  0
LINE
  5
3AA
100
AcDbEntity
  8
SCHRAFFIERT
100
AcDbLine
 62
2
  6
CONTINUOUS
 10
69.1526664587
 20
138.010135544
 11
69.1526664587
 21
139.2057377096
  0
LINE
  5
3AB
100
AcDbEntity
  8
SCHRAFFIERT
100
AcDbLine
 62
2
  6
CONTINUOUS
 10
69.2353410766
 20
138.010135544
 11
69.2353410766
 21
137.1086003577
  0
LINE
  5
3AC
100
AcDbEntity
  8
SCHRAFFIERT
100
AcDbLine
 62
2
  6
CONTINUOUS
 10
69.2353410766
 20
137.1086003577
 11
69.2353410766
 21
133.4312336331
  0
LINE
  5
3AD
100
AcDbEntity
  8
SCHRAFFIERT
100
AcDbLine
 62
2
  6
CONTINUOUS
 10
69.2353410766
 20
133.4312336331
 11
69.2353410766
 21
137.1086003577
  0
LINE
  5
3AE
100
AcDbEntity
  8
SCHRAFFIERT
100
AcDbLine
 62
2
  6
CONTINUOUS
 10
69.2353410766
 20
137.1086003577
 11
69.2353410766
 21
138.010135544
  0
LINE
  5
3AF
100
AcDbEntity
  8
SCHRAFFIERT
100
AcDbLine
 62
2
  6
CONTINUOUS
 10
69.5596799619
 20
133.6856170726
 11
69.5596799619
 21
137.0683351372
  0
LINE
  5
3B0
100
AcDbEntity
  8
SCHRAFFIERT
100
AcDbLine
 62
2
  6
CONTINUOUS
 10
69.5596799619
 20
137.0683351372
 11
69.5596799619
 21
137.7557521045
  0
LINE
  5
3B1
100
AcDbEntity
  8
SCHRAFFIERT
100
AcDbLine
 62
2
  6
CONTINUOUS
 10
67.2459374808
 20
132.4919580888
 11
67.6294558218
 21
132.1084397478
  0
LINE
  5
3B2
100
AcDbEntity
  8
SCHRAFFIERT
100
AcDbLine
 62
2
  6
CONTINUOUS
 10
67.2459374808
 20
135.8325200726
 11
67.4959667206
 21
135.5824908328
  0
LINE
  5
3B3
100
AcDbEntity
  8
SCHRAFFIERT
100
AcDbLine
 62
2
  6
CONTINUOUS
 10
69.5596799619
 20
137.7557521045
 11
69.3052965224
 21
138.010135544
  0
LINE
  5
3B4
100
AcDbEntity
  8
SCHRAFFIERT
100
AcDbLine
 62
2
  6
CONTINUOUS
 10
69.1526664587
 20
139.2057377096
 11
69.025474739
 21
139.3329294293
  0
LINE
  5
3B5
100
AcDbEntity
  8
SCHRAFFIERT
100
AcDbLine
 62
2
  6
CONTINUOUS
 10
67.6294558218
 20
139.3329294293
 11
67.1206889428
 21
138.8241625503
  0
LINE
  5
3B6
100
AcDbEntity
  8
SCHRAFFIERT
100
AcDbLine
 62
2
  6
CONTINUOUS
 10
67.4959667206
 20
133.0821984352
 11
67.2459374808
 21
132.8321691954
  0
LINE
  5
3B7
100
AcDbEntity
  8
SCHRAFFIERT
100
AcDbLine
 62
2
  6
CONTINUOUS
 10
69.3052965224
 20
133.4312336331
 11
69.5596799619
 21
133.6856170726
  0
LINE
  5
3B8
100
AcDbEntity
  8
SCHRAFFIERT
100
AcDbLine
 62
2
  6
CONTINUOUS
 10
69.025474739
 20
132.1084397478
 11
69.1526664587
 21
132.2356314675
  0
LINE
  5
3B9
100
AcDbEntity
  8
SCHRAFFIERT
100
AcDbLine
 62
2
  6
CONTINUOUS
 10
67.6294558218
 20
132.1084397478
 11
68.0842560129
 21
132.1084397478
  0
LINE
  5
3BA
100
AcDbEntity
  8
SCHRAFFIERT
100
AcDbLine
 62
2
  6
CONTINUOUS
 10
68.0842560129
 20
132.1084397478
 11
68.8461246153
 21
132.1084397478
  0
LINE
  5
3BB
100
AcDbEntity
  8
SCHRAFFIERT
100
AcDbLine
 62
2
  6
CONTINUOUS
 10
68.8461246153
 20
132.1084397478
 11
69.025474739
 21
132.1084397478
  0
LINE
  5
3BC
100
AcDbEntity
  8
SCHRAFFIERT
100
AcDbLine
 62
2
  6
CONTINUOUS
 10
69.2353410766
 20
133.4312336331
 11
69.3052965224
 21
133.4312336331
  0
LINE
  5
3BD
100
AcDbEntity
  8
SCHRAFFIERT
100
AcDbLine
 62
2
  6
CONTINUOUS
 10
69.1526664587
 20
133.4312336331
 11
69.2353410766
 21
133.4312336331
  0
LINE
  5
3BE
100
AcDbEntity
  8
SCHRAFFIERT
100
AcDbLine
 62
2
  6
CONTINUOUS
 10
67.1206889428
 20
135.8325200726
 11
67.2459374808
 21
135.8325200726
  0
LINE
  5
3BF
100
AcDbEntity
  8
SCHRAFFIERT
100
AcDbLine
 62
2
  6
CONTINUOUS
 10
69.5596799619
 20
137.0683351372
 11
69.2353410766
 21
137.1086003577
  0
LINE
  5
3C0
100
AcDbEntity
  8
SCHRAFFIERT
100
AcDbLine
 62
2
  6
CONTINUOUS
 10
69.2353410766
 20
137.1086003577
 11
68.8461246153
 21
137.1569198388
  0
LINE
  5
3C1
100
AcDbEntity
  8
SCHRAFFIERT
100
AcDbLine
 62
2
  6
CONTINUOUS
 10
68.8461246153
 20
137.1569198388
 11
67.6294558218
 21
137.3079638223
  0
LINE
  5
3C2
100
AcDbEntity
  8
SCHRAFFIERT
100
AcDbLine
 62
2
  6
CONTINUOUS
 10
67.6294558218
 20
137.3079638223
 11
67.1206889428
 21
137.3711249526
  0
LINE
  5
3C3
100
AcDbEntity
  8
SCHRAFFIERT
100
AcDbLine
 62
2
  6
CONTINUOUS
 10
67.1206889428
 20
137.3711249526
 11
67.6294558218
 21
137.3079638223
  0
LINE
  5
3C4
100
AcDbEntity
  8
SCHRAFFIERT
100
AcDbLine
 62
2
  6
CONTINUOUS
 10
67.6294558218
 20
137.3079638223
 11
68.8461246153
 21
137.1569198388
  0
LINE
  5
3C5
100
AcDbEntity
  8
SCHRAFFIERT
100
AcDbLine
 62
2
  6
CONTINUOUS
 10
68.8461246153
 20
137.1569198388
 11
69.2353410766
 21
137.1086003577
  0
LINE
  5
3C6
100
AcDbEntity
  8
SCHRAFFIERT
100
AcDbLine
 62
2
  6
CONTINUOUS
 10
69.2353410766
 20
137.1086003577
 11
69.5596799619
 21
137.0683351372
  0
LINE
  5
3C7
100
AcDbEntity
  8
SCHRAFFIERT
100
AcDbLine
 62
2
  6
CONTINUOUS
 10
69.2353410766
 20
138.010135544
 11
69.1526664587
 21
138.010135544
  0
LINE
  5
3C8
100
AcDbEntity
  8
SCHRAFFIERT
100
AcDbLine
 62
2
  6
CONTINUOUS
 10
69.3052965224
 20
138.010135544
 11
69.2353410766
 21
138.010135544
  0
LINE
  5
3C9
100
AcDbEntity
  8
SCHRAFFIERT
100
AcDbLine
 62
2
  6
CONTINUOUS
 10
69.025474739
 20
139.3329294293
 11
68.8461246153
 21
139.3329294293
  0
LINE
  5
3CA
100
AcDbEntity
  8
SCHRAFFIERT
100
AcDbLine
 62
2
  6
CONTINUOUS
 10
68.8461246153
 20
139.3329294293
 11
67.6294558218
 21
139.3329294293
  0
LINE
  5
3CB
100
AcDbEntity
  8
07
100
AcDbLine
 62
7
  6
CONTINUOUS
 10
67.1206901424
 20
138.8241619566
 11
67.1206901424
 21
135.7077972567
  0
LINE
  5
3CC
100
AcDbEntity
  8
010
100
AcDbLine
 62
2
  6
CONTINUOUS
 10
67.1206901424
 20
135.7077972567
 11
67.1206901424
 21
132.7069200637
  0
LINE
  5
3CD
100
AcDbEntity
  8
SCHRAFFIERT
100
AcDbLine
 62
2
  6
CONTINUOUS
 10
67.1206889428
 20
135.7077978504
 11
67.1206889428
 21
132.7069206574
  0
LINE
  5
3CE
100
AcDbEntity
  8
SCHRAFFIERT
100
AcDbLine
 62
2
  6
CONTINUOUS
 10
67.4959667206
 20
133.0821984352
 11
67.4959667206
 21
135.3325200726
  0
LINE
  5
3CF
100
AcDbEntity
  8
SCHRAFFIERT
100
AcDbLine
 62
2
  6
CONTINUOUS
 10
69.0961538551
 20
131.8070493124
 11
69.0961538551
 21
127.3334641799
  0
LINE
  5
3D0
100
AcDbEntity
  8
SCHRAFFIERT
100
AcDbLine
 62
2
  6
CONTINUOUS
 10
69.0961538551
 20
127.3334641799
 11
69.0961538551
 21
126.856470365
  0
LINE
  5
3D1
100
AcDbEntity
  8
SCHRAFFIERT
100
AcDbLine
 62
2
  6
CONTINUOUS
 10
69.3711860188
 20
127.1315025287
 11
69.3711860188
 21
127.1380586398
  0
LINE
  5
3D2
100
AcDbEntity
  8
SCHRAFFIERT
100
AcDbLine
 62
2
  6
CONTINUOUS
 10
69.3711860188
 20
127.1380586398
 11
69.3711860188
 21
131.5320171486
  0
LINE
  5
3D3
100
AcDbEntity
  8
SCHRAFFIERT
100
AcDbLine
 62
2
  6
CONTINUOUS
 10
69.3711860188
 20
127.1380586398
 11
69.0961538551
 21
127.3334641799
  0
LINE
  5
3D4
100
AcDbEntity
  8
SCHRAFFIERT
100
AcDbLine
 62
2
  6
CONTINUOUS
 10
69.0961538551
 20
127.3334641799
 11
69.3711860188
 21
127.1380586398
  0
LINE
  5
3D5
100
AcDbEntity
  8
SCHRAFFIERT
100
AcDbLine
 62
2
  6
CONTINUOUS
 10
69.3711860188
 20
131.5320171486
 11
69.0961538551
 21
131.8070493124
  0
LINE
  5
3D6
100
AcDbEntity
  8
SCHRAFFIERT
100
AcDbLine
 62
2
  6
CONTINUOUS
 10
67.4959667206
 20
135.3325200726
 11
67.1206889428
 21
135.7077978504
  0
LINE
  5
3D7
100
AcDbEntity
  8
SCHRAFFIERT
100
AcDbLine
 62
2
  6
CONTINUOUS
 10
67.1206889428
 20
132.7069206574
 11
67.4959667206
 21
133.0821984352
  0
LINE
  5
3D8
100
AcDbEntity
  8
SCHRAFFIERT
100
AcDbLine
 62
2
  6
CONTINUOUS
 10
69.0961538551
 20
126.856470365
 11
69.3711860188
 21
127.1315025287
  0
HATCH
  5
3D9
100
AcDbEntity
  8
SCHRAFFIERT
100
AcDbHatch
 62
4
  6
CONTINUOUS
 10
0.0
 20
0.0
 30
0.0
210
0.0
220
0.0
230
1.0
  2
ANSI31
 70
0
 71
1
 91
2
 92
1
 93
4
 72
1
 10
67.1206889428
 20
132.7069206574
 11
67.4959667206
 21
133.0821984352
 72
1
 10
67.4959667206
 20
133.0821984352
 11
67.4959667206
 21
135.3325200726
 72
1
 10
67.4959667206
 20
135.3325200726
 11
67.1206889428
 21
135.7077978504
 72
1
 10
67.1206889428
 20
135.7077978504
 11
67.1206889428
 21
132.7069206574
 97
12
330
3CD
330
3CE
330
3CF
330
3D0
330
3D1
330
3D2
330
3D3
330
3D4
330
3D5
330
3D6
330
3D7
330
3D8
 92
1
 93
2
 72
1
 10
69.3711860188
 20
127.1380586398
 11
69.0961538551
 21
127.3334641799
 72
1
 10
69.0961538551
 20
127.3334641799
 11
69.3711860188
 21
127.1380586398
 97
12
330
3CD
330
3CE
330
3CF
330
3D0
330
3D1
330
3D2
330
3D3
330
3D4
330
3D5
330
3D6
330
3D7
330
3D8
 75
0
 76
0
 52
135.0
 41
0.625
 77
0
 78
1
 53
135.0
 43
-3.6388234908
 44
-3.6388234908
 45
-0.4419417382
 46
-0.4419417382
 79
0
 98
1
 10
0.0
 20
0.0
  0
LINE
  5
3DA
100
AcDbEntity
  8
05
100
AcDbLine
 62
7
  6
CONTINUOUS
 10
67.1206901424
 20
132.7069200637
 11
67.1206901424
 21
132.6172060331
  0
LINE
  5
3DB
100
AcDbEntity
  8
05
100
AcDbLine
 62
7
  6
CONTINUOUS
 10
67.1206901424
 20
149.3333381924
 11
67.1206901424
 21
150.8229752213
  0
LINE
  5
3DC
100
AcDbEntity
  8
SCHRAFFIERT
100
AcDbLine
 62
2
  6
CONTINUOUS
 10
67.3709521007
 20
147.8339235814
 11
67.3709521007
 21
143.1560169455
  0
LINE
  5
3DD
100
AcDbEntity
  8
SCHRAFFIERT
100
AcDbLine
 62
2
  6
CONTINUOUS
 10
67.3709521007
 20
143.1560169455
 11
67.3709521007
 21
139.3329294293
  0
LINE
  5
3DE
100
AcDbEntity
  8
SCHRAFFIERT
100
AcDbLine
 62
2
  6
CONTINUOUS
 10
69.1211567791
 20
147.8339235814
 11
69.1211567791
 21
143.7992688551
  0
LINE
  5
3DF
100
AcDbEntity
  8
SCHRAFFIERT
100
AcDbLine
 62
2
  6
CONTINUOUS
 10
69.1211567791
 20
143.7992688551
 11
69.1211567791
 21
142.8333387861
  0
LINE
  5
3E0
100
AcDbEntity
  8
SCHRAFFIERT
100
AcDbLine
 62
2
  6
CONTINUOUS
 10
69.1211567791
 20
142.8333387861
 11
69.1211567791
 21
143.7992688551
  0
LINE
  5
3E1
100
AcDbEntity
  8
SCHRAFFIERT
100
AcDbLine
 62
2
  6
CONTINUOUS
 10
69.1211567791
 20
143.7992688551
 11
69.1211567791
 21
147.8339235814
  0
LINE
  5
3E2
100
AcDbEntity
  8
SCHRAFFIERT
100
AcDbLine
 62
2
  6
CONTINUOUS
 10
69.2353410766
 20
139.3329294293
 11
69.2353410766
 21
138.010135544
  0
LINE
  5
3E3
100
AcDbEntity
  8
SCHRAFFIERT
100
AcDbLine
 62
2
  6
CONTINUOUS
 10
69.2353410766
 20
133.4312336331
 11
69.2353410766
 21
131.8320522363
  0
LINE
  5
3E4
100
AcDbEntity
  8
SCHRAFFIERT
100
AcDbLine
 62
2
  6
CONTINUOUS
 10
69.3711860188
 20
142.8333387861
 11
69.3711860188
 21
143.891161985
  0
LINE
  5
3E5
100
AcDbEntity
  8
SCHRAFFIERT
100
AcDbLine
 62
2
  6
CONTINUOUS
 10
69.3711860188
 20
143.891161985
 11
69.3711860188
 21
147.5838943416
  0
LINE
  5
3E6
100
AcDbEntity
  8
SCHRAFFIERT
100
AcDbLine
 62
2
  6
CONTINUOUS
 10
69.5596799619
 20
139.3329294293
 11
69.5596799619
 21
137.7557521045
  0
LINE
  5
3E7
100
AcDbEntity
  8
SCHRAFFIERT
100
AcDbLine
 62
2
  6
CONTINUOUS
 10
69.5596799619
 20
137.7557521045
 11
69.5596799619
 21
137.0683351372
  0
LINE
  5
3E8
100
AcDbEntity
  8
SCHRAFFIERT
100
AcDbLine
 62
2
  6
CONTINUOUS
 10
69.5596799619
 20
137.0683351372
 11
69.5596799619
 21
133.6856170726
  0
LINE
  5
3E9
100
AcDbEntity
  8
SCHRAFFIERT
100
AcDbLine
 62
2
  6
CONTINUOUS
 10
69.5596799619
 20
133.6856170726
 11
69.5596799619
 21
131.8320522363
  0
LINE
  5
3EA
100
AcDbEntity
  8
SCHRAFFIERT
100
AcDbLine
 62
2
  6
CONTINUOUS
 10
69.5596799619
 20
131.8320522363
 11
69.5596799619
 21
133.6856170726
  0
LINE
  5
3EB
100
AcDbEntity
  8
SCHRAFFIERT
100
AcDbLine
 62
2
  6
CONTINUOUS
 10
69.5596799619
 20
137.7557521045
 11
69.5596799619
 21
139.3329294293
  0
LINE
  5
3EC
100
AcDbEntity
  8
SCHRAFFIERT
100
AcDbLine
 62
2
  6
CONTINUOUS
 10
69.8712444984
 20
131.9811750434
 11
69.8712444984
 21
137.0296557949
  0
LINE
  5
3ED
100
AcDbEntity
  8
SCHRAFFIERT
100
AcDbLine
 62
2
  6
CONTINUOUS
 10
69.8712444984
 20
137.0296557949
 11
69.8712444984
 21
142.5833095463
  0
LINE
  5
3EE
100
AcDbEntity
  8
SCHRAFFIERT
100
AcDbLine
 62
2
  6
CONTINUOUS
 10
69.3052965224
 20
138.010135544
 11
69.5596799619
 21
137.7557521045
  0
LINE
  5
3EF
100
AcDbEntity
  8
SCHRAFFIERT
100
AcDbLine
 62
2
  6
CONTINUOUS
 10
69.8712444984
 20
142.5833095463
 11
69.6212152586
 21
142.8333387861
  0
LINE
  5
3F0
100
AcDbEntity
  8
SCHRAFFIERT
100
AcDbLine
 62
2
  6
CONTINUOUS
 10
69.3711860188
 20
147.5838943416
 11
69.1211567791
 21
147.8339235814
  0
LINE
  5
3F1
100
AcDbEntity
  8
SCHRAFFIERT
100
AcDbLine
 62
2
  6
CONTINUOUS
 10
69.5596799619
 20
133.6856170726
 11
69.3052965224
 21
133.4312336331
  0
LINE
  5
3F2
100
AcDbEntity
  8
SCHRAFFIERT
100
AcDbLine
 62
2
  6
CONTINUOUS
 10
69.2353410766
 20
131.8320522363
 11
69.5596799619
 21
131.8320522363
  0
LINE
  5
3F3
100
AcDbEntity
  8
SCHRAFFIERT
100
AcDbLine
 62
2
  6
CONTINUOUS
 10
69.5596799619
 20
131.8320522363
 11
69.7221216913
 21
131.8320522363
  0
LINE
  5
3F4
100
AcDbEntity
  8
SCHRAFFIERT
100
AcDbLine
 62
2
  6
CONTINUOUS
 10
69.3052965224
 20
133.4312336331
 11
69.2353410766
 21
133.4312336331
  0
LINE
  5
3F5
100
AcDbEntity
  8
SCHRAFFIERT
100
AcDbLine
 62
2
  6
CONTINUOUS
 10
69.8712444984
 20
137.0296557949
 11
69.5596799619
 21
137.0683351372
  0
LINE
  5
3F6
100
AcDbEntity
  8
SCHRAFFIERT
100
AcDbLine
 62
2
  6
CONTINUOUS
 10
69.5596799619
 20
137.0683351372
 11
69.8712444984
 21
137.0296557949
  0
LINE
  5
3F7
100
AcDbEntity
  8
SCHRAFFIERT
100
AcDbLine
 62
2
  6
CONTINUOUS
 10
69.3711860188
 20
143.891161985
 11
69.1211567791
 21
143.7992688551
  0
LINE
  5
3F8
100
AcDbEntity
  8
SCHRAFFIERT
100
AcDbLine
 62
2
  6
CONTINUOUS
 10
69.1211567791
 20
143.7992688551
 11
67.3709521007
 21
143.1560169455
  0
LINE
  5
3F9
100
AcDbEntity
  8
SCHRAFFIERT
100
AcDbLine
 62
2
  6
CONTINUOUS
 10
67.3709521007
 20
143.1560169455
 11
69.1211567791
 21
143.7992688551
  0
LINE
  5
3FA
100
AcDbEntity
  8
SCHRAFFIERT
100
AcDbLine
 62
2
  6
CONTINUOUS
 10
69.1211567791
 20
143.7992688551
 11
69.3711860188
 21
143.891161985
  0
LINE
  5
3FB
100
AcDbEntity
  8
SCHRAFFIERT
100
AcDbLine
 62
2
  6
CONTINUOUS
 10
69.2353410766
 20
138.010135544
 11
69.3052965224
 21
138.010135544
  0
LINE
  5
3FC
100
AcDbEntity
  8
SCHRAFFIERT
100
AcDbLine
 62
2
  6
CONTINUOUS
 10
69.5596799619
 20
139.3329294293
 11
69.2353410766
 21
139.3329294293
  0
LINE
  5
3FD
100
AcDbEntity
  8
SCHRAFFIERT
100
AcDbLine
 62
2
  6
CONTINUOUS
 10
67.3709521007
 20
139.3329294293
 11
68.0842560129
 21
139.3329294293
  0
LINE
  5
3FE
100
AcDbEntity
  8
SCHRAFFIERT
100
AcDbLine
 62
2
  6
CONTINUOUS
 10
68.0842560129
 20
139.3329294293
 11
68.8461246153
 21
139.3329294293
  0
LINE
  5
3FF
100
AcDbEntity
  8
SCHRAFFIERT
100
AcDbLine
 62
2
  6
CONTINUOUS
 10
68.8461246153
 20
139.3329294293
 11
69.025474739
 21
139.3329294293
  0
LINE
  5
400
100
AcDbEntity
  8
SCHRAFFIERT
100
AcDbLine
 62
2
  6
CONTINUOUS
 10
69.025474739
 20
139.3329294293
 11
69.5596799619
 21
139.3329294293
  0
LINE
  5
401
100
AcDbEntity
  8
SCHRAFFIERT
100
AcDbLine
 62
2
  6
CONTINUOUS
 10
69.6212152586
 20
142.8333387861
 11
69.3711860188
 21
142.8333387861
  0
LINE
  5
402
100
AcDbEntity
  8
SCHRAFFIERT
100
AcDbLine
 62
2
  6
CONTINUOUS
 10
69.3711860188
 20
142.8333387861
 11
69.1211567791
 21
142.8333387861
  0
LINE
  5
403
100
AcDbEntity
  8
SCHRAFFIERT
100
AcDbLine
 62
2
  6
CONTINUOUS
 10
69.1211567791
 20
142.8333387861
 11
69.3711860188
 21
142.8333387861
  0
LINE
  5
404
100
AcDbEntity
  8
SCHRAFFIERT
100
AcDbLine
 62
2
  6
CONTINUOUS
 10
69.1211567791
 20
147.8339235814
 11
67.3709521007
 21
147.8339235814
  0
ARC
  5
405
100
AcDbEntity
  8
SCHRAFFIERT
100
AcDbCircle
 62
2
  6
CONTINUOUS
 10
69.7221216913
 20
131.9811750434
 40
0.149122807
100
AcDbArc
 50
270.0
 51
360.0
  0
HATCH
  5
406
100
AcDbEntity
  8
SCHRAFFIERT
100
AcDbHatch
 62
4
  6
CONTINUOUS
 10
0.0
 20
0.0
 30
0.0
210
0.0
220
0.0
230
1.0
  2
ANSI31
 70
0
 71
1
 91
4
 92
1
 93
2
 72
1
 10
69.5596799619
 20
139.3329294293
 11
69.5596799619
 21
137.7557521045
 72
1
 10
69.5596799619
 20
137.7557521045
 11
69.5596799619
 21
139.3329294293
 97
42
330
3DC
330
3DD
330
3DE
330
3DF
330
3E0
330
3E1
330
3E2
330
3E3
330
3E4
330
3E5
330
3E6
330
3E7
330
3E8
330
3E9
330
3EA
330
3EB
330
3EC
330
3ED
330
3EE
330
3EF
330
3F0
330
3F1
330
3F2
330
3F3
330
3F4
330
3F5
330
3F6
330
3F7
330
3F8
330
3F9
330
3FA
330
3FB
330
3FC
330
3FD
330
3FE
330
3FF
330
400
330
401
330
402
330
403
330
404
330
405
 92
1
 93
2
 72
1
 10
69.5596799619
 20
133.6856170726
 11
69.5596799619
 21
131.8320522363
 72
1
 10
69.5596799619
 20
131.8320522363
 11
69.5596799619
 21
133.6856170726
 97
42
330
3DC
330
3DD
330
3DE
330
3DF
330
3E0
330
3E1
330
3E2
330
3E3
330
3E4
330
3E5
330
3E6
330
3E7
330
3E8
330
3E9
330
3EA
330
3EB
330
3EC
330
3ED
330
3EE
330
3EF
330
3F0
330
3F1
330
3F2
330
3F3
330
3F4
330
3F5
330
3F6
330
3F7
330
3F8
330
3F9
330
3FA
330
3FB
330
3FC
330
3FD
330
3FE
330
3FF
330
400
330
401
330
402
330
403
330
404
330
405
 92
1
 93
2
 72
1
 10
69.8712444984
 20
137.0296557949
 11
69.5596799619
 21
137.0683351372
 72
1
 10
69.5596799619
 20
137.0683351372
 11
69.8712444984
 21
137.0296557949
 97
42
330
3DC
330
3DD
330
3DE
330
3DF
330
3E0
330
3E1
330
3E2
330
3E3
330
3E4
330
3E5
330
3E6
330
3E7
330
3E8
330
3E9
330
3EA
330
3EB
330
3EC
330
3ED
330
3EE
330
3EF
330
3F0
330
3F1
330
3F2
330
3F3
330
3F4
330
3F5
330
3F6
330
3F7
330
3F8
330
3F9
330
3FA
330
3FB
330
3FC
330
3FD
330
3FE
330
3FF
330
400
330
401
330
402
330
403
330
404
330
405
 92
1
 93
2
 72
1
 10
69.3711860188
 20
142.8333387861
 11
69.1211567791
 21
142.8333387861
 72
1
 10
69.1211567791
 20
142.8333387861
 11
69.3711860188
 21
142.8333387861
 97
42
330
3DC
330
3DD
330
3DE
330
3DF
330
3E0
330
3E1
330
3E2
330
3E3
330
3E4
330
3E5
330
3E6
330
3E7
330
3E8
330
3E9
330
3EA
330
3EB
330
3EC
330
3ED
330
3EE
330
3EF
330
3F0
330
3F1
330
3F2
330
3F3
330
3F4
330
3F5
330
3F6
330
3F7
330
3F8
330
3F9
330
3FA
330
3FB
330
3FC
330
3FD
330
3FE
330
3FF
330
400
330
401
330
402
330
403
330
404
330
405
 75
0
 76
0
 52
135.0
 41
0.75
 77
0
 78
1
 53
135.0
 43
-3.6388234908
 44
-3.6388234908
 45
-0.5303300859
 46
-0.5303300859
 79
0
 98
1
 10
0.0
 20
0.0
  0
LINE
  5
407
100
AcDbEntity
  8
05
100
AcDbLine
 62
7
  6
CONTINUOUS
 10
67.3709533003
 20
147.8339229877
 11
67.3709533003
 21
139.3329288356
  0
LINE
  5
408
100
AcDbEntity
  8
010
100
AcDbLine
 62
2
  6
CONTINUOUS
 10
67.4959679202
 20
139.1994397344
 11
67.4959679202
 21
135.3325194789
  0
LINE
  5
409
100
AcDbEntity
  8
07
100
AcDbLine
 62
7
  6
CONTINUOUS
 10
67.4959679202
 20
135.3325194789
 11
67.4959679202
 21
133.0821978415
  0
LINE
  5
40A
100
AcDbEntity
  8
010
100
AcDbLine
 62
2
  6
CONTINUOUS
 10
67.4959679202
 20
133.0821978415
 11
67.4959679202
 21
132.2419282553
  0
LINE
  5
40B
100
AcDbEntity
  8
SCHRAFFIERT
100
AcDbLine
 62
2
  6
CONTINUOUS
 10
67.8456901424
 20
233.8771016753
 11
67.8456901424
 21
229.8771016753
  0
LINE
  5
40C
100
AcDbEntity
  8
025
100
AcDbLine
 62
2
  6
CONTINUOUS
 10
67.8652946205
 20
206.9276927423
 11
67.8652946205
 21
206.4702586626
  0
LINE
  5
40D
100
AcDbEntity
  8
025
100
AcDbLine
 62
2
  6
CONTINUOUS
 10
67.8652946205
 20
205.5299774988
 11
67.8652946205
 21
205.0725434191
  0
LINE
  5
40E
100
AcDbEntity
  8
025
100
AcDbLine
 62
2
  6
CONTINUOUS
 10
67.8652946205
 20
204.1322622553
 11
67.8652946205
 21
203.6748281757
  0
LINE
  5
40F
100
AcDbEntity
  8
025
100
AcDbLine
 62
2
  6
CONTINUOUS
 10
67.8652946205
 20
202.7345470119
 11
67.8652946205
 21
202.2771129322
  0
LINE
  5
410
100
AcDbEntity
  8
025
100
AcDbLine
 62
2
  6
CONTINUOUS
 10
67.8652946205
 20
201.3368317684
 11
67.8652946205
 21
200.8793976887
  0
LINE
  5
411
100
AcDbEntity
  8
025
100
AcDbLine
 62
2
  6
CONTINUOUS
 10
67.8652946205
 20
199.9391165249
 11
67.8652946205
 21
199.4816824452
  0
LINE
  5
412
100
AcDbEntity
  8
025
100
AcDbLine
 62
2
  6
CONTINUOUS
 10
67.8652946205
 20
197.143686038
 11
67.8652946205
 21
196.6862519583
  0
LINE
  5
413
100
AcDbEntity
  8
025
100
AcDbLine
 62
2
  6
CONTINUOUS
 10
67.8652946205
 20
195.7459707945
 11
67.8652946205
 21
195.2885367148
  0
LINE
  5
414
100
AcDbEntity
  8
025
100
AcDbLine
 62
2
  6
CONTINUOUS
 10
67.8652946205
 20
194.348255551
 11
67.8652946205
 21
193.8908214714
  0
LINE
  5
415
100
AcDbEntity
  8
025
100
AcDbLine
 62
2
  6
CONTINUOUS
 10
67.8652946205
 20
192.9505403076
 11
67.8652946205
 21
192.4931062279
  0
LINE
  5
416
100
AcDbEntity
  8
025
100
AcDbLine
 62
2
  6
CONTINUOUS
 10
67.8652946205
 20
191.5528250641
 11
67.8652946205
 21
191.0953909844
  0
LINE
  5
417
100
AcDbEntity
  8
025
100
AcDbLine
 62
2
  6
CONTINUOUS
 10
67.8652946205
 20
190.1551098206
 11
67.8652946205
 21
189.6976757409
  0
LINE
  5
418
100
AcDbEntity
  8
025
100
AcDbLine
 62
2
  6
CONTINUOUS
 10
67.8652946205
 20
188.7573945772
 11
67.8652946205
 21
188.2999604975
  0
LINE
  5
419
100
AcDbEntity
  8
025
100
AcDbLine
 62
2
  6
CONTINUOUS
 10
67.8652946205
 20
187.3596793337
 11
67.8652946205
 21
186.902245254
  0
LINE
  5
41A
100
AcDbEntity
  8
025
100
AcDbLine
 62
2
  6
CONTINUOUS
 10
67.8652946205
 20
185.9619640902
 11
67.8652946205
 21
185.5045300105
  0
LINE
  5
41B
100
AcDbEntity
  8
025
100
AcDbLine
 62
2
  6
CONTINUOUS
 10
67.8652946205
 20
184.5642488467
 11
67.8652946205
 21
184.4144659771
  0
LINE
  5
41C
100
AcDbEntity
  8
025
100
AcDbLine
 62
2
  6
CONTINUOUS
 10
67.8652946205
 20
183.1665336033
 11
67.8652946205
 21
182.7090995236
  0
LINE
  5
41D
100
AcDbEntity
  8
025
100
AcDbLine
 62
2
  6
CONTINUOUS
 10
67.8652946205
 20
181.7688183598
 11
67.8652946205
 21
181.3113842801
  0
LINE
  5
41E
100
AcDbEntity
  8
025
100
AcDbLine
 62
2
  6
CONTINUOUS
 10
67.8652946205
 20
180.3711031163
 11
67.8652946205
 21
179.9136690366
  0
LINE
  5
41F
100
AcDbEntity
  8
025
100
AcDbLine
 62
2
  6
CONTINUOUS
 10
67.8652946205
 20
178.9733878728
 11
67.8652946205
 21
178.5159537932
  0
LINE
  5
420
100
AcDbEntity
  8
025
100
AcDbLine
 62
2
  6
CONTINUOUS
 10
67.8652946205
 20
177.5756726294
 11
67.8652946205
 21
177.1182385497
  0
LINE
  5
421
100
AcDbEntity
  8
025
100
AcDbLine
 62
2
  6
CONTINUOUS
 10
67.8652946205
 20
176.1779573859
 11
67.8652946205
 21
175.7205233062
  0
LINE
  5
422
100
AcDbEntity
  8
025
100
AcDbLine
 62
2
  6
CONTINUOUS
 10
67.8652946205
 20
174.7802421424
 11
67.8652946205
 21
174.3228080628
  0
LINE
  5
423
100
AcDbEntity
  8
025
100
AcDbLine
 62
2
  6
CONTINUOUS
 10
67.8652946205
 20
173.382526899
 11
67.8652946205
 21
172.9250928193
  0
LINE
  5
424
100
AcDbEntity
  8
025
100
AcDbLine
 62
2
  6
CONTINUOUS
 10
67.8652946205
 20
171.9848116555
 11
67.8652946205
 21
171.5273775758
  0
LINE
  5
425
100
AcDbEntity
  8
025
100
AcDbLine
 62
2
  6
CONTINUOUS
 10
67.8652946205
 20
170.587096412
 11
67.8652946205
 21
170.1296623323
  0
LINE
  5
426
100
AcDbEntity
  8
025
100
AcDbLine
 62
2
  6
CONTINUOUS
 10
67.8652946205
 20
169.1893811685
 11
67.8652946205
 21
168.7319470889
  0
LINE
  5
427
100
AcDbEntity
  8
025
100
AcDbLine
 62
2
  6
CONTINUOUS
 10
67.8652946205
 20
167.7916659251
 11
67.8652946205
 21
167.3342318454
  0
LINE
  5
428
100
AcDbEntity
  8
025
100
AcDbLine
 62
2
  6
CONTINUOUS
 10
67.8652946205
 20
166.3939506816
 11
67.8652946205
 21
165.9365166019
  0
LINE
  5
429
100
AcDbEntity
  8
025
100
AcDbLine
 62
2
  6
CONTINUOUS
 10
67.8652946205
 20
164.9962354381
 11
67.8652946205
 21
164.5388013584
  0
LINE
  5
42A
100
AcDbEntity
  8
025
100
AcDbLine
 62
2
  6
CONTINUOUS
 10
67.8652946205
 20
163.5985201947
 11
67.8652946205
 21
163.141086115
  0
LINE
  5
42B
100
AcDbEntity
  8
025
100
AcDbLine
 62
2
  6
CONTINUOUS
 10
67.8652946205
 20
162.2008049512
 11
67.8652946205
 21
161.7433708715
  0
LINE
  5
42C
100
AcDbEntity
  8
025
100
AcDbLine
 62
2
  6
CONTINUOUS
 10
67.8652946205
 20
160.8030897077
 11
67.8652946205
 21
160.345655628
  0
LINE
  5
42D
100
AcDbEntity
  8
025
100
AcDbLine
 62
2
  6
CONTINUOUS
 10
68.1194246648
 20
207.939519385
 11
68.1194246648
 21
206.9992382212
  0
LINE
  5
42E
100
AcDbEntity
  8
025
100
AcDbLine
 62
2
  6
CONTINUOUS
 10
68.1194246648
 20
206.5418041415
 11
68.1194246648
 21
205.6015229778
  0
LINE
  5
42F
100
AcDbEntity
  8
025
100
AcDbLine
 62
2
  6
CONTINUOUS
 10
68.1194246648
 20
205.1440888981
 11
68.1194246648
 21
204.2038077343
  0
LINE
  5
430
100
AcDbEntity
  8
025
100
AcDbLine
 62
2
  6
CONTINUOUS
 10
68.1194246648
 20
203.7463736546
 11
68.1194246648
 21
202.8060924908
  0
LINE
  5
431
100
AcDbEntity
  8
025
100
AcDbLine
 62
2
  6
CONTINUOUS
 10
68.1194246648
 20
202.3486584111
 11
68.1194246648
 21
201.4083772473
  0
LINE
  5
432
100
AcDbEntity
  8
025
100
AcDbLine
 62
2
  6
CONTINUOUS
 10
68.1194246648
 20
200.9509431677
 11
68.1194246648
 21
200.0106620039
  0
LINE
  5
433
100
AcDbEntity
  8
025
100
AcDbLine
 62
2
  6
CONTINUOUS
 10
68.1194246648
 20
199.5532279242
 11
68.1194246648
 21
198.6129467604
  0
LINE
  5
434
100
AcDbEntity
  8
025
100
AcDbLine
 62
2
  6
CONTINUOUS
 10
68.1194246648
 20
198.1555126807
 11
68.1194246648
 21
197.2152315169
  0
LINE
  5
435
100
AcDbEntity
  8
025
100
AcDbLine
 62
2
  6
CONTINUOUS
 10
68.1194246648
 20
196.7577974372
 11
68.1194246648
 21
195.8175162734
  0
LINE
  5
436
100
AcDbEntity
  8
025
100
AcDbLine
 62
2
  6
CONTINUOUS
 10
68.1194246648
 20
195.3600821938
 11
68.1194246648
 21
194.41980103
  0
LINE
  5
437
100
AcDbEntity
  8
025
100
AcDbLine
 62
2
  6
CONTINUOUS
 10
68.1194246648
 20
193.9623669503
 11
68.1194246648
 21
193.0220857865
  0
LINE
  5
438
100
AcDbEntity
  8
025
100
AcDbLine
 62
2
  6
CONTINUOUS
 10
68.1194246648
 20
192.5646517068
 11
68.1194246648
 21
191.624370543
  0
LINE
  5
439
100
AcDbEntity
  8
025
100
AcDbLine
 62
2
  6
CONTINUOUS
 10
68.1194246648
 20
191.1669364633
 11
68.1194246648
 21
190.2266552996
  0
LINE
  5
43A
100
AcDbEntity
  8
025
100
AcDbLine
 62
2
  6
CONTINUOUS
 10
68.1194246648
 20
189.7692212199
 11
68.1194246648
 21
188.8289400561
  0
LINE
  5
43B
100
AcDbEntity
  8
025
100
AcDbLine
 62
2
  6
CONTINUOUS
 10
68.1194246648
 20
188.3715059764
 11
68.1194246648
 21
187.4312248126
  0
LINE
  5
43C
100
AcDbEntity
  8
025
100
AcDbLine
 62
2
  6
CONTINUOUS
 10
68.1194246648
 20
186.9737907329
 11
68.1194246648
 21
186.0335095691
  0
LINE
  5
43D
100
AcDbEntity
  8
025
100
AcDbLine
 62
2
  6
CONTINUOUS
 10
68.1194246648
 20
185.5760754895
 11
68.1194246648
 21
184.6357943257
  0
LINE
  5
43E
100
AcDbEntity
  8
025
100
AcDbLine
 62
2
  6
CONTINUOUS
 10
68.1194246648
 20
183.4192738038
 11
68.1194246648
 21
183.2380790822
  0
LINE
  5
43F
100
AcDbEntity
  8
025
100
AcDbLine
 62
2
  6
CONTINUOUS
 10
68.1194246648
 20
182.7806450025
 11
68.1194246648
 21
181.8403638387
  0
LINE
  5
440
100
AcDbEntity
  8
025
100
AcDbLine
 62
2
  6
CONTINUOUS
 10
68.1194246648
 20
181.382929759
 11
68.1194246648
 21
180.4426485953
  0
LINE
  5
441
100
AcDbEntity
  8
025
100
AcDbLine
 62
2
  6
CONTINUOUS
 10
68.1194246648
 20
179.9852145156
 11
68.1194246648
 21
179.0449333518
  0
LINE
  5
442
100
AcDbEntity
  8
025
100
AcDbLine
 62
2
  6
CONTINUOUS
 10
68.1194246648
 20
178.5874992721
 11
68.1194246648
 21
177.6472181083
  0
LINE
  5
443
100
AcDbEntity
  8
025
100
AcDbLine
 62
2
  6
CONTINUOUS
 10
68.1194246648
 20
177.1897840286
 11
68.1194246648
 21
176.2495028648
  0
LINE
  5
444
100
AcDbEntity
  8
025
100
AcDbLine
 62
2
  6
CONTINUOUS
 10
68.1194246648
 20
175.7920687852
 11
68.1194246648
 21
174.8517876214
  0
LINE
  5
445
100
AcDbEntity
  8
025
100
AcDbLine
 62
2
  6
CONTINUOUS
 10
68.1194246648
 20
174.3943535417
 11
68.1194246648
 21
173.4540723779
  0
LINE
  5
446
100
AcDbEntity
  8
025
100
AcDbLine
 62
2
  6
CONTINUOUS
 10
68.1194246648
 20
172.9966382982
 11
68.1194246648
 21
172.0563571344
  0
LINE
  5
447
100
AcDbEntity
  8
025
100
AcDbLine
 62
2
  6
CONTINUOUS
 10
68.1194246648
 20
171.5989230547
 11
68.1194246648
 21
170.6586418909
  0
LINE
  5
448
100
AcDbEntity
  8
025
100
AcDbLine
 62
2
  6
CONTINUOUS
 10
68.1194246648
 20
170.2012078113
 11
68.1194246648
 21
169.2609266475
  0
LINE
  5
449
100
AcDbEntity
  8
025
100
AcDbLine
 62
2
  6
CONTINUOUS
 10
68.1194246648
 20
168.8034925678
 11
68.1194246648
 21
167.863211404
  0
LINE
  5
44A
100
AcDbEntity
  8
025
100
AcDbLine
 62
2
  6
CONTINUOUS
 10
68.1194246648
 20
167.4057773243
 11
68.1194246648
 21
166.4654961605
  0
LINE
  5
44B
100
AcDbEntity
  8
025
100
AcDbLine
 62
2
  6
CONTINUOUS
 10
68.1194246648
 20
166.0080620809
 11
68.1194246648
 21
165.0677809171
  0
LINE
  5
44C
100
AcDbEntity
  8
025
100
AcDbLine
 62
2
  6
CONTINUOUS
 10
68.1194246648
 20
164.6103468374
 11
68.1194246648
 21
163.6700656736
  0
LINE
  5
44D
100
AcDbEntity
  8
025
100
AcDbLine
 62
2
  6
CONTINUOUS
 10
68.1194246648
 20
163.2126315939
 11
68.1194246648
 21
162.2723504301
  0
LINE
  5
44E
100
AcDbEntity
  8
025
100
AcDbLine
 62
2
  6
CONTINUOUS
 10
68.1194246648
 20
161.8149163504
 11
68.1194246648
 21
160.8746351866
  0
LINE
  5
44F
100
AcDbEntity
  8
025
100
AcDbLine
 62
2
  6
CONTINUOUS
 10
68.1194246648
 20
160.417201107
 11
68.1194246648
 21
160.3333381924
  0
LINE
  5
450
100
AcDbEntity
  8
SCHRAFFIERT
100
AcDbLine
 62
2
  6
CONTINUOUS
 10
68.7956901424
 20
233.8771016753
 11
68.7956901424
 21
229.8771016753
  0
LINE
  5
451
100
AcDbEntity
  8
07
100
AcDbLine
 62
7
  6
CONTINUOUS
 10
68.846125815
 20
132.1084391541
 11
68.846125815
 21
131.8320516426
  0
LINE
  5
452
100
AcDbEntity
  8
05
100
AcDbLine
 62
7
  6
CONTINUOUS
 10
69.0581901424
 20
235.9026230155
 11
69.0581901424
 21
241.439519385
  0
LINE
  5
453
100
AcDbEntity
  8
010
100
AcDbLine
 62
2
  6
CONTINUOUS
 10
69.0961550547
 20
126.8564697713
 11
69.0961550547
 21
131.8070487187
  0
LINE
  5
454
100
AcDbEntity
  8
010
100
AcDbLine
 62
2
  6
CONTINUOUS
 10
69.1211579787
 20
147.8339229877
 11
69.1211579787
 21
142.8333381924
  0
LINE
  5
455
100
AcDbEntity
  8
010
100
AcDbLine
 62
2
  6
CONTINUOUS
 10
69.1256901424
 20
224.039519385
 11
69.1256901424
 21
221.9175727413
  0
LINE
  5
456
100
AcDbEntity
  8
07
100
AcDbLine
 62
7
  6
CONTINUOUS
 10
69.1526676584
 20
139.3329288356
 11
69.1526676584
 21
138.0101349503
  0
LINE
  5
457
100
AcDbEntity
  8
07
100
AcDbLine
 62
7
  6
CONTINUOUS
 10
69.1526676584
 20
133.4312330395
 11
69.1526676584
 21
131.8320516426
  0
LINE
  5
458
100
AcDbEntity
  8
010
100
AcDbLine
 62
2
  6
CONTINUOUS
 10
69.2353422762
 20
138.0101349503
 11
69.2353422762
 21
133.4312330395
  0
LINE
  5
459
100
AcDbEntity
  8
05
100
AcDbLine
 62
7
  6
CONTINUOUS
 10
69.2353422762
 20
133.4312330395
 11
69.2353422762
 21
131.8320516426
  0
LINE
  5
45A
100
AcDbEntity
  8
05
100
AcDbLine
 62
7
  6
CONTINUOUS
 10
69.2353422762
 20
138.0101349503
 11
69.2353422762
 21
139.3329288356
  0
LINE
  5
45B
100
AcDbEntity
  8
07
100
AcDbLine
 62
7
  6
CONTINUOUS
 10
69.3711872185
 20
147.5838937479
 11
69.3711872185
 21
142.8333381924
  0
LINE
  5
45C
100
AcDbEntity
  8
07
100
AcDbLine
 62
7
  6
CONTINUOUS
 10
69.3711872185
 20
127.131501935
 11
69.3711872185
 21
131.5320165549
  0
LINE
  5
45D
100
AcDbEntity
  8
010
100
AcDbLine
 62
2
  6
CONTINUOUS
 10
69.3956901424
 20
222.1875727413
 11
69.3956901424
 21
221.7490530283
  0
LINE
  5
45E
100
AcDbEntity
  8
05
100
AcDbLine
 62
7
  6
CONTINUOUS
 10
69.3956901424
 20
144.2333381924
 11
69.3956901424
 21
142.9333381924
  0
LINE
  5
45F
100
AcDbEntity
  8
05
100
AcDbLine
 62
7
  6
CONTINUOUS
 10
69.3956901424
 20
222.1875727413
 11
69.3956901424
 21
225.439519385
  0
LINE
  5
460
100
AcDbEntity
  8
05
100
AcDbLine
 62
7
  6
CONTINUOUS
 10
69.5206901424
 20
221.4585792773
 11
69.5206901424
 21
220.589519385
  0
LINE
  5
461
100
AcDbEntity
  8
05
100
AcDbLine
 62
7
  6
CONTINUOUS
 10
69.5206901424
 20
146.8142783
 11
69.5206901424
 21
147.6833381924
  0
LINE
  5
462
100
AcDbEntity
  8
07
100
AcDbLine
 62
7
  6
CONTINUOUS
 10
69.5596811615
 20
137.7557515108
 11
69.5596811615
 21
133.6856164789
  0
LINE
  5
463
100
AcDbEntity
  8
010
100
AcDbLine
 62
2
  6
CONTINUOUS
 10
69.5596811615
 20
133.6856164789
 11
69.5596811615
 21
131.8320516426
  0
LINE
  5
464
100
AcDbEntity
  8
010
100
AcDbLine
 62
2
  6
CONTINUOUS
 10
69.5596811615
 20
137.7557515108
 11
69.5596811615
 21
139.3329288356
  0
LINE
  5
465
100
AcDbEntity
  8
SCHRAFFIERT
100
AcDbLine
 62
2
  6
CONTINUOUS
 10
69.5956901424
 20
233.8771016753
 11
69.5956901424
 21
229.8771016753
  0
LINE
  5
466
100
AcDbEntity
  8
035
100
AcDbLine
 62
7
  6
CONTINUOUS
 10
61.7506841422
 20
235.9026230155
 11
61.7555397395
 21
241.5247840661
  0
LINE
  5
467
100
AcDbEntity
  8
05
100
AcDbLine
 62
7
  6
CONTINUOUS
 10
60.3750514721
 20
150.3890819372
 11
60.3706901424
 21
150.2225294759
  0
LINE
  5
468
100
AcDbEntity
  8
05
100
AcDbLine
 62
7
  6
CONTINUOUS
 10
60.3750514721
 20
150.3890819372
 11
60.8713753751
 21
159.8595061705
  0
LINE
  5
469
100
AcDbEntity
  8
05
100
AcDbLine
 62
7
  6
CONTINUOUS
 10
69.8706901424
 20
217.9669947681
 11
69.3700049098
 21
208.4133514069
  0
LINE
  5
46A
100
AcDbEntity
  8
05
100
AcDbLine
 62
7
  6
CONTINUOUS
 10
69.8652292551
 20
227.8771016753
 11
69.7613292666
 21
226.6895193725
  0
LINE
  5
46B
100
AcDbEntity
  8
05
100
AcDbLine
 62
7
  6
CONTINUOUS
 10
142.1001277616
 20
220.460381734
 11
141.2341023578
 21
219.960381734
  0
LINE
  5
46C
100
AcDbEntity
  8
0
100
AcDbLine
 62
2
  6
CONTINUOUS
 10
135.0860432606
 20
113.923548235
 11
138.5860432606
 21
114.5068815683
  0
LINE
  5
46D
100
AcDbEntity
  8
0
100
AcDbLine
 62
2
  6
CONTINUOUS
 10
138.5860432606
 20
114.5068815683
 11
135.0860432606
 21
115.0902149016
  0
LINE
  5
46E
100
AcDbEntity
  8
0
100
AcDbLine
 62
2
  6
CONTINUOUS
 10
135.0860432606
 20
115.0902149016
 11
135.0860432606
 21
113.923548235
  0
HATCH
  5
46F
100
AcDbEntity
  8
0
100
AcDbHatch
 62
2
  6
CONTINUOUS
 10
0.0
 20
0.0
 30
0.0
210
0.0
220
0.0
230
1.0
  2

 70
1
 71
1
 91
1
 92
1
 93
3
 72
1
 10
138.5860432606
 20
114.5068815683
 11
135.0860432606
 21
115.0902149016
 72
1
 10
135.0860432606
 20
115.0902149016
 11
135.0860432606
 21
113.923548235
 72
1
 10
135.0860432606
 20
113.923548235
 11
138.5860432606
 21
114.5068815683
 97
3
330
46C
330
46D
330
46E
 75
0
 76
1
 98
1
 10
0.0
 20
0.0
  0
LINE
  5
470
100
AcDbEntity
  8
0
100
AcDbLine
 62
2
  6
CONTINUOUS
 10
132.3495722911
 20
104.213853536
 11
134.8506834022
 21
104.213853536
  0
LINE
  5
471
100
AcDbEntity
  8
025
100
AcDbLine
 62
2
  6
CONTINUOUS
 10
67.5607449057
 20
128.4243456324
 11
128.778916711
 21
84.9299056868
  0
LINE
  5
472
100
AcDbEntity
  8
07
100
AcDbLine
 62
7
  6
CONTINUOUS
 10
61.1702281541
 20
126.8314668473
 11
60.8701930664
 21
127.131501935
  0
LINE
  5
473
100
AcDbEntity
  8
07
100
AcDbLine
 62
7
  6
CONTINUOUS
 10
67.6294570214
 20
132.1084391541
 11
67.1206901424
 21
132.6172060331
  0
LINE
  5
474
100
AcDbEntity
  8
07
100
AcDbLine
 62
7
  6
CONTINUOUS
 10
69.3711872185
 20
131.5320165549
 11
69.0711521307
 21
131.8320516426
  0
LINE
  5
475
100
AcDbEntity
  8
07
100
AcDbLine
 62
7
  6
CONTINUOUS
 10
66.9959679202
 20
135.8325194789
 11
67.4959679202
 21
135.3325194789
  0
LINE
  5
476
100
AcDbEntity
  8
05
100
AcDbLine
 62
7
  6
CONTINUOUS
 10
69.8706901424
 20
150.3058628093
 11
69.3700049098
 21
159.8595061705
  0
LINE
  5
477
100
AcDbEntity
  8
05
100
AcDbLine
 62
7
  6
CONTINUOUS
 10
69.8706901424
 20
225.439519385
 11
69.8706901424
 21
217.939519385
  0
LINE
  5
478
100
AcDbEntity
  8
05
100
AcDbLine
 62
7
  6
CONTINUOUS
 10
69.8706901424
 20
142.8333381924
 11
69.8706901424
 21
150.3333381924
  0
LINE
  5
479
100
AcDbEntity
  8
05
100
AcDbLine
 62
7
  6
CONTINUOUS
 10
69.8706900949
 20
225.6895193825
 11
69.8706900949
 21
227.8578789555
  0
LINE
  5
47A
100
AcDbEntity
  8
07
100
AcDbLine
 62
7
  6
CONTINUOUS
 10
69.871245698
 20
142.5833089526
 11
69.871245698
 21
131.9811744497
  0
LINE
  5
47B
100
AcDbEntity
  8
SCHRAFFIERT
100
AcDbLine
 62
2
  6
CONTINUOUS
 10
70.1956901424
 20
233.8771016753
 11
70.1956901424
 21
229.8771016753
  0
LINE
  5
47C
100
AcDbEntity
  8
SCHRAFFIERT
100
AcDbLine
 62
2
  6
CONTINUOUS
 10
70.6956901424
 20
233.8771016753
 11
70.6956901424
 21
229.8771016753
  0
LINE
  5
47D
100
AcDbEntity
  8
SCHRAFFIERT
100
AcDbLine
 62
2
  6
CONTINUOUS
 10
71.0456901424
 20
233.8771016753
 11
71.0456901424
 21
229.8771016753
  0
LINE
  5
47E
100
AcDbEntity
  8
05
100
AcDbLine
 62
7
  6
CONTINUOUS
 10
71.1206901424
 20
234.9771016753
 11
71.1206901424
 21
233.8771016753
  0
LINE
  5
47F
100
AcDbEntity
  8
05
100
AcDbLine
 62
7
  6
CONTINUOUS
 10
71.1206901424
 20
229.8771016753
 11
71.1206901424
 21
228.2771016753
  0
LINE
  5
480
100
AcDbEntity
  8
SCHRAFFIERT
100
AcDbLine
 62
2
  6
CONTINUOUS
 10
71.2956901424
 20
233.7021016753
 11
71.2956901424
 21
230.0521016753
  0
LINE
  5
481
100
AcDbEntity
  8
05
100
AcDbLine
 62
7
  6
CONTINUOUS
 10
71.4206901424
 20
233.5771016753
 11
71.4206901424
 21
230.1771016753
  0
LINE
  5
482
100
AcDbEntity
  8
0
100
AcDbLine
 62
2
  6
CONTINUOUS
 10
71.6194246648
 20
174.5908843033
 11
71.6194246648
 21
173.4242176366
  0
LINE
  5
483
100
AcDbEntity
  8
0
100
AcDbLine
 62
2
  6
CONTINUOUS
 10
71.6194246648
 20
173.4242176366
 11
68.1194246648
 21
174.00755097
  0
LINE
  5
484
100
AcDbEntity
  8
0
100
AcDbLine
 62
2
  6
CONTINUOUS
 10
68.1194246648
 20
174.00755097
 11
71.6194246648
 21
174.5908843033
  0
HATCH
  5
485
100
AcDbEntity
  8
0
100
AcDbHatch
 62
2
  6
CONTINUOUS
 10
0.0
 20
0.0
 30
0.0
210
0.0
220
0.0
230
1.0
  2

 70
1
 71
1
 91
1
 92
1
 93
3
 72
1
 10
71.6194246648
 20
173.4242176366
 11
68.1194246648
 21
174.00755097
 72
1
 10
68.1194246648
 20
174.00755097
 11
71.6194246648
 21
174.5908843033
 72
1
 10
71.6194246648
 20
174.5908843033
 11
71.6194246648
 21
173.4242176366
 97
3
330
482
330
483
330
484
 75
0
 76
1
 98
1
 10
0.0
 20
0.0
  0
LINE
  5
486
100
AcDbEntity
  8
0
100
AcDbLine
 62
2
  6
CONTINUOUS
 10
84.5651896205
 20
221.939519385
 11
85.1485229538
 21
225.439519385
  0
LINE
  5
487
100
AcDbEntity
  8
0
100
AcDbLine
 62
2
  6
CONTINUOUS
 10
85.1485229538
 20
225.439519385
 11
85.7318562871
 21
221.939519385
  0
LINE
  5
488
100
AcDbEntity
  8
0
100
AcDbLine
 62
2
  6
CONTINUOUS
 10
85.7318562871
 20
221.939519385
 11
84.5651896205
 21
221.939519385
  0
HATCH
  5
489
100
AcDbEntity
  8
0
100
AcDbHatch
 62
2
  6
CONTINUOUS
 10
0.0
 20
0.0
 30
0.0
210
0.0
220
0.0
230
1.0
  2

 70
1
 71
1
 91
1
 92
1
 93
3
 72
1
 10
85.1485229538
 20
225.439519385
 11
85.7318562871
 21
221.939519385
 72
1
 10
85.7318562871
 20
221.939519385
 11
84.5651896205
 21
221.939519385
 72
1
 10
84.5651896205
 20
221.939519385
 11
85.1485229538
 21
225.439519385
 97
3
330
486
330
487
330
488
 75
0
 76
1
 98
1
 10
0.0
 20
0.0
  0
LINE
  5
48A
100
AcDbEntity
  8
035
100
AcDbLine
 62
7
  6
CONTINUOUS
 10
124.6354264963
 20
251.9597135404
 11
125.7251278466
 21
253.8471316442
  0
LINE
  5
48B
100
AcDbEntity
  8
05
100
AcDbLine
 62
7
  6
CONTINUOUS
 10
146.2001278466
 20
239.4355462896
 11
145.6001278466
 21
238.8355462896
  0
LINE
  5
48C
100
AcDbEntity
  8
07
100
AcDbLine
 62
7
  6
CONTINUOUS
 10
60.6201638267
 20
142.8333381924
 11
60.3701345869
 21
142.5833089526
  0
LINE
  5
48D
100
AcDbEntity
  8
0
100
AcDbLine
 62
2
  6
CONTINUOUS
 10
135.0860432606
 20
114.5068815683
 11
127.9242877128
 21
114.5068815683
  0
LINE
  5
48E
100
AcDbEntity
  8
07
100
AcDbLine
 62
7
  6
CONTINUOUS
 10
140.4684807129
 20
122.553645023
 11
134.7194149804
 21
122.553645023
  0
LINE
  5
48F
100
AcDbEntity
  8
07
100
AcDbLine
 62
7
  6
CONTINUOUS
 10
132.4808407129
 20
122.553645023
 11
126.7317749804
 21
122.553645023
  0
LINE
  5
490
100
AcDbEntity
  8
025
100
AcDbLine
 62
2
  6
CONTINUOUS
 10
126.4773915409
 20
122.8080284625
 11
132.4808407129
 21
122.8080284625
  0
LINE
  5
491
100
AcDbEntity
  8
07
100
AcDbLine
 62
7
  6
CONTINUOUS
 10
137.5685095027
 20
123.571178781
 11
134.7194149804
 21
123.571178781
  0
LINE
  5
492
100
AcDbEntity
  8
07
100
AcDbLine
 62
7
  6
CONTINUOUS
 10
141.0281242798
 20
125.1992327937
 11
140.7228641524
 21
125.1992327937
  0
LINE
  5
493
100
AcDbEntity
  8
07
100
AcDbLine
 62
7
  6
CONTINUOUS
 10
134.7194149804
 20
125.1992327937
 11
126.1721314135
 21
125.1992327937
  0
LINE
  5
494
100
AcDbEntity
  8
07
100
AcDbLine
 62
7
  6
CONTINUOUS
 10
125.69920387
 20
79.9568630852
 11
125.0991336946
 21
80.5569332607
  0
LINE
  5
495
100
AcDbEntity
  8
07
100
AcDbLine
 62
7
  6
CONTINUOUS
 10
69.3052977221
 20
138.0101349503
 11
69.5596811615
 21
137.7557515108
  0
LINE
  5
496
100
AcDbEntity
  8
07
100
AcDbLine
 62
7
  6
CONTINUOUS
 10
69.1526676584
 20
139.2057371159
 11
69.0254759386
 21
139.3329288356
  0
LINE
  5
497
100
AcDbEntity
  8
05
100
AcDbLine
 62
7
  6
CONTINUOUS
 10
69.4956901424
 20
142.8333381924
 11
69.3956901424
 21
142.9333381924
  0
LINE
  5
498
100
AcDbEntity
  8
07
100
AcDbLine
 62
7
  6
CONTINUOUS
 10
69.6212164582
 20
142.8333381924
 11
69.871245698
 21
142.5833089526
  0
LINE
  5
499
100
AcDbEntity
  8
05
100
AcDbLine
 62
7
  6
CONTINUOUS
 10
67.1206901424
 20
149.3333381924
 11
68.3706901424
 21
148.0833381924
  0
LINE
  5
49A
100
AcDbEntity
  8
07
100
AcDbLine
 62
7
  6
CONTINUOUS
 10
69.3711872185
 20
147.5838937479
 11
69.1211579787
 21
147.8339229877
  0
LINE
  5
49B
100
AcDbEntity
  8
0
100
AcDbLine
 62
2
  6
CONTINUOUS
 10
85.1485229538
 20
223.689519385
 11
85.1485229538
 21
144.5833381924
  0
LINE
  5
49C
100
AcDbEntity
  8
0
100
AcDbLine
 62
2
  6
CONTINUOUS
 10
85.1485229538
 20
142.8333381924
 11
85.7318562871
 21
146.3333381924
  0
LINE
  5
49D
100
AcDbEntity
  8
0
100
AcDbLine
 62
2
  6
CONTINUOUS
 10
84.5651896205
 20
146.3333381924
 11
85.1485229538
 21
142.8333381924
  0
LINE
  5
49E
100
AcDbEntity
  8
0
100
AcDbLine
 62
2
  6
CONTINUOUS
 10
85.7318562871
 20
146.3333381924
 11
84.5651896205
 21
146.3333381924
  0
HATCH
  5
49F
100
AcDbEntity
  8
0
100
AcDbHatch
 62
2
  6
CONTINUOUS
 10
0.0
 20
0.0
 30
0.0
210
0.0
220
0.0
230
1.0
  2

 70
1
 71
1
 91
1
 92
1
 93
3
 72
1
 10
85.7318562871
 20
146.3333381924
 11
84.5651896205
 21
146.3333381924
 72
1
 10
84.5651896205
 20
146.3333381924
 11
85.1485229538
 21
142.8333381924
 72
1
 10
85.1485229538
 20
142.8333381924
 11
85.7318562871
 21
146.3333381924
 97
3
330
49C
330
49D
330
49E
 75
0
 76
1
 98
1
 10
0.0
 20
0.0
  0
LINE
  5
4A0
100
AcDbEntity
  8
07
100
AcDbLine
 62
7
  6
CONTINUOUS
 10
67.6294570214
 20
139.3329288356
 11
67.1206901424
 21
138.8241619566
  0
LINE
  5
4A1
100
AcDbEntity
  8
07
100
AcDbLine
 62
7
  6
CONTINUOUS
 10
60.8701930664
 20
131.5320165549
 11
61.1702281541
 21
131.8320516426
  0
LINE
  5
4A2
100
AcDbEntity
  8
07
100
AcDbLine
 62
7
  6
CONTINUOUS
 10
125.0991336946
 20
191.734679471
 11
125.5991921741
 21
192.2347379506
  0
LINE
  5
4A3
100
AcDbEntity
  8
07
100
AcDbLine
 62
7
  6
CONTINUOUS
 10
67.4959679202
 20
133.0821978415
 11
66.8706901424
 21
132.4569200637
  0
LINE
  5
4A4
100
AcDbEntity
  8
07
100
AcDbLine
 62
7
  6
CONTINUOUS
 10
69.3052977221
 20
133.4312330395
 11
69.5596811615
 21
133.6856164789
  0
LINE
  5
4A5
100
AcDbEntity
  8
07
100
AcDbLine
 62
7
  6
CONTINUOUS
 10
69.1526676584
 20
132.2356308738
 11
69.0254759386
 21
132.1084391541
  0
LINE
  5
4A6
100
AcDbEntity
  8
05
100
AcDbLine
 62
7
  6
CONTINUOUS
 10
68.0803010967
 20
151.377006864
 11
67.1206901424
 21
150.8229752213
  0
LINE
  5
4A7
100
AcDbEntity
  8
025
100
AcDbLine
 62
2
  6
CONTINUOUS
 10
125.6633645345
 20
125.7079996727
 11
133.6001278466
 21
125.7079996727
  0
LINE
  5
4A8
100
AcDbEntity
  8
07
100
AcDbLine
 62
7
  6
CONTINUOUS
 10
69.0711521307
 20
126.8314668473
 11
61.1702281541
 21
126.8314668473
  0
LINE
  5
4A9
100
AcDbEntity
  8
025
100
AcDbLine
 62
2
  6
CONTINUOUS
 10
65.1206901424
 20
127.131501935
 11
60.8701930664
 21
127.131501935
  0
LINE
  5
4AA
100
AcDbEntity
  8
025
100
AcDbLine
 62
2
  6
CONTINUOUS
 10
60.8701930664
 20
131.5320165549
 11
65.1206901424
 21
131.5320165549
  0
LINE
  5
4AB
100
AcDbEntity
  8
07
100
AcDbLine
 62
7
  6
CONTINUOUS
 10
65.1206901424
 20
131.8320516426
 11
60.5192573939
 21
131.8320516426
  0
LINE
  5
4AC
100
AcDbEntity
  8
07
100
AcDbLine
 62
7
  6
CONTINUOUS
 10
66.8706901424
 20
131.8320516426
 11
69.722122891
 21
131.8320516426
  0
LINE
  5
4AD
100
AcDbEntity
  8
07
100
AcDbLine
 62
7
  6
CONTINUOUS
 10
69.0254759386
 20
132.1084391541
 11
66.8706901424
 21
132.1084391541
  0
LINE
  5
4AE
100
AcDbEntity
  8
07
100
AcDbLine
 62
7
  6
CONTINUOUS
 10
69.3052977221
 20
133.4312330395
 11
69.1526676584
 21
133.4312330395
  0
LINE
  5
4AF
100
AcDbEntity
  8
025
100
AcDbLine
 62
2
  6
CONTINUOUS
 10
125.6633645345
 20
133.8482697364
 11
133.6001278466
 21
133.8482697364
  0
LINE
  5
4B0
100
AcDbEntity
  8
07
100
AcDbLine
 62
7
  6
CONTINUOUS
 10
141.0281242798
 20
134.3570366154
 11
140.7228641524
 21
134.3570366154
  0
LINE
  5
4B1
100
AcDbEntity
  8
07
100
AcDbLine
 62
7
  6
CONTINUOUS
 10
133.6001278466
 20
134.3570366154
 11
126.1721314135
 21
134.3570366154
  0
LINE
  5
4B2
100
AcDbEntity
  8
07
100
AcDbLine
 62
7
  6
CONTINUOUS
 10
66.9959679202
 20
135.8325194789
 11
65.1206901424
 21
135.8325194789
  0
LINE
  5
4B3
100
AcDbEntity
  8
07
100
AcDbLine
 62
7
  6
CONTINUOUS
 10
137.5685095027
 20
135.9850906281
 11
133.6001278466
 21
135.9850906281
  0
LINE
  5
4B4
100
AcDbEntity
  8
025
100
AcDbLine
 62
2
  6
CONTINUOUS
 10
126.4773915409
 20
136.7482409466
 11
133.6001278466
 21
136.7482409466
  0
LINE
  5
4B5
100
AcDbEntity
  8
07
100
AcDbLine
 62
7
  6
CONTINUOUS
 10
140.4684807129
 20
137.0026243861
 11
126.7317749804
 21
137.0026243861
  0
LINE
  5
4B6
100
AcDbEntity
  8
025
100
AcDbLine
 62
2
  6
CONTINUOUS
 10
129.7838590029
 20
129.5917724953
 11
66.5693092305
 21
137.4395758305
  0
LINE
  5
4B7
100
AcDbEntity
  8
05
100
AcDbLine
 62
7
  6
CONTINUOUS
 10
69.3956901424
 20
144.2333381924
 11
69.3711872185
 21
144.2474849621
  0
LINE
  5
4B8
100
AcDbEntity
  8
07
100
AcDbLine
 62
7
  6
CONTINUOUS
 10
128.8495722911
 20
92.958266594
 11
130.1001278466
 21
91.7077110385
  0
LINE
  5
4B9
100
AcDbEntity
  8
07
100
AcDbLine
 62
7
  6
CONTINUOUS
 10
142.1011219987
 20
89.3579625005
 11
141.5010518232
 21
89.9580326759
  0
LINE
  5
4BA
100
AcDbEntity
  8
07
100
AcDbLine
 62
7
  6
CONTINUOUS
 10
137.3506834022
 20
97.9589683484
 11
138.3506834022
 21
96.9589683484
  0
LINE
  5
4BB
100
AcDbEntity
  8
025
100
AcDbLine
 62
2
  6
CONTINUOUS
 10
65.4314911866
 20
184.1196562058
 11
65.1644005101
 21
184.5016136623
  0
LINE
  5
4BC
100
AcDbEntity
  8
025
100
AcDbLine
 62
2
  6
CONTINUOUS
 10
65.4314911866
 20
184.8820463386
 11
65.1644005101
 21
185.2640037951
  0
LINE
  5
4BD
100
AcDbEntity
  8
07
100
AcDbLine
 62
7
  6
CONTINUOUS
 10
69.3711872185
 20
127.131501935
 11
69.0711521307
 21
126.8314668473
  0
LINE
  5
4BE
100
AcDbEntity
  8
07
100
AcDbLine
 62
7
  6
CONTINUOUS
 10
124.5990752151
 20
182.2335683599
 11
124.0990167355
 21
181.7335098804
  0
LINE
  5
4BF
100
AcDbEntity
  8
SCHRAFFIERT
100
AcDbLine
 62
2
  6
CONTINUOUS
 10
138.1006541624
 20
191.89158114
 11
138.443810973
 21
192.2347379506
  0
LINE
  5
4C0
100
AcDbEntity
  8
SCHRAFFIERT
100
AcDbLine
 62
2
  6
CONTINUOUS
 10
138.1006541624
 20
190.3098949189
 11
140.0254971941
 21
192.2347379506
  0
LINE
  5
4C1
100
AcDbEntity
  8
SCHRAFFIERT
100
AcDbLine
 62
2
  6
CONTINUOUS
 10
138.1006541624
 20
188.7282086978
 11
141.6041234671
 21
192.2316780026
  0
LINE
  5
4C2
100
AcDbEntity
  8
SCHRAFFIERT
100
AcDbLine
 62
2
  6
CONTINUOUS
 10
138.1006541624
 20
187.1465224768
 11
142.1011219987
 21
191.146990313
  0
LINE
  5
4C3
100
AcDbEntity
  8
SCHRAFFIERT
100
AcDbLine
 62
2
  6
CONTINUOUS
 10
138.1006541624
 20
185.5648362557
 11
142.1011219987
 21
189.5653040919
  0
LINE
  5
4C4
100
AcDbEntity
  8
SCHRAFFIERT
100
AcDbLine
 62
2
  6
CONTINUOUS
 10
138.1006541624
 20
183.9831500346
 11
142.1011219987
 21
187.9836178709
  0
LINE
  5
4C5
100
AcDbEntity
  8
SCHRAFFIERT
100
AcDbLine
 62
2
  6
CONTINUOUS
 10
138.1006541624
 20
182.4014638135
 11
142.1011219987
 21
186.4019316498
  0
LINE
  5
4C6
100
AcDbEntity
  8
SCHRAFFIERT
100
AcDbLine
 62
2
  6
CONTINUOUS
 10
138.1006541624
 20
180.8197775925
 11
141.4010401273
 21
184.1201635574
  0
LINE
  5
4C7
100
AcDbEntity
  8
SCHRAFFIERT
100
AcDbLine
 62
2
  6
CONTINUOUS
 10
141.514678848
 20
184.2338022781
 11
142.1011219987
 21
184.8202454287
  0
LINE
  5
4C8
100
AcDbEntity
  8
025
100
AcDbLine
 62
2
  6
CONTINUOUS
 10
61.543295518
 20
141.0141800036
 11
129.1557699375
 21
165.8637612093
  0
LINE
  5
4C9
100
AcDbEntity
  8
0
100
AcDbLine
 62
2
  6
CONTINUOUS
 10
138.0368911587
 20
144.7009523116
 11
141.5368911587
 21
145.2842856449
  0
LINE
  5
4CA
100
AcDbEntity
  8
0
100
AcDbLine
 62
2
  6
CONTINUOUS
 10
141.5368911587
 20
145.2842856449
 11
138.0368911587
 21
145.8676189782
  0
LINE
  5
4CB
100
AcDbEntity
  8
0
100
AcDbLine
 62
2
  6
CONTINUOUS
 10
138.0368911587
 20
145.8676189782
 11
138.0368911587
 21
144.7009523116
  0
HATCH
  5
4CC
100
AcDbEntity
  8
0
100
AcDbHatch
 62
2
  6
CONTINUOUS
 10
0.0
 20
0.0
 30
0.0
210
0.0
220
0.0
230
1.0
  2

 70
1
 71
1
 91
1
 92
1
 93
3
 72
1
 10
141.5368911587
 20
145.2842856449
 11
138.0368911587
 21
145.8676189782
 72
1
 10
138.0368911587
 20
145.8676189782
 11
138.0368911587
 21
144.7009523116
 72
1
 10
138.0368911587
 20
144.7009523116
 11
141.5368911587
 21
145.2842856449
 97
3
330
4C9
330
4CA
330
4CB
 75
0
 76
1
 98
1
 10
0.0
 20
0.0
  0
LINE
  5
4CD
100
AcDbEntity
  8
0
100
AcDbLine
 62
2
  6
CONTINUOUS
 10
125.6633645345
 20
145.2842856449
 11
129.1633645345
 21
145.8676189782
  0
LINE
  5
4CE
100
AcDbEntity
  8
0
100
AcDbLine
 62
2
  6
CONTINUOUS
 10
129.1633645345
 20
144.7009523116
 11
125.6633645345
 21
145.2842856449
  0
LINE
  5
4CF
100
AcDbEntity
  8
0
100
AcDbLine
 62
2
  6
CONTINUOUS
 10
129.1633645345
 20
145.8676189782
 11
129.1633645345
 21
144.7009523116
  0
HATCH
  5
4D0
100
AcDbEntity
  8
0
100
AcDbHatch
 62
2
  6
CONTINUOUS
 10
0.0
 20
0.0
 30
0.0
210
0.0
220
0.0
230
1.0
  2

 70
1
 71
1
 91
1
 92
1
 93
3
 72
1
 10
129.1633645345
 20
145.8676189782
 11
129.1633645345
 21
144.7009523116
 72
1
 10
129.1633645345
 20
144.7009523116
 11
125.6633645345
 21
145.2842856449
 72
1
 10
125.6633645345
 20
145.2842856449
 11
129.1633645345
 21
145.8676189782
 97
3
330
4CD
330
4CE
330
4CF
 75
0
 76
1
 98
1
 10
0.0
 20
0.0
  0
LINE
  5
4D1
100
AcDbEntity
  8
07
100
AcDbLine
 62
7
  6
CONTINUOUS
 10
69.3052977221
 20
138.0101349503
 11
69.1526676584
 21
138.0101349503
  0
LINE
  5
4D2
100
AcDbEntity
  8
07
100
AcDbLine
 62
7
  6
CONTINUOUS
 10
67.1206901424
 20
138.8241619566
 11
65.1206901424
 21
138.8241619566
  0
LINE
  5
4D3
100
AcDbEntity
  8
05
100
AcDbLine
 62
7
  6
CONTINUOUS
 10
65.1206901424
 20
138.8333381924
 11
64.5253906808
 21
138.8333381924
  0
LINE
  5
4D4
100
AcDbEntity
  8
07
100
AcDbLine
 62
7
  6
CONTINUOUS
 10
69.0254759386
 20
139.3329288356
 11
65.1206901424
 21
139.3329288356
  0
LINE
  5
4D5
100
AcDbEntity
  8
05
100
AcDbLine
 62
7
  6
CONTINUOUS
 10
69.0254759386
 20
139.3329288356
 11
69.5596811615
 21
139.3329288356
  0
LINE
  5
4D6
100
AcDbEntity
  8
05
100
AcDbLine
 62
7
  6
CONTINUOUS
 10
65.1206901424
 20
141.3333381924
 11
64.5253906808
 21
141.3333381924
  0
LINE
  5
4D7
100
AcDbEntity
  8
025
100
AcDbLine
 62
2
  6
CONTINUOUS
 10
60.5394118383
 20
142.5833089526
 11
60.8217510196
 21
142.5833089526
  0
LINE
  5
4D8
100
AcDbEntity
  8
025
100
AcDbLine
 62
2
  6
CONTINUOUS
 10
61.1518094992
 20
142.5833089526
 11
63.3706901424
 21
142.5833089526
  0
LINE
  5
4D9
100
AcDbEntity
  8
07
100
AcDbLine
 62
7
  6
CONTINUOUS
 10
69.6212164582
 20
142.8333381924
 11
69.1211579787
 21
142.8333381924
  0
LINE
  5
4DA
100
AcDbEntity
  8
05
100
AcDbLine
 62
7
  6
CONTINUOUS
 10
65.1206901424
 20
142.8333381924
 11
60.3706901424
 21
142.8333381924
  0
LINE
  5
4DB
100
AcDbEntity
  8
07
100
AcDbLine
 62
7
  6
CONTINUOUS
 10
63.9869564096
 20
142.8333381924
 11
60.6201638267
 21
142.8333381924
  0
LINE
  5
4DC
100
AcDbEntity
  8
0
100
AcDbLine
 62
2
  6
CONTINUOUS
 10
59.386255347
 20
142.8333381924
 11
53.3611286827
 21
142.8333381924
  0
LINE
  5
4DD
100
AcDbEntity
  8
05
100
AcDbLine
 62
7
  6
CONTINUOUS
 10
69.3711872185
 20
142.8333381924
 11
69.8706901424
 21
142.8333381924
  0
LINE
  5
4DE
100
AcDbEntity
  8
0
100
AcDbLine
 62
2
  6
CONTINUOUS
 10
71.0704107523
 20
142.8333381924
 11
85.5485229538
 21
142.8333381924
  0
LINE
  5
4DF
100
AcDbEntity
  8
05
100
AcDbLine
 62
7
  6
CONTINUOUS
 10
69.3956901424
 20
142.9333381924
 11
69.3711872185
 21
142.9333381924
  0
LINE
  5
4E0
100
AcDbEntity
  8
05
100
AcDbLine
 62
7
  6
CONTINUOUS
 10
69.3711872185
 20
144.2333381924
 11
69.3956901424
 21
144.2333381924
  0
LINE
  5
4E1
100
AcDbEntity
  8
0
100
AcDbLine
 62
2
  6
CONTINUOUS
 10
129.1633645345
 20
145.2842856449
 11
138.0368911587
 21
145.2842856449
  0
LINE
  5
4E2
100
AcDbEntity
  8
07
100
AcDbLine
 62
7
  6
CONTINUOUS
 10
69.1211579787
 20
147.8339229877
 11
65.1206901424
 21
147.8339229877
  0
LINE
  5
4E3
100
AcDbEntity
  8
05
100
AcDbLine
 62
7
  6
CONTINUOUS
 10
65.1206901424
 20
148.0833381924
 11
69.1206901424
 21
148.0833381924
  0
LINE
  5
4E4
100
AcDbEntity
  8
05
100
AcDbLine
 62
7
  6
CONTINUOUS
 10
65.1206901424
 20
149.3333381924
 11
67.1206901424
 21
149.3333381924
  0
LINE
  5
4E5
100
AcDbEntity
  8
025
100
AcDbLine
 62
2
  6
CONTINUOUS
 10
69.8305857739
 20
151.0710997476
 11
68.7068955694
 21
151.1930868137
  0
LINE
  5
4E6
100
AcDbEntity
  8
025
100
AcDbLine
 62
2
  6
CONTINUOUS
 10
68.7068955694
 20
151.1930868137
 11
68.0803010967
 21
151.377006864
  0
LINE
  5
4E7
100
AcDbEntity
  8
025
100
AcDbLine
 62
2
  6
CONTINUOUS
 10
66.1368332129
 20
151.2773132978
 11
65.1206901424
 21
151.5931631349
  0
LINE
  5
4E8
100
AcDbEntity
  8
025
100
AcDbLine
 62
2
  6
CONTINUOUS
 10
63.0940030394
 20
185.2019960643
 11
62.5598216864
 21
185.6474860319
  0
LINE
  5
4E9
100
AcDbEntity
  8
025
100
AcDbLine
 62
2
  6
CONTINUOUS
 10
66.9677073042
 20
183.8650179014
 11
66.7674528293
 21
184.0561236947
  0
LINE
  5
4EA
100
AcDbEntity
  8
025
100
AcDbLine
 62
2
  6
CONTINUOUS
 10
66.9677073042
 20
184.6274080342
 11
66.7674528293
 21
184.8185138275
  0
LINE
  5
4EB
100
AcDbEntity
  8
07
100
AcDbLine
 62
7
  6
CONTINUOUS
 10
126.7317749804
 20
122.553645023
 11
126.4773915409
 21
122.8080284625
  0
LINE
  5
4EC
100
AcDbEntity
  8
07
100
AcDbLine
 62
7
  6
CONTINUOUS
 10
126.1721314135
 20
125.1992327937
 11
125.6633645345
 21
125.7079996727
  0
LINE
  5
4ED
100
AcDbEntity
  8
025
100
AcDbLine
 62
2
  6
CONTINUOUS
 10
63.4947661192
 20
184.7562519667
 11
63.0940030394
 21
185.2019960643
  0
LINE
  5
4EE
100
AcDbEntity
  8
025
100
AcDbLine
 62
2
  6
CONTINUOUS
 10
63.4947661192
 20
185.5186420995
 11
63.0940030394
 21
185.9643861971
  0
LINE
  5
4EF
100
AcDbEntity
  8
SCHRAFFIERT
100
AcDbLine
 62
2
  6
CONTINUOUS
 10
138.1006541624
 20
179.2380913714
 11
141.4010401273
 21
182.5384773363
  0
LINE
  5
4F0
100
AcDbEntity
  8
SCHRAFFIERT
100
AcDbLine
 62
2
  6
CONTINUOUS
 10
138.1006541624
 20
177.6564051503
 11
142.6394989251
 21
182.195249913
  0
LINE
  5
4F1
100
AcDbEntity
  8
SCHRAFFIERT
100
AcDbLine
 62
2
  6
CONTINUOUS
 10
138.1006541624
 20
176.0747189292
 11
143.1012389577
 21
181.0753037246
  0
LINE
  5
4F2
100
AcDbEntity
  8
SCHRAFFIERT
100
AcDbLine
 62
2
  6
CONTINUOUS
 10
138.8403711007
 20
175.2327496465
 11
143.1012389577
 21
179.4936175035
  0
LINE
  5
4F3
100
AcDbEntity
  8
SCHRAFFIERT
100
AcDbLine
 62
2
  6
CONTINUOUS
 10
140.4220573218
 20
175.2327496465
 11
143.1012389577
 21
177.9119312824
  0
LINE
  5
4F4
100
AcDbEntity
  8
SCHRAFFIERT
100
AcDbLine
 62
2
  6
CONTINUOUS
 10
141.0509991917
 20
174.2800052953
 11
143.1012389577
 21
176.3302450613
  0
LINE
  5
4F5
100
AcDbEntity
  8
SCHRAFFIERT
100
AcDbLine
 62
2
  6
CONTINUOUS
 10
141.0509991917
 20
172.6983190742
 11
143.1012389577
 21
174.7485588403
  0
LINE
  5
4F6
100
AcDbEntity
  8
SCHRAFFIERT
100
AcDbLine
 62
2
  6
CONTINUOUS
 10
141.0509991917
 20
171.1166328531
 11
143.1012389577
 21
173.1668726192
  0
LINE
  5
4F7
100
AcDbEntity
  8
SCHRAFFIERT
100
AcDbLine
 62
2
  6
CONTINUOUS
 10
141.0509991917
 20
169.534946632
 11
143.1012389577
 21
171.5851863981
  0
LINE
  5
4F8
100
AcDbEntity
  8
SCHRAFFIERT
100
AcDbLine
 62
2
  6
CONTINUOUS
 10
141.0509991917
 20
167.953260411
 11
143.1012389577
 21
170.003500177
  0
LINE
  5
4F9
100
AcDbEntity
  8
SCHRAFFIERT
100
AcDbLine
 62
2
  6
CONTINUOUS
 10
141.0509991917
 20
166.3715741899
 11
143.1012389577
 21
168.421813956
  0
LINE
  5
4FA
100
AcDbEntity
  8
025
100
AcDbLine
 62
2
  6
CONTINUOUS
 10
68.0803010967
 20
151.377006864
 11
66.1368332129
 21
151.2773132978
  0
LINE
  5
4FB
100
AcDbEntity
  8
05
100
AcDbLine
 62
7
  6
CONTINUOUS
 10
67.1206901424
 20
150.8229752213
 11
65.1206901424
 21
150.8229752213
  0
LINE
  5
4FC
100
AcDbEntity
  8
07
100
AcDbLine
 62
7
  6
CONTINUOUS
 10
124.3972623496
 20
160.2309952605
 11
142.8029933437
 21
160.2309952605
  0
LINE
  5
4FD
100
AcDbEntity
  8
0
100
AcDbLine
 62
2
  6
CONTINUOUS
 10
59.6153563907
 20
160.3333381924
 11
53.3611286827
 21
160.3333381924
  0
LINE
  5
4FE
100
AcDbEntity
  8
05
100
AcDbLine
 62
7
  6
CONTINUOUS
 10
61.3706901424
 20
160.3333381924
 11
68.8706901424
 21
160.3333381924
  0
LINE
  5
4FF
100
AcDbEntity
  8
025
100
AcDbLine
 62
2
  6
CONTINUOUS
 10
67.368470384
 20
183.610379597
 11
66.9677073042
 21
183.8650179014
  0
LINE
  5
500
100
AcDbEntity
  8
025
100
AcDbLine
 62
2
  6
CONTINUOUS
 10
67.368470384
 20
184.3727697299
 11
66.9677073042
 21
184.6274080342
  0
LINE
  5
501
100
AcDbEntity
  8
025
100
AcDbLine
 62
2
  6
CONTINUOUS
 10
65.1644005101
 20
184.5016136623
 11
64.8973098335
 21
184.6927194556
  0
LINE
  5
502
100
AcDbEntity
  8
025
100
AcDbLine
 62
2
  6
CONTINUOUS
 10
65.1644005101
 20
185.2640037951
 11
64.8973098335
 21
185.4551095884
  0
LINE
  5
503
100
AcDbEntity
  8
025
100
AcDbLine
 62
2
  6
CONTINUOUS
 10
62.5598216864
 20
186.4098761647
 11
62.1668313518
 21
186.6956665821
  0
LINE
  5
504
100
AcDbEntity
  8
025
100
AcDbLine
 62
2
  6
CONTINUOUS
 10
63.0940030394
 20
185.9643861971
 11
62.5598216864
 21
186.4098761647
  0
LINE
  5
505
100
AcDbEntity
  8
07
100
AcDbLine
 62
7
  6
CONTINUOUS
 10
138.5860432606
 20
122.553645023
 11
137.5685095027
 21
123.571178781
  0
LINE
  5
506
100
AcDbEntity
  8
05
100
AcDbLine
 62
7
  6
CONTINUOUS
 10
121.0001278466
 20
239.4355462896
 11
121.0001278466
 21
246.2355462896
  0
LINE
  5
507
100
AcDbEntity
  8
SCHRAFFIERT
100
AcDbLine
 62
2
  6
CONTINUOUS
 10
121.2501278466
 20
246.4855462896
 11
121.2501278466
 21
239.1855462896
  0
LINE
  5
508
100
AcDbEntity
  8
05
100
AcDbLine
 62
7
  6
CONTINUOUS
 10
121.6001278466
 20
235.6355462896
 11
121.6001278466
 21
238.8355462896
  0
LINE
  5
509
100
AcDbEntity
  8
05
100
AcDbLine
 62
7
  6
CONTINUOUS
 10
121.6001278466
 20
246.8355462896
 11
121.6001278466
 21
249.0355462896
  0
LINE
  5
50A
100
AcDbEntity
  8
SCHRAFFIERT
100
AcDbLine
 62
2
  6
CONTINUOUS
 10
121.7501278466
 20
246.8355462896
 11
121.7501278466
 21
238.8355462896
  0
LINE
  5
50B
100
AcDbEntity
  8
SCHRAFFIERT
100
AcDbLine
 62
2
  6
CONTINUOUS
 10
122.4501278466
 20
246.8355462896
 11
122.4501278466
 21
238.8355462896
  0
LINE
  5
50C
100
AcDbEntity
  8
SCHRAFFIERT
100
AcDbLine
 62
2
  6
CONTINUOUS
 10
123.4501278466
 20
246.8355462896
 11
123.4501278466
 21
238.8355462896
  0
LINE
  5
50D
100
AcDbEntity
  8
07
100
AcDbLine
 62
7
  6
CONTINUOUS
 10
124.0990167355
 20
181.7335098804
 11
124.0990167355
 21
160.5292408745
  0
LINE
  5
50E
100
AcDbEntity
  8
05
100
AcDbLine
 62
7
  6
CONTINUOUS
 10
124.1001279416
 20
230.460381704
 11
124.1001279416
 21
234.79710085
  0
LINE
  5
50F
100
AcDbEntity
  8
035
100
AcDbLine
 62
7
  6
CONTINUOUS
 10
124.6354264963
 20
251.9597135404
 11
124.6354264963
 21
251.5597135404
  0
LINE
  5
510
100
AcDbEntity
  8
SCHRAFFIERT
100
AcDbLine
 62
2
  6
CONTINUOUS
 10
124.6501278466
 20
246.8355462896
 11
124.6501278466
 21
238.8355462896
  0
LINE
  5
511
100
AcDbEntity
  8
07
100
AcDbLine
 62
7
  6
CONTINUOUS
 10
125.0991336946
 20
191.734679471
 11
125.0991336946
 21
184.2338022781
  0
LINE
  5
512
100
AcDbEntity
  8
0
100
AcDbLine
 62
2
  6
CONTINUOUS
 10
125.0991336946
 20
79.7569332607
 11
125.0991336946
 21
70.0512373923
  0
LINE
  5
513
100
AcDbEntity
  8
07
100
AcDbLine
 62
7
  6
CONTINUOUS
 10
125.0991336946
 20
80.5569332607
 11
125.0991336946
 21
89.3579625005
  0
LINE
  5
514
100
AcDbEntity
  8
0
100
AcDbLine
 62
2
  6
CONTINUOUS
 10
125.0991336946
 20
192.534679471
 11
125.0991336946
 21
200.5792271634
  0
LINE
  5
515
100
AcDbEntity
  8
0
100
AcDbLine
 62
2
  6
CONTINUOUS
 10
125.1001279316
 20
219.660381734
 11
125.1001279316
 21
210.0175040679
  0
LINE
  5
516
100
AcDbEntity
  8
05
100
AcDbLine
 62
7
  6
CONTINUOUS
 10
125.1001279316
 20
220.460381734
 11
125.1001279316
 21
229.960381709
  0
LINE
  5
517
100
AcDbEntity
  8
010
100
AcDbLine
 62
2
  6
CONTINUOUS
 10
125.6451975542
 20
192.2347379506
 11
125.6451975542
 21
184.2338022781
  0
LINE
  5
518
100
AcDbEntity
  8
010
100
AcDbLine
 62
2
  6
CONTINUOUS
 10
125.6491980221
 20
80.0068689332
 11
125.6491980221
 21
89.9080268279
  0
LINE
  5
519
100
AcDbEntity
  8
07
100
AcDbLine
 62
7
  6
CONTINUOUS
 10
125.6633645345
 20
133.8482697364
 11
125.6633645345
 21
125.7079996727
  0
LINE
  5
51A
100
AcDbEntity
  8
0
100
AcDbLine
 62
2
  6
CONTINUOUS
 10
125.6633645345
 20
134.6482697364
 11
125.6633645345
 21
146.0842856449
  0
LINE
  5
51B
100
AcDbEntity
  8
05
100
AcDbLine
 62
7
  6
CONTINUOUS
 10
125.7251278466
 20
250.8865889701
 11
125.7251278466
 21
261.960381709
  0
LINE
  5
51C
100
AcDbEntity
  8
07
100
AcDbLine
 62
7
  6
CONTINUOUS
 10
125.7992155659
 20
184.2338022781
 11
125.7992155659
 21
182.2335683599
  0
LINE
  5
51D
100
AcDbEntity
  8
010
100
AcDbLine
 62
2
  6
CONTINUOUS
 10
125.9661533354
 20
219.960381734
 11
125.9661533354
 21
227.460381734
  0
LINE
  5
51E
100
AcDbEntity
  8
SCHRAFFIERT
100
AcDbLine
 62
2
  6
CONTINUOUS
 10
126.2501278466
 20
246.8355462896
 11
126.2501278466
 21
238.8355462896
  0
LINE
  5
51F
100
AcDbEntity
  8
010
100
AcDbLine
 62
2
  6
CONTINUOUS
 10
126.3120423052
 20
134.3570366154
 11
126.3120423052
 21
125.1992327937
  0
LINE
  5
520
100
AcDbEntity
  8
07
100
AcDbLine
 62
7
  6
CONTINUOUS
 10
126.4773915409
 20
136.7482409466
 11
126.4773915409
 21
134.3570366154
  0
LINE
  5
521
100
AcDbEntity
  8
07
100
AcDbLine
 62
7
  6
CONTINUOUS
 10
126.4773915409
 20
125.1992327937
 11
126.4773915409
 21
122.8080284625
  0
LINE
  5
522
100
AcDbEntity
  8
035
100
AcDbLine
 62
7
  6
CONTINUOUS
 10
127.7758659907
 20
250.8865889701
 11
127.7758659907
 21
262.8236905486
  0
LINE
  5
523
100
AcDbEntity
  8
SCHRAFFIERT
100
AcDbLine
 62
2
  6
CONTINUOUS
 10
128.1501278466
 20
246.8355462896
 11
128.1501278466
 21
238.8355462896
  0
LINE
  5
524
100
AcDbEntity
  8
0
100
AcDbLine
 62
2
  6
CONTINUOUS
 10
128.5991336946
 20
200.7202249331
 11
128.5991336946
 21
199.5535582664
  0
LINE
  5
525
100
AcDbEntity
  8
0
100
AcDbLine
 62
2
  6
CONTINUOUS
 10
125.0991336946
 20
200.1368915998
 11
128.5991336946
 21
200.7202249331
  0
LINE
  5
526
100
AcDbEntity
  8
0
100
AcDbLine
 62
2
  6
CONTINUOUS
 10
128.5991336946
 20
199.5535582664
 11
125.0991336946
 21
200.1368915998
  0
HATCH
  5
527
100
AcDbEntity
  8
0
100
AcDbHatch
 62
2
  6
CONTINUOUS
 10
0.0
 20
0.0
 30
0.0
210
0.0
220
0.0
230
1.0
  2

 70
1
 71
1
 91
1
 92
1
 93
3
 72
1
 10
128.5991336946
 20
199.5535582664
 11
125.0991336946
 21
200.1368915998
 72
1
 10
125.0991336946
 20
200.1368915998
 11
128.5991336946
 21
200.7202249331
 72
1
 10
128.5991336946
 20
200.7202249331
 11
128.5991336946
 21
199.5535582664
 97
3
330
524
330
525
330
526
 75
0
 76
1
 98
1
 10
0.0
 20
0.0
  0
LINE
  5
528
100
AcDbEntity
  8
0
100
AcDbLine
 62
2
  6
CONTINUOUS
 10
128.6001279316
 20
211.0431736972
 11
128.6001279316
 21
209.8765070306
  0
LINE
  5
529
100
AcDbEntity
  8
0
100
AcDbLine
 62
2
  6
CONTINUOUS
 10
125.1001279316
 20
210.4598403639
 11
128.6001279316
 21
211.0431736972
  0
LINE
  5
52A
100
AcDbEntity
  8
0
100
AcDbLine
 62
2
  6
CONTINUOUS
 10
128.6001279316
 20
209.8765070306
 11
125.1001279316
 21
210.4598403639
  0
HATCH
  5
52B
100
AcDbEntity
  8
0
100
AcDbHatch
 62
2
  6
CONTINUOUS
 10
0.0
 20
0.0
 30
0.0
210
0.0
220
0.0
230
1.0
  2

 70
1
 71
1
 91
1
 92
1
 93
3
 72
1
 10
128.6001279316
 20
209.8765070306
 11
125.1001279316
 21
210.4598403639
 72
1
 10
125.1001279316
 20
210.4598403639
 11
128.6001279316
 21
211.0431736972
 72
1
 10
128.6001279316
 20
211.0431736972
 11
128.6001279316
 21
209.8765070306
 97
3
330
528
330
529
330
52A
 75
0
 76
1
 98
1
 10
0.0
 20
0.0
  0
LINE
  5
52C
100
AcDbEntity
  8
07
100
AcDbLine
 62
7
  6
CONTINUOUS
 10
128.8495722911
 20
96.9589683484
 11
128.8495722911
 21
92.958266594
  0
LINE
  5
52D
100
AcDbEntity
  8
0
100
AcDbLine
 62
2
  6
CONTINUOUS
 10
128.8495722911
 20
98.2589098689
 11
128.8495722911
 21
104.6372228785
  0
LINE
  5
52E
100
AcDbEntity
  8
010
100
AcDbLine
 62
2
  6
CONTINUOUS
 10
129.5995722911
 20
97.7089683484
 11
129.5995722911
 21
92.208266594
  0
LINE
  5
52F
100
AcDbEntity
  8
05
100
AcDbLine
 62
7
  6
CONTINUOUS
 10
130.1001278466
 20
192.2347379506
 11
130.1001278466
 21
178.2335683599
  0
LINE
  5
530
100
AcDbEntity
  8
05
100
AcDbLine
 62
7
  6
CONTINUOUS
 10
130.1001278466
 20
89.9580326759
 11
130.1001278466
 21
91.7077110385
  0
LINE
  5
531
100
AcDbEntity
  8
SCHRAFFIERT
100
AcDbLine
 62
2
  6
CONTINUOUS
 10
130.2501278466
 20
246.8355462896
 11
130.2501278466
 21
238.8355462896
  0
LINE
  5
532
100
AcDbEntity
  8
035
100
AcDbLine
 62
7
  6
CONTINUOUS
 10
126.8601158461
 20
250.8865889701
 11
126.8698270407
 21
262.1309110711
  0
LINE
  5
533
100
AcDbEntity
  8
SCHRAFFIERT
100
AcDbLine
 62
2
  6
CONTINUOUS
 10
141.0509991917
 20
164.7898879688
 11
143.1012389577
 21
166.8401277349
  0
LINE
  5
534
100
AcDbEntity
  8
SCHRAFFIERT
100
AcDbLine
 62
2
  6
CONTINUOUS
 10
141.0509991917
 20
163.2082017477
 11
143.1012389577
 21
165.2584415138
  0
LINE
  5
535
100
AcDbEntity
  8
SCHRAFFIERT
100
AcDbLine
 62
2
  6
CONTINUOUS
 10
141.0509991917
 20
161.6265155267
 11
143.1012389577
 21
163.6767552927
  0
LINE
  5
536
100
AcDbEntity
  8
SCHRAFFIERT
100
AcDbLine
 62
2
  6
CONTINUOUS
 10
141.2371651466
 20
160.2309952605
 11
143.1012389577
 21
162.0950690717
  0
LINE
  5
537
100
AcDbEntity
  8
SCHRAFFIERT
100
AcDbLine
 62
2
  6
CONTINUOUS
 10
142.8188513677
 20
160.2309952605
 11
143.1012389577
 21
160.5133828506
  0
LINE
  5
538
100
AcDbEntity
  8
07
100
AcDbLine
 62
7
  6
CONTINUOUS
 10
126.7317749804
 20
137.0026243861
 11
126.4773915409
 21
136.7482409466
  0
LINE
  5
539
100
AcDbEntity
  8
07
100
AcDbLine
 62
7
  6
CONTINUOUS
 10
125.6633645345
 20
133.8482697364
 11
126.1721314135
 21
134.3570366154
  0
LINE
  5
53A
100
AcDbEntity
  8
025
100
AcDbLine
 62
2
  6
CONTINUOUS
 10
68.1194246648
 20
160.417201107
 11
67.8215430024
 21
160.3333381924
  0
LINE
  5
53B
100
AcDbEntity
  8
025
100
AcDbLine
 62
2
  6
CONTINUOUS
 10
68.1194246648
 20
160.8746351866
 11
66.1967339347
 21
160.3333381924
  0
LINE
  5
53C
100
AcDbEntity
  8
025
100
AcDbLine
 62
2
  6
CONTINUOUS
 10
68.1194246648
 20
161.8149163504
 11
62.8568486289
 21
160.3333381924
  0
LINE
  5
53D
100
AcDbEntity
  8
025
100
AcDbLine
 62
2
  6
CONTINUOUS
 10
68.1194246648
 20
162.2723504301
 11
62.1219556201
 21
160.5838771273
  0
LINE
  5
53E
100
AcDbEntity
  8
025
100
AcDbLine
 62
2
  6
CONTINUOUS
 10
68.1194246648
 20
163.2126315939
 11
62.1219556201
 21
161.5241582911
  0
LINE
  5
53F
100
AcDbEntity
  8
025
100
AcDbLine
 62
2
  6
CONTINUOUS
 10
68.1194246648
 20
163.6700656736
 11
62.1219556201
 21
161.9815923708
  0
LINE
  5
540
100
AcDbEntity
  8
025
100
AcDbLine
 62
2
  6
CONTINUOUS
 10
68.1194246648
 20
164.6103468374
 11
62.1219556201
 21
162.9218735346
  0
LINE
  5
541
100
AcDbEntity
  8
025
100
AcDbLine
 62
2
  6
CONTINUOUS
 10
68.1194246648
 20
165.0677809171
 11
62.1219556201
 21
163.3793076143
  0
LINE
  5
542
100
AcDbEntity
  8
0
100
AcDbLine
 62
2
  6
CONTINUOUS
 10
73.8628126991
 20
174.00755097
 11
29.1467831438
 21
174.00755097
  0
LINE
  5
543
100
AcDbEntity
  8
05
100
AcDbLine
 62
7
  6
CONTINUOUS
 10
133.6001278466
 20
174.2335683599
 11
132.4095289234
 21
174.2335683599
  0
LINE
  5
544
100
AcDbEntity
  8
025
100
AcDbLine
 62
2
  6
CONTINUOUS
 10
68.1194246648
 20
183.4192738038
 11
67.368470384
 21
183.610379597
  0
LINE
  5
545
100
AcDbEntity
  8
025
100
AcDbLine
 62
2
  6
CONTINUOUS
 10
64.8973098335
 20
184.6927194556
 11
64.5633829554
 21
184.8200386078
  0
LINE
  5
546
100
AcDbEntity
  8
025
100
AcDbLine
 62
2
  6
CONTINUOUS
 10
64.8973098335
 20
185.4551095884
 11
64.5633829554
 21
185.5824287406
  0
LINE
  5
547
100
AcDbEntity
  8
025
100
AcDbLine
 62
2
  6
CONTINUOUS
 10
62.5598216864
 20
185.6474860319
 11
62.1219556201
 21
185.8388459552
  0
LINE
  5
548
100
AcDbEntity
  8
07
100
AcDbLine
 62
7
  6
CONTINUOUS
 10
141.0281242798
 20
134.3570366154
 11
141.5368911587
 21
133.8482697364
  0
LINE
  5
549
100
AcDbEntity
  8
07
100
AcDbLine
 62
7
  6
CONTINUOUS
 10
140.7228641524
 20
136.7482409466
 11
140.4684807129
 21
137.0026243861
  0
LINE
  5
54A
100
AcDbEntity
  8
05
100
AcDbLine
 62
7
  6
CONTINUOUS
 10
63.1206901424
 20
218.939519385
 11
61.8706901424
 21
220.189519385
  0
LINE
  5
54B
100
AcDbEntity
  8
05
100
AcDbLine
 62
7
  6
CONTINUOUS
 10
61.1156901424
 20
221.9175727413
 11
60.8456901424
 21
222.1875727413
  0
LINE
  5
54C
100
AcDbEntity
  8
05
100
AcDbLine
 62
7
  6
CONTINUOUS
 10
60.7456901424
 20
225.439519385
 11
60.8456901424
 21
225.339519385
  0
LINE
  5
54D
100
AcDbEntity
  8
05
100
AcDbLine
 62
7
  6
CONTINUOUS
 10
59.1206901424
 20
229.8771016753
 11
58.8206901424
 21
230.1771016753
  0
LINE
  5
54E
100
AcDbEntity
  8
05
100
AcDbLine
 62
7
  6
CONTINUOUS
 10
124.1110496213
 20
234.8355462896
 11
124.3188495983
 21
232.460381684
  0
LINE
  5
54F
100
AcDbEntity
  8
05
100
AcDbLine
 62
7
  6
CONTINUOUS
 10
131.4815750273
 20
232.460381684
 11
131.4815750273
 21
234.79710085
  0
LINE
  5
550
100
AcDbEntity
  8
05
100
AcDbLine
 62
7
  6
CONTINUOUS
 10
132.4095289234
 20
174.2335683599
 11
132.4095289234
 21
179.2335683599
  0
LINE
  5
551
100
AcDbEntity
  8
07
100
AcDbLine
 62
7
  6
CONTINUOUS
 10
132.4808407129
 20
125.1992327937
 11
132.4808407129
 21
122.553645023
  0
LINE
  5
552
100
AcDbEntity
  8
SCHRAFFIERT
100
AcDbLine
 62
2
  6
CONTINUOUS
 10
132.6501278466
 20
246.8355462896
 11
132.6501278466
 21
238.8355462896
  0
LINE
  5
553
100
AcDbEntity
  8
MITTE
100
AcDbLine
 62
2
  6
CENTER
 10
133.6001278466
 20
263.6821687803
 11
133.6001278466
 21
218.0340085628
  0
LINE
  5
554
100
AcDbEntity
  8
MITTE
100
AcDbLine
 62
2
  6
CENTER
 10
133.6001278466
 20
192.9168177167
 11
133.6001278466
 21
159.4038985354
  0
LINE
  5
555
100
AcDbEntity
  8
MITTE
100
AcDbLine
 62
2
  6
CENTER
 10
133.6001278466
 20
137.6752142001
 11
133.6001278466
 21
121.9940014561
  0
LINE
  5
556
100
AcDbEntity
  8
MITTE
100
AcDbLine
 62
2
  6
CENTER
 10
133.6001278466
 20
78.6824088747
 11
133.6001278466
 21
99.2660718511
  0
LINE
  5
557
100
AcDbEntity
  8
SCHRAFFIERT
100
AcDbLine
 62
2
  6
CONTINUOUS
 10
134.5501278466
 20
246.8355462896
 11
134.5501278466
 21
238.8355462896
  0
LINE
  5
558
100
AcDbEntity
  8
07
100
AcDbLine
 62
7
  6
CONTINUOUS
 10
134.7194149804
 20
125.1992327937
 11
134.7194149804
 21
122.553645023
  0
LINE
  5
559
100
AcDbEntity
  8
05
100
AcDbLine
 62
7
  6
CONTINUOUS
 10
135.718680666
 20
232.460381684
 11
135.718680666
 21
234.79710085
  0
LINE
  5
55A
100
AcDbEntity
  8
SCHRAFFIERT
100
AcDbLine
 62
2
  6
CONTINUOUS
 10
136.9501278466
 20
246.8355462896
 11
136.9501278466
 21
238.8355462896
  0
LINE
  5
55B
100
AcDbEntity
  8
05
100
AcDbLine
 62
7
  6
CONTINUOUS
 10
137.1001278466
 20
89.9580326759
 11
137.1001278466
 21
91.7077110385
  0
LINE
  5
55C
100
AcDbEntity
  8
07
100
AcDbLine
 62
7
  6
CONTINUOUS
 10
137.5685095027
 20
135.9850906281
 11
137.5685095027
 21
123.571178781
  0
LINE
  5
55D
100
AcDbEntity
  8
010
100
AcDbLine
 62
2
  6
CONTINUOUS
 10
137.6006834022
 20
97.7089683484
 11
137.6006834022
 21
92.208266594
  0
LINE
  5
55E
100
AcDbEntity
  8
07
100
AcDbLine
 62
7
  6
CONTINUOUS
 10
138.1006541624
 20
192.2347379506
 11
138.1006541624
 21
175.2327496465
  0
LINE
  5
55F
100
AcDbEntity
  8
07
100
AcDbLine
 62
7
  6
CONTINUOUS
 10
138.3506834022
 20
96.9589683484
 11
138.3506834022
 21
92.958266594
  0
LINE
  5
560
100
AcDbEntity
  8
0
100
AcDbLine
 62
2
  6
CONTINUOUS
 10
138.3506834022
 20
98.2589098689
 11
138.3506834022
 21
104.6372228785
  0
LINE
  5
561
100
AcDbEntity
  8
010
100
AcDbLine
 62
2
  6
CONTINUOUS
 10
138.5860432606
 20
137.0026243861
 11
138.5860432606
 21
122.553645023
  0
LINE
  5
562
100
AcDbEntity
  8
0
100
AcDbLine
 62
2
  6
CONTINUOUS
 10
138.5860432606
 20
121.753645023
 11
138.5860432606
 21
113.7068815683
  0
LINE
  5
563
100
AcDbEntity
  8
0
100
AcDbLine
 62
2
  6
CONTINUOUS
 10
138.6001277616
 20
211.0431736972
 11
138.6001277616
 21
209.8765070306
  0
LINE
  5
564
100
AcDbEntity
  8
0
100
AcDbLine
 62
2
  6
CONTINUOUS
 10
138.6001277616
 20
209.8765070306
 11
142.1001277616
 21
210.4598403639
  0
LINE
  5
565
100
AcDbEntity
  8
0
100
AcDbLine
 62
2
  6
CONTINUOUS
 10
142.1001277616
 20
210.4598403639
 11
138.6001277616
 21
211.0431736972
  0
HATCH
  5
566
100
AcDbEntity
  8
0
100
AcDbHatch
 62
2
  6
CONTINUOUS
 10
0.0
 20
0.0
 30
0.0
210
0.0
220
0.0
230
1.0
  2

 70
1
 71
1
 91
1
 92
1
 93
3
 72
1
 10
138.6001277616
 20
209.8765070306
 11
142.1001277616
 21
210.4598403639
 72
1
 10
142.1001277616
 20
210.4598403639
 11
138.6001277616
 21
211.0431736972
 72
1
 10
138.6001277616
 20
211.0431736972
 11
138.6001277616
 21
209.8765070306
 97
3
330
563
330
564
330
565
 75
0
 76
1
 98
1
 10
0.0
 20
0.0
  0
LINE
  5
567
100
AcDbEntity
  8
0
100
AcDbLine
 62
2
  6
CONTINUOUS
 10
138.6011219987
 20
200.7202249331
 11
138.6011219987
 21
199.5535582664
  0
LINE
  5
568
100
AcDbEntity
  8
0
100
AcDbLine
 62
2
  6
CONTINUOUS
 10
138.6011219987
 20
199.5535582664
 11
142.1011219987
 21
200.1368915998
  0
LINE
  5
569
100
AcDbEntity
  8
0
100
AcDbLine
 62
2
  6
CONTINUOUS
 10
142.1011219987
 20
200.1368915998
 11
138.6011219987
 21
200.7202249331
  0
HATCH
  5
56A
100
AcDbEntity
  8
0
100
AcDbHatch
 62
2
  6
CONTINUOUS
 10
0.0
 20
0.0
 30
0.0
210
0.0
220
0.0
230
1.0
  2

 70
1
 71
1
 91
1
 92
1
 93
3
 72
1
 10
138.6011219987
 20
199.5535582664
 11
142.1011219987
 21
200.1368915998
 72
1
 10
142.1011219987
 20
200.1368915998
 11
138.6011219987
 21
200.7202249331
 72
1
 10
138.6011219987
 20
200.7202249331
 11
138.6011219987
 21
199.5535582664
 97
3
330
567
330
568
330
569
 75
0
 76
1
 98
1
 10
0.0
 20
0.0
  0
LINE
  5
56B
100
AcDbEntity
  8
SCHRAFFIERT
100
AcDbLine
 62
2
  6
CONTINUOUS
 10
139.0501278466
 20
246.8355462896
 11
139.0501278466
 21
238.8355462896
  0
LINE
  5
56C
100
AcDbEntity
  8
07
100
AcDbLine
 62
7
  6
CONTINUOUS
 10
140.7228641524
 20
136.7482409466
 11
140.7228641524
 21
134.3570366154
  0
LINE
  5
56D
100
AcDbEntity
  8
07
100
AcDbLine
 62
7
  6
CONTINUOUS
 10
140.7228641524
 20
125.1992327937
 11
140.7228641524
 21
122.8080284625
  0
LINE
  5
56E
100
AcDbEntity
  8
010
100
AcDbLine
 62
2
  6
CONTINUOUS
 10
140.888213388
 20
134.3570366154
 11
140.888213388
 21
125.1992327937
  0
LINE
  5
56F
100
AcDbEntity
  8
SCHRAFFIERT
100
AcDbLine
 62
2
  6
CONTINUOUS
 10
140.9501278466
 20
246.8355462896
 11
140.9501278466
 21
238.8355462896
  0
LINE
  5
570
100
AcDbEntity
  8
07
100
AcDbLine
 62
7
  6
CONTINUOUS
 10
141.0509991917
 20
175.2327496465
 11
141.0509991917
 21
160.2309952605
  0
LINE
  5
571
100
AcDbEntity
  8
010
100
AcDbLine
 62
2
  6
CONTINUOUS
 10
141.2341023578
 20
219.960381734
 11
141.2341023578
 21
227.460381734
  0
LINE
  5
572
100
AcDbEntity
  8
07
100
AcDbLine
 62
7
  6
CONTINUOUS
 10
141.4010401273
 20
184.2338022781
 11
141.4010401273
 21
182.2335683599
  0
LINE
  5
573
100
AcDbEntity
  8
05
100
AcDbLine
 62
7
  6
CONTINUOUS
 10
141.4751278466
 20
250.8865889701
 11
141.4751278466
 21
261.960381709
  0
LINE
  5
574
100
AcDbEntity
  8
010
100
AcDbLine
 62
2
  6
CONTINUOUS
 10
141.5010518232
 20
175.2327496465
 11
141.5010518232
 21
160.2309952605
  0
LINE
  5
575
100
AcDbEntity
  8
07
100
AcDbLine
 62
7
  6
CONTINUOUS
 10
141.5368911587
 20
133.8482697364
 11
141.5368911587
 21
125.7079996727
  0
LINE
  5
576
100
AcDbEntity
  8
0
100
AcDbLine
 62
2
  6
CONTINUOUS
 10
141.5368911587
 20
134.6482697364
 11
141.5368911587
 21
146.0842856449
  0
LINE
  5
577
100
AcDbEntity
  8
010
100
AcDbLine
 62
2
  6
CONTINUOUS
 10
141.5510576712
 20
80.0068689332
 11
141.5510576712
 21
89.9080268279
  0
LINE
  5
578
100
AcDbEntity
  8
010
100
AcDbLine
 62
2
  6
CONTINUOUS
 10
141.555058139
 20
192.2347379506
 11
141.555058139
 21
184.2338022781
  0
LINE
  5
579
100
AcDbEntity
  8
0
100
AcDbLine
 62
2
  6
CONTINUOUS
 10
142.1001277616
 20
219.660381734
 11
142.1001277616
 21
210.0175040679
  0
LINE
  5
57A
100
AcDbEntity
  8
05
100
AcDbLine
 62
7
  6
CONTINUOUS
 10
142.1001277616
 20
220.460381734
 11
142.1001277616
 21
229.960381709
  0
LINE
  5
57B
100
AcDbEntity
  8
07
100
AcDbLine
 62
7
  6
CONTINUOUS
 10
142.1011219987
 20
191.734679471
 11
142.1011219987
 21
184.2338022781
  0
LINE
  5
57C
100
AcDbEntity
  8
0
100
AcDbLine
 62
2
  6
CONTINUOUS
 10
142.1011219987
 20
79.7569332607
 11
142.1011219987
 21
70.0512373923
  0
LINE
  5
57D
100
AcDbEntity
  8
07
100
AcDbLine
 62
7
  6
CONTINUOUS
 10
142.1011219987
 20
80.5569332607
 11
142.1011219987
 21
89.3579625005
  0
LINE
  5
57E
100
AcDbEntity
  8
0
100
AcDbLine
 62
2
  6
CONTINUOUS
 10
142.1011219987
 20
192.534679471
 11
142.1011219987
 21
200.5792271634
  0
LINE
  5
57F
100
AcDbEntity
  8
SCHRAFFIERT
100
AcDbLine
 62
2
  6
CONTINUOUS
 10
142.5501278466
 20
246.8355462896
 11
142.5501278466
 21
238.8355462896
  0
LINE
  5
580
100
AcDbEntity
  8
05
100
AcDbLine
 62
7
  6
CONTINUOUS
 10
143.1001277516
 20
230.460381704
 11
143.1001277516
 21
234.79710085
  0
LINE
  5
581
100
AcDbEntity
  8
07
100
AcDbLine
 62
7
  6
CONTINUOUS
 10
143.1012389577
 20
181.7335098804
 11
143.1012389577
 21
160.5292408745
  0
LINE
  5
582
100
AcDbEntity
  8
05
100
AcDbLine
 62
7
  6
CONTINUOUS
 10
143.089206072
 20
234.8355462896
 11
142.881406095
 21
232.460381684
  0
LINE
  5
583
100
AcDbEntity
  8
07
100
AcDbLine
 62
7
  6
CONTINUOUS
 10
138.5860432606
 20
137.0026243861
 11
137.5685095027
 21
135.9850906281
  0
LINE
  5
584
100
AcDbEntity
  8
SCHRAFFIERT
100
AcDbLine
 62
2
  6
CONTINUOUS
 10
137.5685095027
 20
135.7574113098
 11
138.8137225789
 21
137.0026243861
  0
LINE
  5
585
100
AcDbEntity
  8
SCHRAFFIERT
100
AcDbLine
 62
2
  6
CONTINUOUS
 10
137.5685095027
 20
134.1481803995
 11
140.4229534892
 21
137.0026243861
  0
LINE
  5
586
100
AcDbEntity
  8
SCHRAFFIERT
100
AcDbLine
 62
2
  6
CONTINUOUS
 10
137.5685095027
 20
132.5389494892
 11
140.7228641524
 21
135.6933041389
  0
LINE
  5
587
100
AcDbEntity
  8
SCHRAFFIERT
100
AcDbLine
 62
2
  6
CONTINUOUS
 10
137.5685095027
 20
130.9297185789
 11
140.9958275391
 21
134.3570366154
  0
LINE
  5
588
100
AcDbEntity
  8
SCHRAFFIERT
100
AcDbLine
 62
2
  6
CONTINUOUS
 10
137.5685095027
 20
129.3204876686
 11
141.5368911587
 21
133.2888693247
  0
LINE
  5
589
100
AcDbEntity
  8
SCHRAFFIERT
100
AcDbLine
 62
2
  6
CONTINUOUS
 10
137.5685095027
 20
127.7112567583
 11
141.5368911587
 21
131.6796384144
  0
LINE
  5
58A
100
AcDbEntity
  8
025
100
AcDbLine
 62
2
  6
CONTINUOUS
 10
68.1194246648
 20
166.0080620809
 11
62.1219556201
 21
164.3195887781
  0
LINE
  5
58B
100
AcDbEntity
  8
025
100
AcDbLine
 62
2
  6
CONTINUOUS
 10
68.1194246648
 20
166.4654961605
 11
62.1219556201
 21
164.7770228578
  0
LINE
  5
58C
100
AcDbEntity
  8
025
100
AcDbLine
 62
2
  6
CONTINUOUS
 10
68.1194246648
 20
167.4057773243
 11
62.1219556201
 21
165.7173040215
  0
LINE
  5
58D
100
AcDbEntity
  8
025
100
AcDbLine
 62
2
  6
CONTINUOUS
 10
68.1194246648
 20
167.863211404
 11
62.1219556201
 21
166.1747381012
  0
LINE
  5
58E
100
AcDbEntity
  8
025
100
AcDbLine
 62
2
  6
CONTINUOUS
 10
68.1194246648
 20
168.8034925678
 11
62.1219556201
 21
167.115019265
  0
LINE
  5
58F
100
AcDbEntity
  8
025
100
AcDbLine
 62
2
  6
CONTINUOUS
 10
68.1194246648
 20
169.2609266475
 11
62.1219556201
 21
167.5724533447
  0
LINE
  5
590
100
AcDbEntity
  8
025
100
AcDbLine
 62
2
  6
CONTINUOUS
 10
68.1194246648
 20
170.2012078113
 11
62.1219556201
 21
168.5127345085
  0
LINE
  5
591
100
AcDbEntity
  8
025
100
AcDbLine
 62
2
  6
CONTINUOUS
 10
68.1194246648
 20
170.6586418909
 11
62.1219556201
 21
168.9701685882
  0
LINE
  5
592
100
AcDbEntity
  8
025
100
AcDbLine
 62
2
  6
CONTINUOUS
 10
68.1194246648
 20
171.5989230547
 11
62.1219556201
 21
169.910449752
  0
LINE
  5
593
100
AcDbEntity
  8
025
100
AcDbLine
 62
2
  6
CONTINUOUS
 10
68.1194246648
 20
172.0563571344
 11
62.1219556201
 21
170.3678838316
  0
LINE
  5
594
100
AcDbEntity
  8
025
100
AcDbLine
 62
2
  6
CONTINUOUS
 10
68.1194246648
 20
172.9966382982
 11
62.1219556201
 21
171.3081649954
  0
LINE
  5
595
100
AcDbEntity
  8
025
100
AcDbLine
 62
2
  6
CONTINUOUS
 10
68.1194246648
 20
173.4540723779
 11
62.1219556201
 21
171.7655990751
  0
LINE
  5
596
100
AcDbEntity
  8
025
100
AcDbLine
 62
2
  6
CONTINUOUS
 10
68.1194246648
 20
174.3943535417
 11
62.1219556201
 21
172.7058802389
  0
LINE
  5
597
100
AcDbEntity
  8
025
100
AcDbLine
 62
2
  6
CONTINUOUS
 10
68.1194246648
 20
174.8517876214
 11
62.1219556201
 21
173.1633143186
  0
LINE
  5
598
100
AcDbEntity
  8
025
100
AcDbLine
 62
2
  6
CONTINUOUS
 10
68.1194246648
 20
175.7920687852
 11
62.1219556201
 21
174.1035954824
  0
LINE
  5
599
100
AcDbEntity
  8
025
100
AcDbLine
 62
2
  6
CONTINUOUS
 10
68.1194246648
 20
176.2495028648
 11
62.1219556201
 21
174.5610295621
  0
LINE
  5
59A
100
AcDbEntity
  8
025
100
AcDbLine
 62
2
  6
CONTINUOUS
 10
68.1194246648
 20
177.1897840286
 11
62.1219556201
 21
175.5013107258
  0
LINE
  5
59B
100
AcDbEntity
  8
025
100
AcDbLine
 62
2
  6
CONTINUOUS
 10
68.1194246648
 20
177.6472181083
 11
62.1219556201
 21
175.9587448055
  0
LINE
  5
59C
100
AcDbEntity
  8
07
100
AcDbLine
 62
7
  6
CONTINUOUS
 10
141.5010518232
 20
175.2327496465
 11
133.6001278466
 21
175.2327496465
  0
LINE
  5
59D
100
AcDbEntity
  8
05
100
AcDbLine
 62
7
  6
CONTINUOUS
 10
133.6001278466
 20
179.2335683599
 11
132.4095289234
 21
179.2335683599
  0
LINE
  5
59E
100
AcDbEntity
  8
025
100
AcDbLine
 62
2
  6
CONTINUOUS
 10
124.4375712384
 20
181.7335098804
 11
125.002249601
 21
181.7335098804
  0
LINE
  5
59F
100
AcDbEntity
  8
025
100
AcDbLine
 62
2
  6
CONTINUOUS
 10
125.6623665601
 20
181.7335098804
 11
130.1001278466
 21
181.7335098804
  0
LINE
  5
5A0
100
AcDbEntity
  8
07
100
AcDbLine
 62
7
  6
CONTINUOUS
 10
142.6011804782
 20
182.2335683599
 11
141.4010401273
 21
182.2335683599
  0
LINE
  5
5A1
100
AcDbEntity
  8
07
100
AcDbLine
 62
7
  6
CONTINUOUS
 10
130.1001278466
 20
182.2335683599
 11
124.5990752151
 21
182.2335683599
  0
LINE
  5
5A2
100
AcDbEntity
  8
025
100
AcDbLine
 62
2
  6
CONTINUOUS
 10
66.2998535478
 20
184.1196562058
 11
65.4314911866
 21
184.1196562058
  0
LINE
  5
5A3
100
AcDbEntity
  8
07
100
AcDbLine
 62
7
  6
CONTINUOUS
 10
142.1011219987
 20
184.2338022781
 11
141.4010401273
 21
184.2338022781
  0
LINE
  5
5A4
100
AcDbEntity
  8
07
100
AcDbLine
 62
7
  6
CONTINUOUS
 10
130.1001278466
 20
184.2338022781
 11
125.0991336946
 21
184.2338022781
  0
LINE
  5
5A5
100
AcDbEntity
  8
025
100
AcDbLine
 62
2
  6
CONTINUOUS
 10
64.5633829554
 20
184.8200386078
 11
64.0289474723
 21
184.8200386078
  0
LINE
  5
5A6
100
AcDbEntity
  8
025
100
AcDbLine
 62
2
  6
CONTINUOUS
 10
66.2998535478
 20
184.8820463386
 11
65.4314911866
 21
184.8820463386
  0
LINE
  5
5A7
100
AcDbEntity
  8
025
100
AcDbLine
 62
2
  6
CONTINUOUS
 10
64.5633829554
 20
185.5824287406
 11
64.0289474723
 21
185.5824287406
  0
LINE
  5
5A8
100
AcDbEntity
  8
025
100
AcDbLine
 62
2
  6
CONTINUOUS
 10
66.7674528293
 20
184.0561236947
 11
66.2998535478
 21
184.1196562058
  0
LINE
  5
5A9
100
AcDbEntity
  8
025
100
AcDbLine
 62
2
  6
CONTINUOUS
 10
66.7674528293
 20
184.8185138275
 11
66.2998535478
 21
184.8820463386
  0
LINE
  5
5AA
100
AcDbEntity
  8
05
100
AcDbLine
 62
7
  6
CONTINUOUS
 10
71.1206901424
 20
233.8771016753
 11
71.4206901424
 21
233.5771016753
  0
LINE
  5
5AB
100
AcDbEntity
  8
SCHRAFFIERT
100
AcDbLine
 62
2
  6
CONTINUOUS
 10
143.7501278466
 20
246.8355462896
 11
143.7501278466
 21
238.8355462896
  0
LINE
  5
5AC
100
AcDbEntity
  8
SCHRAFFIERT
100
AcDbLine
 62
2
  6
CONTINUOUS
 10
144.7501278466
 20
246.8355462896
 11
144.7501278466
 21
238.8355462896
  0
LINE
  5
5AD
100
AcDbEntity
  8
SCHRAFFIERT
100
AcDbLine
 62
2
  6
CONTINUOUS
 10
145.4501278466
 20
246.8355462896
 11
145.4501278466
 21
238.8355462896
  0
LINE
  5
5AE
100
AcDbEntity
  8
05
100
AcDbLine
 62
7
  6
CONTINUOUS
 10
145.6001278466
 20
249.0355462896
 11
145.6001278466
 21
246.8355462896
  0
LINE
  5
5AF
100
AcDbEntity
  8
05
100
AcDbLine
 62
7
  6
CONTINUOUS
 10
145.6001278466
 20
238.8355462896
 11
145.6001278466
 21
235.6355462896
  0
LINE
  5
5B0
100
AcDbEntity
  8
SCHRAFFIERT
100
AcDbLine
 62
2
  6
CONTINUOUS
 10
145.9501278466
 20
246.4855462896
 11
145.9501278466
 21
239.1855462896
  0
LINE
  5
5B1
100
AcDbEntity
  8
05
100
AcDbLine
 62
7
  6
CONTINUOUS
 10
146.2001278466
 20
246.2355462896
 11
146.2001278466
 21
239.4355462896
  0
LINE
  5
5B2
100
AcDbEntity
  8
SCHRAFFIERT
100
AcDbLine
 62
2
  6
CONTINUOUS
 10
137.5685095027
 20
126.102025848
 11
141.5368911587
 21
130.0704075041
  0
LINE
  5
5B3
100
AcDbEntity
  8
SCHRAFFIERT
100
AcDbLine
 62
2
  6
CONTINUOUS
 10
137.5685095027
 20
124.4927949377
 11
141.5368911587
 21
128.4611765937
  0
LINE
  5
5B4
100
AcDbEntity
  8
SCHRAFFIERT
100
AcDbLine
 62
2
  6
CONTINUOUS
 10
137.9123168795
 20
123.2273714042
 11
141.5368911587
 21
126.8519456834
  0
LINE
  5
5B5
100
AcDbEntity
  8
07
100
AcDbLine
 62
7
  6
CONTINUOUS
 10
141.0281242798
 20
125.1992327937
 11
141.5368911587
 21
125.7079996727
  0
LINE
  5
5B6
100
AcDbEntity
  8
SCHRAFFIERT
100
AcDbLine
 62
2
  6
CONTINUOUS
 10
138.8478214086
 20
122.553645023
 11
140.7228641524
 21
124.4286877668
  0
LINE
  5
5B7
100
AcDbEntity
  8
SCHRAFFIERT
100
AcDbLine
 62
2
  6
CONTINUOUS
 10
140.4570523189
 20
122.553645023
 11
140.7228641524
 21
122.8194568565
  0
LINE
  5
5B8
100
AcDbEntity
  8
07
100
AcDbLine
 62
7
  6
CONTINUOUS
 10
140.7228641524
 20
122.8080284625
 11
140.4684807129
 21
122.553645023
  0
LINE
  5
5B9
100
AcDbEntity
  8
025
100
AcDbLine
 62
2
  6
CONTINUOUS
 10
68.1194246648
 20
178.5874992721
 11
62.1219556201
 21
176.8990259693
  0
LINE
  5
5BA
100
AcDbEntity
  8
025
100
AcDbLine
 62
2
  6
CONTINUOUS
 10
68.1194246648
 20
179.0449333518
 11
62.1219556201
 21
177.356460049
  0
LINE
  5
5BB
100
AcDbEntity
  8
025
100
AcDbLine
 62
2
  6
CONTINUOUS
 10
68.1194246648
 20
179.9852145156
 11
62.1219556201
 21
178.2967412128
  0
LINE
  5
5BC
100
AcDbEntity
  8
025
100
AcDbLine
 62
2
  6
CONTINUOUS
 10
68.1194246648
 20
180.4426485953
 11
62.1219556201
 21
178.7541752925
  0
LINE
  5
5BD
100
AcDbEntity
  8
025
100
AcDbLine
 62
2
  6
CONTINUOUS
 10
68.1194246648
 20
181.382929759
 11
62.1219556201
 21
179.6944564563
  0
LINE
  5
5BE
100
AcDbEntity
  8
025
100
AcDbLine
 62
2
  6
CONTINUOUS
 10
68.1194246648
 20
181.8403638387
 11
62.1219556201
 21
180.1518905359
  0
LINE
  5
5BF
100
AcDbEntity
  8
025
100
AcDbLine
 62
2
  6
CONTINUOUS
 10
68.1194246648
 20
182.7806450025
 11
62.1219556201
 21
181.0921716997
  0
LINE
  5
5C0
100
AcDbEntity
  8
025
100
AcDbLine
 62
2
  6
CONTINUOUS
 10
68.1194246648
 20
183.2380790822
 11
62.1219556201
 21
181.5496057794
  0
LINE
  5
5C1
100
AcDbEntity
  8
025
100
AcDbLine
 62
2
  6
CONTINUOUS
 10
66.9795969237
 20
183.8574634316
 11
62.1219556201
 21
182.4898869432
  0
LINE
  5
5C2
100
AcDbEntity
  8
025
100
AcDbLine
 62
2
  6
CONTINUOUS
 10
68.1194246648
 20
184.6357943257
 11
67.312186293
 21
184.4085317205
  0
LINE
  5
5C3
100
AcDbEntity
  8
025
100
AcDbLine
 62
2
  6
CONTINUOUS
 10
66.2860984334
 20
184.1196562058
 11
62.1219556201
 21
182.9473210229
  0
LINE
  5
5C4
100
AcDbEntity
  8
025
100
AcDbLine
 62
2
  6
CONTINUOUS
 10
68.1194246648
 20
185.5760754895
 11
65.6542282405
 21
184.8820463386
  0
LINE
  5
5C5
100
AcDbEntity
  8
025
100
AcDbLine
 62
2
  6
CONTINUOUS
 10
64.9211494921
 20
184.6756619644
 11
62.1219556201
 21
183.8876021867
  0
LINE
  5
5C6
100
AcDbEntity
  8
025
100
AcDbLine
 62
2
  6
CONTINUOUS
 10
68.1194246648
 20
186.0335095691
 11
65.2008723162
 21
185.2118466832
  0
LINE
  5
5C7
100
AcDbEntity
  8
025
100
AcDbLine
 62
2
  6
CONTINUOUS
 10
63.6472882484
 20
184.7744646472
 11
62.1219556201
 21
184.3450362664
  0
LINE
  5
5C8
100
AcDbEntity
  8
025
100
AcDbLine
 62
2
  6
CONTINUOUS
 10
68.1194246648
 20
186.9737907329
 11
63.3848741904
 21
185.6408681256
  0
LINE
  5
5C9
100
AcDbEntity
  8
025
100
AcDbLine
 62
2
  6
CONTINUOUS
 10
62.773982185
 20
185.4688831042
 11
62.1219556201
 21
185.2853174302
  0
LINE
  5
5CA
100
AcDbEntity
  8
025
100
AcDbLine
 62
2
  6
CONTINUOUS
 10
68.1194246648
 20
187.4312248126
 11
63.0473631167
 21
186.0032823839
  0
LINE
  5
5CB
100
AcDbEntity
  8
025
100
AcDbLine
 62
2
  6
CONTINUOUS
 10
62.2556877008
 20
185.7804012328
 11
62.1219556201
 21
185.7427515098
  0
LINE
  5
5CC
100
AcDbEntity
  8
025
100
AcDbLine
 62
2
  6
CONTINUOUS
 10
68.1194246648
 20
188.3715059764
 11
62.1668313518
 21
186.6956665821
  0
LINE
  5
5CD
100
AcDbEntity
  8
025
100
AcDbLine
 62
2
  6
CONTINUOUS
 10
68.1194246648
 20
188.8289400561
 11
62.1219556201
 21
187.1404667533
  0
LINE
  5
5CE
100
AcDbEntity
  8
025
100
AcDbLine
 62
2
  6
CONTINUOUS
 10
68.1194246648
 20
189.7692212199
 11
62.1219556201
 21
188.0807479171
  0
LINE
  5
5CF
100
AcDbEntity
  8
025
100
AcDbLine
 62
2
  6
CONTINUOUS
 10
68.1194246648
 20
190.2266552996
 11
62.1219556201
 21
188.5381819968
  0
LINE
  5
5D0
100
AcDbEntity
  8
025
100
AcDbLine
 62
2
  6
CONTINUOUS
 10
64.0289474723
 20
184.8200386078
 11
63.4947661192
 21
184.7562519667
  0
LINE
  5
5D1
100
AcDbEntity
  8
025
100
AcDbLine
 62
2
  6
CONTINUOUS
 10
64.0289474723
 20
185.5824287406
 11
63.4947661192
 21
185.5186420995
  0
LINE
  5
5D2
100
AcDbEntity
  8
025
100
AcDbLine
 62
2
  6
CONTINUOUS
 10
67.8652946205
 20
184.4144659771
 11
67.368470384
 21
184.3727697299
  0
LINE
  5
5D3
100
AcDbEntity
  8
0
100
AcDbLine
 62
2
  6
CONTINUOUS
 10
125.0991336946
 20
191.734679471
 11
133.6001278466
 21
191.734679471
  0
LINE
  5
5D4
100
AcDbEntity
  8
025
100
AcDbLine
 62
2
  6
CONTINUOUS
 10
125.0991336946
 20
191.734679471
 11
131.332660381
 21
191.734679471
  0
LINE
  5
5D5
100
AcDbEntity
  8
07
100
AcDbLine
 62
7
  6
CONTINUOUS
 10
141.6010635191
 20
192.2347379506
 11
125.5991921741
 21
192.2347379506
  0
LINE
  5
5D6
100
AcDbEntity
  8
025
100
AcDbLine
 62
2
  6
CONTINUOUS
 10
61.6519998377
 20
217.2356237933
 11
63.6779478726
 21
216.4325895795
  0
LINE
  5
5D7
100
AcDbEntity
  8
05
100
AcDbLine
 62
7
  6
CONTINUOUS
 10
68.0803010967
 20
216.8958507133
 11
67.1206901424
 21
217.4498823561
  0
LINE
  5
5D8
100
AcDbEntity
  8
05
100
AcDbLine
 62
7
  6
CONTINUOUS
 10
69.3206901424
 20
221.8049894389
 11
69.1256901424
 21
221.9175727413
  0
LINE
  5
5D9
100
AcDbEntity
  8
07
100
AcDbLine
 62
7
  6
CONTINUOUS
 10
142.6011804782
 20
182.2335683599
 11
143.1012389577
 21
181.7335098804
  0
LINE
  5
5DA
100
AcDbEntity
  8
07
100
AcDbLine
 62
7
  6
CONTINUOUS
 10
129.8495722911
 20
97.9589683484
 11
128.8495722911
 21
96.9589683484
  0
LINE
  5
5DB
100
AcDbEntity
  8
07
100
AcDbLine
 62
7
  6
CONTINUOUS
 10
125.0991336946
 20
89.3579625005
 11
125.69920387
 21
89.9580326759
  0
LINE
  5
5DC
100
AcDbEntity
  8
07
100
AcDbLine
 62
7
  6
CONTINUOUS
 10
138.3506834022
 20
92.958266594
 11
137.1001278466
 21
91.7077110385
  0
LINE
  5
5DD
100
AcDbEntity
  8
025
100
AcDbLine
 62
2
  6
CONTINUOUS
 10
68.1194246648
 20
191.1669364633
 11
62.1219556201
 21
189.4784631606
  0
LINE
  5
5DE
100
AcDbEntity
  8
025
100
AcDbLine
 62
2
  6
CONTINUOUS
 10
68.1194246648
 20
191.624370543
 11
62.1219556201
 21
189.9358972402
  0
LINE
  5
5DF
100
AcDbEntity
  8
025
100
AcDbLine
 62
2
  6
CONTINUOUS
 10
68.1194246648
 20
192.5646517068
 11
62.1219556201
 21
190.876178404
  0
LINE
  5
5E0
100
AcDbEntity
  8
025
100
AcDbLine
 62
2
  6
CONTINUOUS
 10
68.1194246648
 20
193.0220857865
 11
62.1219556201
 21
191.3336124837
  0
LINE
  5
5E1
100
AcDbEntity
  8
025
100
AcDbLine
 62
2
  6
CONTINUOUS
 10
68.1194246648
 20
193.9623669503
 11
62.1219556201
 21
192.2738936475
  0
LINE
  5
5E2
100
AcDbEntity
  8
025
100
AcDbLine
 62
2
  6
CONTINUOUS
 10
68.1194246648
 20
194.41980103
 11
62.1219556201
 21
192.7313277272
  0
LINE
  5
5E3
100
AcDbEntity
  8
025
100
AcDbLine
 62
2
  6
CONTINUOUS
 10
68.1194246648
 20
195.3600821938
 11
62.1219556201
 21
193.671608891
  0
LINE
  5
5E4
100
AcDbEntity
  8
025
100
AcDbLine
 62
2
  6
CONTINUOUS
 10
68.1194246648
 20
195.8175162734
 11
62.1219556201
 21
194.1290429707
  0
LINE
  5
5E5
100
AcDbEntity
  8
025
100
AcDbLine
 62
2
  6
CONTINUOUS
 10
68.1194246648
 20
196.7577974372
 11
62.1219556201
 21
195.0693241345
  0
LINE
  5
5E6
100
AcDbEntity
  8
025
100
AcDbLine
 62
2
  6
CONTINUOUS
 10
68.1194246648
 20
197.2152315169
 11
62.1219556201
 21
195.5267582141
  0
LINE
  5
5E7
100
AcDbEntity
  8
025
100
AcDbLine
 62
2
  6
CONTINUOUS
 10
68.1194246648
 20
198.1555126807
 11
62.1219556201
 21
196.4670393779
  0
LINE
  5
5E8
100
AcDbEntity
  8
025
100
AcDbLine
 62
2
  6
CONTINUOUS
 10
68.1194246648
 20
198.6129467604
 11
62.1219556201
 21
196.9244734576
  0
LINE
  5
5E9
100
AcDbEntity
  8
025
100
AcDbLine
 62
2
  6
CONTINUOUS
 10
68.1194246648
 20
199.5532279242
 11
62.1219556201
 21
197.8647546214
  0
LINE
  5
5EA
100
AcDbEntity
  8
025
100
AcDbLine
 62
2
  6
CONTINUOUS
 10
68.1194246648
 20
200.0106620039
 11
62.1219556201
 21
198.3221887011
  0
LINE
  5
5EB
100
AcDbEntity
  8
025
100
AcDbLine
 62
2
  6
CONTINUOUS
 10
68.1194246648
 20
200.9509431677
 11
62.1219556201
 21
199.2624698649
  0
LINE
  5
5EC
100
AcDbEntity
  8
025
100
AcDbLine
 62
2
  6
CONTINUOUS
 10
68.1194246648
 20
201.4083772473
 11
62.1219556201
 21
199.7199039446
  0
LINE
  5
5ED
100
AcDbEntity
  8
025
100
AcDbLine
 62
2
  6
CONTINUOUS
 10
68.1194246648
 20
202.3486584111
 11
62.1219556201
 21
200.6601851083
  0
LINE
  5
5EE
100
AcDbEntity
  8
025
100
AcDbLine
 62
2
  6
CONTINUOUS
 10
68.1194246648
 20
202.8060924908
 11
62.1219556201
 21
201.117619188
  0
LINE
  5
5EF
100
AcDbEntity
  8
0
100
AcDbLine
 62
2
  6
CONTINUOUS
 10
128.5991336946
 20
200.1368915998
 11
138.6011219987
 21
200.1368915998
  0
LINE
  5
5F0
100
AcDbEntity
  8
05
100
AcDbLine
 62
7
  6
CONTINUOUS
 10
61.3706901424
 20
207.939519385
 11
68.8706901424
 21
207.939519385
  0
LINE
  5
5F1
100
AcDbEntity
  8
0
100
AcDbLine
 62
2
  6
CONTINUOUS
 10
128.6001279316
 20
210.4598403639
 11
138.6001277616
 21
210.4598403639
  0
LINE
  5
5F2
100
AcDbEntity
  8
07
100
AcDbLine
 62
7
  6
CONTINUOUS
 10
142.1011219987
 20
191.734679471
 11
141.6010635191
 21
192.2347379506
  0
LINE
  5
5F3
100
AcDbEntity
  8
07
100
AcDbLine
 62
7
  6
CONTINUOUS
 10
142.1011219987
 20
80.5569332607
 11
141.5010518232
 21
79.9568630852
  0
LINE
  5
5F4
100
AcDbEntity
  8
025
100
AcDbLine
 62
2
  6
CONTINUOUS
 10
68.1194246648
 20
203.7463736546
 11
62.1219556201
 21
202.0579003518
  0
LINE
  5
5F5
100
AcDbEntity
  8
025
100
AcDbLine
 62
2
  6
CONTINUOUS
 10
68.1194246648
 20
204.2038077343
 11
62.1219556201
 21
202.5153344315
  0
LINE
  5
5F6
100
AcDbEntity
  8
025
100
AcDbLine
 62
2
  6
CONTINUOUS
 10
68.1194246648
 20
205.1440888981
 11
62.1219556201
 21
203.4556155953
  0
LINE
  5
5F7
100
AcDbEntity
  8
025
100
AcDbLine
 62
2
  6
CONTINUOUS
 10
68.1194246648
 20
205.6015229778
 11
62.1219556201
 21
203.913049675
  0
LINE
  5
5F8
100
AcDbEntity
  8
025
100
AcDbLine
 62
2
  6
CONTINUOUS
 10
68.1194246648
 20
206.5418041415
 11
62.1219556201
 21
204.8533308388
  0
LINE
  5
5F9
100
AcDbEntity
  8
025
100
AcDbLine
 62
2
  6
CONTINUOUS
 10
68.1194246648
 20
206.9992382212
 11
62.1219556201
 21
205.3107649184
  0
LINE
  5
5FA
100
AcDbEntity
  8
025
100
AcDbLine
 62
2
  6
CONTINUOUS
 10
68.1194246648
 20
207.939519385
 11
62.1219556201
 21
206.2510460822
  0
LINE
  5
5FB
100
AcDbEntity
  8
025
100
AcDbLine
 62
2
  6
CONTINUOUS
 10
66.4946155971
 20
207.939519385
 11
62.1219556201
 21
206.7084801619
  0
LINE
  5
5FC
100
AcDbEntity
  8
025
100
AcDbLine
 62
2
  6
CONTINUOUS
 10
63.1547302913
 20
207.939519385
 11
62.1219556201
 21
207.6487613257
  0
LINE
  5
5FD
100
AcDbEntity
  8
025
100
AcDbLine
 62
2
  6
CONTINUOUS
 10
60.4160795792
 20
217.1009127217
 11
61.6519998377
 21
217.2356237933
  0
LINE
  5
5FE
100
AcDbEntity
  8
05
100
AcDbLine
 62
7
  6
CONTINUOUS
 10
63.1206901424
 20
217.4498823561
 11
67.1206901424
 21
217.4498823561
  0
LINE
  5
5FF
100
AcDbEntity
  8
05
100
AcDbLine
 62
7
  6
CONTINUOUS
 10
63.1206901424
 20
218.939519385
 11
67.1206901424
 21
218.939519385
  0
LINE
  5
600
100
AcDbEntity
  8
05
100
AcDbLine
 62
7
  6
CONTINUOUS
 10
125.9661533354
 20
219.960381734
 11
141.2341023578
 21
219.960381734
  0
LINE
  5
601
100
AcDbEntity
  8
05
100
AcDbLine
 62
7
  6
CONTINUOUS
 10
61.1206901424
 20
220.189519385
 11
69.1206901424
 21
220.189519385
  0
LINE
  5
602
100
AcDbEntity
  8
025
100
AcDbLine
 62
2
  6
CONTINUOUS
 10
125.1001279316
 20
220.460381734
 11
142.1001277616
 21
220.460381734
  0
LINE
  5
603
100
AcDbEntity
  8
05
100
AcDbLine
 62
7
  6
CONTINUOUS
 10
61.1156901424
 20
221.9175727413
 11
69.1256901424
 21
221.9175727413
  0
LINE
  5
604
100
AcDbEntity
  8
05
100
AcDbLine
 62
7
  6
CONTINUOUS
 10
60.8456901424
 20
222.1875727413
 11
69.3956901424
 21
222.1875727413
  0
LINE
  5
605
100
AcDbEntity
  8
025
100
AcDbLine
 62
2
  6
CONTINUOUS
 10
66.4723587368
 20
217.0610511833
 11
69.8052659765
 21
216.7186273153
  0
LINE
  5
606
100
AcDbEntity
  8
05
100
AcDbLine
 62
7
  6
CONTINUOUS
 10
125.1001279316
 20
220.460381734
 11
125.9661533354
 21
219.960381734
  0
LINE
  5
607
100
AcDbEntity
  8
025
100
AcDbLine
 62
2
  6
CONTINUOUS
 10
63.6779478726
 20
216.4325895795
 11
66.4723587368
 21
217.0610511833
  0
LINE
  5
608
100
AcDbEntity
  8
05
100
AcDbLine
 62
7
  6
CONTINUOUS
 10
60.8456901424
 20
224.039519385
 11
69.3956901424
 21
224.039519385
  0
LINE
  5
609
100
AcDbEntity
  8
05
100
AcDbLine
 62
7
  6
CONTINUOUS
 10
60.3706901424
 20
225.439519385
 11
69.8706901424
 21
225.439519385
  0
LINE
  5
60A
100
AcDbEntity
  8
0
100
AcDbLine
 62
2
  6
CONTINUOUS
 10
71.0704107523
 20
225.439519385
 11
85.5485229538
 21
225.439519385
  0
LINE
  5
60B
100
AcDbEntity
  8
05
100
AcDbLine
 62
7
  6
CONTINUOUS
 10
60.3706901899
 20
226.6895193725
 11
64.0614137328
 21
226.6895193725
  0
LINE
  5
60C
100
AcDbEntity
  8
05
100
AcDbLine
 62
7
  6
CONTINUOUS
 10
66.1799665521
 20
226.6895193725
 11
69.8706900949
 21
226.6895193725
  0
LINE
  5
60D
100
AcDbEntity
  8
05
100
AcDbLine
 62
7
  6
CONTINUOUS
 10
125.1001279316
 20
227.460381734
 11
142.1001277616
 21
227.460381734
  0
LINE
  5
60E
100
AcDbEntity
  8
05
100
AcDbLine
 62
7
  6
CONTINUOUS
 10
70.7206901424
 20
227.8771016753
 11
59.5206901424
 21
227.8771016753
  0
LINE
  5
60F
100
AcDbEntity
  8
05
100
AcDbLine
 62
7
  6
CONTINUOUS
 10
71.1206901424
 20
229.8771016753
 11
59.1206901424
 21
229.8771016753
  0
LINE
  5
610
100
AcDbEntity
  8
05
100
AcDbLine
 62
7
  6
CONTINUOUS
 10
124.6001279366
 20
229.960381709
 11
142.6001277566
 21
229.960381709
  0
LINE
  5
611
100
AcDbEntity
  8
05
100
AcDbLine
 62
7
  6
CONTINUOUS
 10
124.1001279416
 20
232.460381684
 11
131.4815750273
 21
232.460381684
  0
LINE
  5
612
100
AcDbEntity
  8
05
100
AcDbLine
 62
7
  6
CONTINUOUS
 10
135.718680666
 20
232.460381684
 11
143.1001277516
 21
232.460381684
  0
LINE
  5
613
100
AcDbEntity
  8
05
100
AcDbLine
 62
7
  6
CONTINUOUS
 10
71.1206901424
 20
233.8771016753
 11
59.1206901424
 21
233.8771016753
  0
LINE
  5
614
100
AcDbEntity
  8
05
100
AcDbLine
 62
7
  6
CONTINUOUS
 10
144.8001278466
 20
234.8355462896
 11
122.4001278466
 21
234.8355462896
  0
LINE
  5
615
100
AcDbEntity
  8
05
100
AcDbLine
 62
7
  6
CONTINUOUS
 10
59.5206901424
 20
235.3771016753
 11
70.7206901424
 21
235.3771016753
  0
LINE
  5
616
100
AcDbEntity
  8
05
100
AcDbLine
 62
7
  6
CONTINUOUS
 10
60.9810901285
 20
235.9026230155
 11
69.2944050544
 21
235.9026230155
  0
LINE
  5
617
100
AcDbEntity
  8
05
100
AcDbLine
 62
7
  6
CONTINUOUS
 10
121.6001278466
 20
238.8355462896
 11
121.0001278466
 21
239.4355462896
  0
LINE
  5
618
100
AcDbEntity
  8
025
100
AcDbLine
 62
2
  6
CONTINUOUS
 10
66.9846380778
 20
238.8952919842
 11
130.7274826379
 21
255.7144920885
  0
LINE
  5
619
100
AcDbEntity
  8
035
100
AcDbLine
 62
7
  6
CONTINUOUS
 10
61.1831901424
 20
236.2391853007
 11
60.6383394673
 21
236.2391853007
  0
LINE
  5
61A
100
AcDbEntity
  8
05
100
AcDbLine
 62
7
  6
CONTINUOUS
 10
145.6001278466
 20
238.8355462896
 11
121.6001278466
 21
238.8355462896
  0
LINE
  5
61B
100
AcDbEntity
  8
05
100
AcDbLine
 62
7
  6
CONTINUOUS
 10
61.6831901424
 20
241.939519385
 11
68.5581901424
 21
241.939519385
  0
LINE
  5
61C
100
AcDbEntity
  8
05
100
AcDbLine
 62
7
  6
CONTINUOUS
 10
145.6001278466
 20
246.8355462896
 11
121.6001278466
 21
246.8355462896
  0
LINE
  5
61D
100
AcDbEntity
  8
05
100
AcDbLine
 62
7
  6
CONTINUOUS
 10
145.6001278466
 20
246.8355462896
 11
146.2001278466
 21
246.2355462896
  0
LINE
  5
61E
100
AcDbEntity
  8
0
100
AcDbLine
 62
7
  6
CONTINUOUS
 10
205.0
 20
5.0
 11
205.0
 21
292.0
  0
LINE
  5
61F
100
AcDbEntity
  8
0
100
AcDbLine
 62
7
  6
CONTINUOUS
 10
210.0
 20
0.0
 11
210.0
 21
297.0
  0
LINE
  5
620
100
AcDbEntity
  8
05
100
AcDbLine
 62
7
  6
CONTINUOUS
 10
122.4001278466
 20
249.8355462896
 11
144.8001278466
 21
249.8355462896
  0
LINE
  5
621
100
AcDbEntity
  8
05
100
AcDbLine
 62
7
  6
CONTINUOUS
 10
125.3209278188
 20
250.8865889701
 11
141.9475576705
 21
250.8865889701
  0
LINE
  5
622
100
AcDbEntity
  8
035
100
AcDbLine
 62
7
  6
CONTINUOUS
 10
125.7251278466
 20
251.5597135404
 11
124.6354264963
 21
251.5597135404
  0
LINE
  5
623
100
AcDbEntity
  8
05
100
AcDbLine
 62
7
  6
CONTINUOUS
 10
126.7251278466
 20
262.960381709
 11
140.4751278466
 21
262.960381709
  0
LINE
  5
624
100
AcDbEntity
  8
0
100
AcDbLine
 62
7
  6
CONTINUOUS
 10
5.0
 20
292.0
 11
205.0
 21
292.0
  0
LINE
  5
625
100
AcDbEntity
  8
0
100
AcDbLine
 62
7
  6
CONTINUOUS
 10
0.0
 20
297.0
 11
210.0
 21
297.0
  0
ARC
  5
626
100
AcDbEntity
  8
05
100
AcDbCircle
 62
7
  6
CONTINUOUS
 10
84.5393011206
 20
151.7217081056
 40
23.8047619209
100
AcDbArc
 50
207.2196554593
 51
212.7803445407
  0
ARC
  5
627
100
AcDbEntity
  8
05
100
AcDbCircle
 62
7
  6
CONTINUOUS
 10
75.178111038
 20
147.4745939249
 40
12.2961568378
100
AcDbArc
 50
202.1761779096
 51
209.9632973231
  0
ARC
  5
628
100
AcDbEntity
  8
05
100
AcDbCircle
 62
7
  6
CONTINUOUS
 10
61.3706901424
 20
159.8333381924
 40
0.5
100
AcDbArc
 50
90.0
 51
177.0
  0
ARC
  5
629
100
AcDbEntity
  8
05
100
AcDbCircle
 62
7
  6
CONTINUOUS
 10
68.8706901424
 20
159.8333381924
 40
0.5
100
AcDbArc
 50
3.0
 51
90.0
  0
ARC
  5
62A
100
AcDbEntity
  8
05
100
AcDbCircle
 62
7
  6
CONTINUOUS
 10
69.1206901424
 20
147.6833381924
 40
0.4
100
AcDbArc
 50
0.0
 51
90.0
  0
ARC
  5
62B
100
AcDbEntity
  8
05
100
AcDbCircle
 62
7
  6
CONTINUOUS
 10
69.1206901424
 20
146.8142783
 40
0.4
100
AcDbArc
 50
270.0
 51
360.0
  0
CIRCLE
  5
62C
100
AcDbEntity
  8
025
100
AcDbCircle
 62
2
  6
CONTINUOUS
 10
66.5693092305
 20
137.4395758305
 40
0.32
  0
HATCH
  5
62D
100
AcDbEntity
  8
025
100
AcDbHatch
 62
2
  6
CONTINUOUS
 10
0.0
 20
0.0
 30
0.0
210
0.0
220
0.0
230
1.0
  2

 70
1
 71
1
 91
1
 92
1
 93
1
 72
2
 10
66.5693092305
 20
137.4395758305
 40
0.32
 50
0.0
 51
360.0
 73
1
 97
1
330
62C
 75
0
 76
1
 98
1
 10
0.0
 20
0.0
  0
CIRCLE
  5
62E
100
AcDbEntity
  8
025
100
AcDbCircle
 62
2
  6
CONTINUOUS
 10
67.5520148453
 20
128.3689799438
 40
0.32
  0
HATCH
  5
62F
100
AcDbEntity
  8
025
100
AcDbHatch
 62
2
  6
CONTINUOUS
 10
0.0
 20
0.0
 30
0.0
210
0.0
220
0.0
230
1.0
  2

 70
1
 71
1
 91
1
 92
1
 93
1
 72
2
 10
67.5520148453
 20
128.3689799438
 40
0.32
 50
0.0
 51
360.0
 73
1
 97
1
330
62E
 75
0
 76
1
 98
1
 10
0.0
 20
0.0
  0
CIRCLE
  5
630
100
AcDbEntity
  8
0
100
AcDbCircle
 62
2
  6
CONTINUOUS
 10
61.5448643459
 20
141.0237848752
 40
0.32
  0
HATCH
  5
631
100
AcDbEntity
  8
0
100
AcDbHatch
 62
2
  6
CONTINUOUS
 10
0.0
 20
0.0
 30
0.0
210
0.0
220
0.0
230
1.0
  2
dxsec_1
 70
1
 71
1
 91
1
 92
1
 93
1
 72
2
 10
61.5448643459
 20
141.0237848752
 40
0.32
 50
0.0
 51
360.0
 73
1
 97
1
330
630
 75
0
 76
1
 98
1
 10
0.0
 20
0.0
  0
ARC
  5
632
100
AcDbEntity
  8
07
100
AcDbCircle
 62
7
  6
CONTINUOUS
 10
60.5192573939
 20
131.9811744497
 40
0.149122807
100
AcDbArc
 50
180.0
 51
270.0
  0
ARC
  5
633
100
AcDbEntity
  8
07
100
AcDbCircle
 62
7
  6
CONTINUOUS
 10
69.722122891
 20
131.9811744497
 40
0.149122807
100
AcDbArc
 50
270.0
 51
360.0
  0
ARC
  5
634
100
AcDbEntity
  8
035
100
AcDbCircle
 62
7
  6
CONTINUOUS
 10
62.760072539
 20
238.4537009171
 40
1.75
100
AcDbArc
 50
154.2998195036
 51
205.7001804964
  0
ARC
  5
635
100
AcDbEntity
  8
05
100
AcDbCircle
 62
7
  6
CONTINUOUS
 10
68.5581901424
 20
241.439519385
 40
0.5
100
AcDbArc
 50
0.0
 51
90.0
  0
ARC
  5
636
100
AcDbEntity
  8
05
100
AcDbCircle
 62
7
  6
CONTINUOUS
 10
61.6831901424
 20
241.439519385
 40
0.5
100
AcDbArc
 50
90.0
 51
180.0
  0
ARC
  5
637
100
AcDbEntity
  8
05
100
AcDbCircle
 62
7
  6
CONTINUOUS
 10
61.3706901424
 20
208.439519385
 40
0.5
100
AcDbArc
 50
183.0
 51
270.0
  0
ARC
  5
638
100
AcDbEntity
  8
05
100
AcDbCircle
 62
7
  6
CONTINUOUS
 10
68.8706901424
 20
208.439519385
 40
0.5
100
AcDbArc
 50
270.0
 51
357.0
  0
ARC
  5
639
100
AcDbEntity
  8
05
100
AcDbCircle
 62
7
  6
CONTINUOUS
 10
60.9810894164
 20
235.4379694909
 40
0.4646535246
100
AcDbArc
 50
89.9999121864
 51
187.527158898
  0
ARC
  5
63A
100
AcDbEntity
  8
05
100
AcDbCircle
 62
7
  6
CONTINUOUS
 10
69.2944059514
 20
235.4379694909
 40
0.4646535246
100
AcDbArc
 50
352.472841102
 51
90.0001106134
  0
ARC
  5
63B
100
AcDbEntity
  8
05
100
AcDbCircle
 62
7
  6
CONTINUOUS
 10
61.1206901424
 20
221.4585792773
 40
0.4
100
AcDbArc
 50
120.0
 51
180.0
  0
ARC
  5
63C
100
AcDbEntity
  8
05
100
AcDbCircle
 62
7
  6
CONTINUOUS
 10
61.1206901424
 20
220.589519385
 40
0.4
100
AcDbArc
 50
180.0
 51
270.0
  0
ARC
  5
63D
100
AcDbEntity
  8
05
100
AcDbCircle
 62
7
  6
CONTINUOUS
 10
69.1206901424
 20
221.4585792773
 40
0.4
100
AcDbArc
 50
0.0
 51
60.0
  0
ARC
  5
63E
100
AcDbEntity
  8
05
100
AcDbCircle
 62
7
  6
CONTINUOUS
 10
69.1206901424
 20
220.589519385
 40
0.4
100
AcDbArc
 50
270.0
 51
360.0
  0
ARC
  5
63F
100
AcDbEntity
  8
05
100
AcDbCircle
 62
7
  6
CONTINUOUS
 10
59.5206901424
 20
228.2771016753
 40
0.4
100
AcDbArc
 50
180.0
 51
270.0
  0
ARC
  5
640
100
AcDbEntity
  8
05
100
AcDbCircle
 62
7
  6
CONTINUOUS
 10
59.5206901424
 20
234.9771016753
 40
0.4
100
AcDbArc
 50
90.0
 51
180.0
  0
ARC
  5
641
100
AcDbEntity
  8
05
100
AcDbCircle
 62
7
  6
CONTINUOUS
 10
70.7206901424
 20
228.2771016753
 40
0.4
100
AcDbArc
 50
270.0
 51
360.0
  0
ARC
  5
642
100
AcDbEntity
  8
05
100
AcDbCircle
 62
7
  6
CONTINUOUS
 10
70.7206901424
 20
234.9771016753
 40
0.4
100
AcDbArc
 50
0.0
 51
90.0
  0
ARC
  5
643
100
AcDbEntity
  8
035
100
AcDbCircle
 62
7
  6
CONTINUOUS
 10
62.1338232045
 20
241.4941476984
 40
0.3843620117
100
AcDbArc
 50
78.7878878277
 51
184.5717961582
  0
CIRCLE
  5
644
100
AcDbEntity
  8
025
100
AcDbCircle
 62
2
  6
CONTINUOUS
 10
66.9846380778
 20
238.8952919842
 40
0.32
  0
HATCH
  5
645
100
AcDbEntity
  8
025
100
AcDbHatch
 62
2
  6
CONTINUOUS
 10
0.0
 20
0.0
 30
0.0
210
0.0
220
0.0
230
1.0
  2

 70
1
 71
1
 91
1
 92
1
 93
1
 72
2
 10
66.9846380778
 20
238.8952919842
 40
0.32
 50
0.0
 51
360.0
 73
1
 97
1
330
644
 75
0
 76
1
 98
1
 10
0.0
 20
0.0
  0
ARC
  5
646
100
AcDbEntity
  8
05
100
AcDbCircle
 62
7
  6
CONTINUOUS
 10
60.6206901874
 20
225.6895193825
 40
0.2499999975
100
AcDbArc
 50
180.0
 51
270.0
  0
ARC
  5
647
100
AcDbEntity
  8
05
100
AcDbCircle
 62
7
  6
CONTINUOUS
 10
69.6206900974
 20
225.6895193825
 40
0.2499999975
100
AcDbArc
 50
270.0
 51
360.0
  0
ARC
  5
648
100
AcDbEntity
  8
05
100
AcDbCircle
 62
7
  6
CONTINUOUS
 10
153.7149696377
 20
191.516079825
 40
24.5923136756
100
AcDbArc
 50
196.2083633875
 51
209.9632973231
  0
ARC
  5
649
100
AcDbEntity
  8
07
100
AcDbCircle
 62
7
  6
CONTINUOUS
 10
124.3972623496
 20
160.5292408745
 40
0.298245614
100
AcDbArc
 50
180.0
 51
270.0
  0
ARC
  5
64A
100
AcDbEntity
  8
07
100
AcDbCircle
 62
7
  6
CONTINUOUS
 10
142.8029933437
 20
160.5292408745
 40
0.298245614
100
AcDbArc
 50
270.0
 51
360.0
  0
ARC
  5
64B
100
AcDbEntity
  8
05
100
AcDbCircle
 62
7
  6
CONTINUOUS
 10
172.4373498029
 20
200.0103081865
 40
47.6095238418
100
AcDbArc
 50
207.2196554593
 51
212.7803445407
  0
ARC
  5
64C
100
AcDbEntity
  8
035
100
AcDbCircle
 62
7
  6
CONTINUOUS
 10
128.8788926398
 20
255.9887447731
 40
3.5
100
AcDbArc
 50
154.2998195036
 51
205.7001804964
  0
ARC
  5
64D
100
AcDbEntity
  8
05
100
AcDbCircle
 62
7
  6
CONTINUOUS
 10
126.7251278466
 20
261.960381709
 40
1.0
100
AcDbArc
 50
90.0
 51
180.0
  0
ARC
  5
64E
100
AcDbEntity
  8
05
100
AcDbCircle
 62
7
  6
CONTINUOUS
 10
140.4751278466
 20
261.960381709
 40
1.0
100
AcDbArc
 50
0.0
 51
90.0
  0
ARC
  5
64F
100
AcDbEntity
  8
05
100
AcDbCircle
 62
7
  6
CONTINUOUS
 10
125.3209263945
 20
249.9572819208
 40
0.9293070492
100
AcDbArc
 50
89.9999121864
 51
187.527158898
  0
ARC
  5
650
100
AcDbEntity
  8
05
100
AcDbCircle
 62
7
  6
CONTINUOUS
 10
141.9475594646
 20
249.9572819208
 40
0.9293070492
100
AcDbArc
 50
352.472841102
 51
90.0001106134
  0
ARC
  5
651
100
AcDbEntity
  8
05
100
AcDbCircle
 62
7
  6
CONTINUOUS
 10
122.4001278466
 20
235.6355462896
 40
0.8
100
AcDbArc
 50
180.0
 51
270.0
  0
ARC
  5
652
100
AcDbEntity
  8
05
100
AcDbCircle
 62
7
  6
CONTINUOUS
 10
144.8001278466
 20
235.6355462896
 40
0.8
100
AcDbArc
 50
270.0
 51
360.0
  0
ARC
  5
653
100
AcDbEntity
  8
05
100
AcDbCircle
 62
7
  6
CONTINUOUS
 10
122.4001278466
 20
249.0355462896
 40
0.8
100
AcDbArc
 50
90.0
 51
180.0
  0
ARC
  5
654
100
AcDbEntity
  8
05
100
AcDbCircle
 62
7
  6
CONTINUOUS
 10
144.8001278466
 20
249.0355462896
 40
0.8
100
AcDbArc
 50
0.0
 51
90.0
  0
ARC
  5
655
100
AcDbEntity
  8
035
100
AcDbCircle
 62
7
  6
CONTINUOUS
 10
127.6263939708
 20
262.0696383359
 40
0.7687240234
100
AcDbArc
 50
78.7878878277
 51
184.5717961582
  0
ARC
  5
656
100
AcDbEntity
  8
05
100
AcDbCircle
 62
7
  6
CONTINUOUS
 10
124.6001279366
 20
230.460381704
 40
0.499999995
100
AcDbArc
 50
180.0
 51
270.0
  0
ARC
  5
657
100
AcDbEntity
  8
05
100
AcDbCircle
 62
7
  6
CONTINUOUS
 10
142.6001277566
 20
230.460381704
 40
0.499999995
100
AcDbArc
 50
270.0
 51
360.0
  0
ENDSEC
  0
SECTION
  2
OBJECTS
  0
DICTIONARY
  5
C
100
AcDbDictionary
280
0
281
1
  3
ACAD_GROUP
350
D
  3
ACAD_MLINESTYLE
350
17
  3
ACAD_LAYOUT
350
1A
  3
ACAD_PLOTSETTINGS
350
19
  3
ACAD_PLOTSTYLENAME
350
E
  3
ACAD_TABLESTYLE
350
       658
  0
DICTIONARY
  5
D
102
{ACAD_REACTORS
330
C
102
}
100
AcDbDictionary
280
0
281
1
  0
ACDBDICTIONARYWDFLT
  5
E
102
{ACAD_REACTORS
330
C
102
}
100
AcDbDictionary
281
1
  3
Normal
350
F
100
AcDbDictionaryWithDefault
340
F
  0
DICTIONARY
  5
17
102
{ACAD_REACTORS
330
C
102
}
100
AcDbDictionary
280
0
281
1
  3
Standard
350
18
  0
DICTIONARY
  5
658
330
C
100
AcDbDictionary
281
1
  3
Standard
350
       65B
  3
Standard1
350
       65C
  0
DICTIONARY
  5
19
102
{ACAD_REACTORS
330
C
102
}
100
AcDbDictionary
281
1
  0
DICTIONARY
  5
1A
102
{ACAD_REACTORS
330
C
102
}
100
AcDbDictionary
281
1
  3
Model
350
659
  3
Layout1
350
65A
  0
ACDBPLACEHOLDER
  5
F
102
{ACAD_REACTORS
330
E
102
}
  0
MLINESTYLE
  5
18
102
{ACAD_REACTORS
330
17
102
}
100
AcDbMlineStyle
  2
STANDARD
 70
0
  3

 62
256
 51
90.0
 52
90.0
 71
2
 49
0.5
 62
256
  6
BYLAYER
 49
-0.5
 62
256
  6
BYLAYER
  0
LAYOUT
  5
659
102
{ACAD_REACTORS
330
1A
102
}
100
AcDbPlotSettings
  1

  2
none_device
  4

  6

 40
0.0
 41
0.0
 42
0.0
 43
0.0
 44
210.0
 45
297.0
 46
0.0
 47
0.0
 48
0.0
 49
0.0
140
0.0
141
0.0
142
1.0
143
1.0
 70
1024
 72
1
 73
0
 74
0
  7

 75
0
147
1.0
148
0.0
149
0.0
100
AcDbLayout
  1
Model
 70
0
 71
0
 10
0.0
 20
0.0
 11
210.0
 21
297.0
 12
0.0
 22
0.0
 32
0.0
 14
0.0
 24
0.0
 34
0.0
 15
0.0
 25
0.0
 35
0.0
146
0.0
 13
0.0
 23
0.0
 33
0.0
 16
1.0
 26
0.0
 36
0.0
 17
0.0
 27
1.0
 37
0.0
 76
0
330
20C
345
0
346
0
  0
LAYOUT
  5
65A
102
{ACAD_REACTORS
330
1A
102
}
100
AcDbPlotSettings
  1

  2
none_device
  4

  6

 40
0.0
 41
0.0
 42
0.0
 43
0.0
 44
210.0
 45
297.0
 46
0.0
 47
0.0
 48
0.0
 49
0.0
140
0.0
141
0.0
142
1.0
143
1.0
 70
0
 72
1
 73
0
 74
0
  7

 75
0
147
1.0
148
0.0
149
0.0
100
AcDbLayout
  1
Layout1
 70
0
 71
1
 10
0.0
 20
0.0
 11
210.0
 21
297.0
 12
0.0
 22
0.0
 32
0.0
 14
0.0
 24
0.0
 34
0.0
 15
0.0
 25
0.0
 35
0.0
146
0.0
 13
0.0
 23
0.0
 33
0.0
 16
1.0
 26
0.0
 36
0.0
 17
0.0
 27
1.0
 37
0.0
 76
0
330
20D
345
0
346
0
  0
TABLESTYLE
  5
65B
102
{ACAD_REACTORS
330
658
330
2B0
102
}
330
658
100
AcDbTableStyle
  3
Standard
 70
0
 71
0
 40
0.06
 41
0.06
280
1
281
1
  7
Standard
140
0.18
170
1
 62
0
 63
7
283
0
  7
Standard
140
0.18
170
1
 62
0
 63
7
283
0
  7
Standard
140
0.18
170
1
 62
0
 63
7
283
0
  0
TABLESTYLE
  5
65C
102
{ACAD_REACTORS
330
658
102
}
330
658
100
AcDbTableStyle
  3
Standard1
 70
1
 71
0
 40
0.06
 41
0.06
280
1
281
1
  7
Standard
140
0.18
170
1
 62
0
 63
7
283
0
  7
Standard
140
0.18
170
1
 62
0
 63
7
283
0
  7
Standard
140
0.18
170
1
 62
0
 63
7
283
0
  0
ENDSEC
  0
EOF
