  0
SECTION
  2
HEADER
  9
$ACADVER
  1
AC1009
  9
$INSBASE
 10
0.0
 20
0.0
 30
0.0
  9
$EXTMIN
 10
192.0
 20
-5.0
 30
0.0
  9
$EXTMAX
 10
412.0
 20
292.0
 30
0.0
  9
$LIMMIN
 10
0.0
 20
0.0
  9
$LIMMAX
 10
410.0
 20
287.0
  9
$ORTHOMODE
 70
     1
  9
$REGENMODE
 70
     1
  9
$FILLMODE
 70
     1
  9
$QTEXTMODE
 70
     0
  9
$MIRRTEXT
 70
     1
  9
$DRAGMODE
 70
     2
  9
$LTSCALE
 40
5.0
  9
$OSMODE
 70
    32
  9
$ATTMODE
 70
     1
  9
$TEXTSIZE
 40
3.5
  9
$TRACEWID
 40
26.0
  9
$TEXTSTYLE
  7
STANDARD
  9
$CLAYER
  8
BEM1
  9
$CELTYPE
  6
BYLAYER
  9
$CECOLOR
 62
   256
  9
$DIMSCALE
 40
1.0
  9
$DIMASZ
 40
3.5
  9
$DIMEXO
 40
0.8
  9
$DIMDLI
 40
8.0
  9
$DIMRND
 40
0.0
  9
$DIMDLE
 40
0.0
  9
$DIMEXE
 40
1.8
  9
$DIMTP
 40
0.0
  9
$DIMTM
 40
0.0
  9
$DIMTXT
 40
3.5
  9
$DIMCEN
 40
1.5
  9
$DIMTSZ
 40
0.0
  9
$DIMTOL
 70
     0
  9
$DIMLIM
 70
     0
  9
$DIMTIH
 70
     0
  9
$DIMTOH
 70
     0
  9
$DIMSE1
 70
     0
  9
$DIMSE2
 70
     0
  9
$DIMTAD
 70
     1
  9
$DIMZIN
 70
     0
  9
$DIMBLK
  1

  9
$DIMASO
 70
     0
  9
$DIMSHO
 70
     0
  9
$DIMPOST
  1

  9
$DIMAPOST
  1
"
  9
$DIMALT
 70
     0
  9
$DIMALTD
 70
     3
  9
$DIMALTF
 40
0.03937
  9
$DIMLFAC
 40
0.5
  9
$DIMTOFL
 70
     0
  9
$DIMTVP
 40
0.0
  9
$DIMTIX
 70
     0
  9
$DIMSOXD
 70
     0
  9
$DIMSAH
 70
     0
  9
$DIMBLK1
  1

  9
$DIMBLK2
  1

  9
$DIMSTYLE
  2
STANDARD
  9
$DIMCLRD
 70
     0
  9
$DIMCLRE
 70
     0
  9
$DIMCLRT
 70
     0
  9
$DIMTFAC
 40
1.0
  9
$DIMGAP
 40
0.09
  9
$LUNITS
 70
     2
  9
$LUPREC
 70
     2
  9
$SKETCHINC
 40
1.0
  9
$FILLETRAD
 40
0.0
  9
$AUNITS
 70
     0
  9
$AUPREC
 70
     0
  9
$MENU
  1
acad
  9
$ELEVATION
 40
0.0
  9
$PELEVATION
 40
0.0
  9
$THICKNESS
 40
0.0
  9
$LIMCHECK
 70
     0
  9
$BLIPMODE
 70
     0
  9
$CHAMFERA
 40
0.0
  9
$CHAMFERB
 40
0.0
  9
$SKPOLY
 70
     0
  9
$TDCREATE
 40
2449552.534298
  9
$TDUPDATE
 40
2451750.736499
  9
$TDINDWG
 40
0.446924
  9
$TDUSRTIMER
 40
0.446924
  9
$USRTIMER
 70
     1
  9
$ANGBASE
 50
0.0
  9
$ANGDIR
 70
     0
  9
$PDMODE
 70
     0
  9
$PDSIZE
 40
0.0
  9
$PLINEWID
 40
0.0
  9
$COORDS
 70
     0
  9
$SPLFRAME
 70
     0
  9
$SPLINETYPE
 70
     6
  9
$SPLINESEGS
 70
     8
  9
$ATTDIA
 70
     1
  9
$ATTREQ
 70
     1
  9
$HANDLING
 70
     1
  9
$HANDSEED
  5
32D
  9
$SURFTAB1
 70
     6
  9
$SURFTAB2
 70
     6
  9
$SURFTYPE
 70
     6
  9
$SURFU
 70
     6
  9
$SURFV
 70
     6
  9
$UCSNAME
  2

  9
$UCSORG
 10
0.0
 20
0.0
 30
0.0
  9
$UCSXDIR
 10
1.0
 20
0.0
 30
0.0
  9
$UCSYDIR
 10
0.0
 20
1.0
 30
0.0
  9
$PUCSNAME
  2

  9
$PUCSORG
 10
0.0
 20
0.0
 30
0.0
  9
$PUCSXDIR
 10
1.0
 20
0.0
 30
0.0
  9
$PUCSYDIR
 10
0.0
 20
1.0
 30
0.0
  9
$USERI1
 70
     0
  9
$USERI2
 70
     0
  9
$USERI3
 70
     0
  9
$USERI4
 70
     0
  9
$USERI5
 70
     0
  9
$USERR1
 40
0.0
  9
$USERR2
 40
0.0
  9
$USERR3
 40
0.0
  9
$USERR4
 40
0.0
  9
$USERR5
 40
0.0
  9
$WORLDVIEW
 70
     1
  9
$SHADEDGE
 70
     3
  9
$SHADEDIF
 70
    70
  9
$TILEMODE
 70
     1
  9
$MAXACTVP
 70
    16
  9
$PLIMCHECK
 70
     0
  9
$PEXTMIN
 10
1.000000E+020
 20
1.000000E+020
 30
1.000000E+020
  9
$PEXTMAX
 10
-1.000000E+020
 20
-1.000000E+020
 30
-1.000000E+020
  9
$PLIMMIN
 10
0.0
 20
0.0
  9
$PLIMMAX
 10
12.0
 20
9.0
  9
$UNITMODE
 70
     0
  9
$VISRETAIN
 70
     0
  9
$PLINEGEN
 70
     0
  9
$PSLTSCALE
 70
     0
  0
ENDSEC
  0
SECTION
  2
TABLES
  0
TABLE
  2
VPORT
 70
     2
  0
VPORT
  2
*ACTIVE
 70
     0
 10
0.0
 20
0.0
 11
1.0
 21
1.0
 12
301.996054
 22
148.369419
 13
0.0
 23
0.0
 14
1.0
 24
1.0
 15
2.0
 25
2.0
 16
0.0
 26
0.0
 36
1.0
 17
0.0
 27
0.0
 37
0.0
 40
309.53483
 41
1.525
 42
50.0
 43
0.0
 44
0.0
 50
0.0
 51
0.0
 71
     0
 72
   500
 73
     1
 74
     0
 75
     0
 76
     0
 77
     0
 78
     0
  0
ENDTAB
  0
TABLE
  2
LTYPE
 70
     2
  0
LTYPE
  2
AUSGEZOGEN
 70
     0
  3
Ausgezogene Linie
 72
    65
 73
     0
 40
0.0
  0
LTYPE
  2
CENTER
 70
     0
  3
____ _ ____ _ ____ _ ____ _ ____ _ ____ _ ____
 72
    65
 73
     4
 40
2.0
 49
1.25
 49
-0.25
 49
0.25
 49
-0.25
  0
ENDTAB
  0
TABLE
  2
LAYER
 70
     8
  0
LAYER
  2
0
 70
     0
 62
     8
  6
AUSGEZOGEN
  0
LAYER
  2
05
 70
     0
 62
     2
  6
AUSGEZOGEN
  0
LAYER
  2
BEM1
 70
     0
 62
     4
  6
AUSGEZOGEN
  0
LAYER
  2
MITTE
 70
     0
 62
     4
  6
CENTER
  0
LAYER
  2
SCHRAFFIERT
 70
     0
 62
     4
  6
AUSGEZOGEN
  0
LAYER
  2
035
 70
     0
 62
     3
  6
AUSGEZOGEN
  0
LAYER
  2
025
 70
     0
 62
     4
  6
AUSGEZOGEN
  0
LAYER
  2
RAHMEN
 70
     0
 62
     2
  6
AUSGEZOGEN
  0
ENDTAB
  0
TABLE
  2
STYLE
 70
     3
  0
STYLE
  2
STANDARD
 70
     0
 40
0.0
 41
0.7
 50
15.0
 71
     0
 42
3.5
  3
txt
  4

  0
STYLE
  2
UNIV
 70
     0
 40
0.0
 41
1.0
 50
0.0
 71
     0
 42
2.5
  3
univ
  4

  0
STYLE
  2
SCRIPTS
 70
     0
 40
0.0
 41
1.0
 50
0.0
 71
     0
 42
5.0
  3
scripts
  4

  0
ENDTAB
  0
TABLE
  2
VIEW
 70
     0
  0
ENDTAB
  0
TABLE
  2
UCS
 70
     0
  0
ENDTAB
  0
TABLE
  2
APPID
 70
     1
  0
APPID
  2
ACAD
 70
     0
  0
ENDTAB
  0
TABLE
  2
DIMSTYLE
 70
     1
  0
DIMSTYLE
  2
STANDARD
 70
     0
  3

  4

  5

  6

  7

 40
1.0
 41
0.18
 42
0.0625
 43
0.38
 44
0.18
 45
0.0
 46
0.0
 47
0.0
 48
0.0
140
0.18
141
0.09
142
0.0
143
25.4
144
1.0
145
0.0
146
1.0
147
0.09
 71
     0
 72
     0
 73
     1
 74
     1
 75
     0
 76
     0
 77
     0
 78
     0
170
     0
171
     2
172
     0
173
     0
174
     0
175
     0
176
     0
177
     0
178
     0
  0
ENDTAB
  0
ENDSEC
  0
SECTION
  2
BLOCKS
  0
BLOCK
  8
0
  2
$MODEL_SPACE
 70
     0
 10
0.0
 20
0.0
 30
0.0
  3
$MODEL_SPACE
  1

  0
ENDBLK
  5
6
  8
0
  0
BLOCK
 67
     1
  8
0
  2
$PAPER_SPACE
 70
     0
 10
0.0
 20
0.0
 30
0.0
  3
$PAPER_SPACE
  1

  0
ENDBLK
  5
9
 67
     1
  8
0
  0
BLOCK
  8
0
  2
ZKOPF
 70
     2
 10
0.0
 20
0.0
 30
0.0
  3
ZKOPF
  1

  0
ATTDEF
  5
50
  8
0
 62
     4
 10
-13.321429
 20
37.0
 30
0.0
 40
2.5
  1
Dobler
  7
SCRIPTS
 72
     1
 11
-8.5
 21
37.0
 31
0.0
  3
Name des Konstrukteurs ?
  2
NAME
 70
     0
  0
POLYLINE
  5
51
  8
0
 62
     2
 66
     1
 10
0.0
 20
0.0
 30
0.0
  0
VERTEX
  5
2A6
  8
0
 62
     2
 10
-51.0
 20
0.0
 30
0.0
  0
VERTEX
  5
2A7
  8
0
 62
     2
 10
-51.0
 20
46.0
 30
0.0
  0
SEQEND
  5
2A8
  8
0
 62
     2
  0
POLYLINE
  5
52
  8
0
 62
     2
 66
     1
 10
0.0
 20
0.0
 30
0.0
  0
VERTEX
  5
2A9
  8
0
 62
     2
 10
-17.0
 20
9.0
 30
0.0
  0
VERTEX
  5
2AA
  8
0
 62
     2
 10
-17.0
 20
46.0
 30
0.0
  0
SEQEND
  5
2AB
  8
0
 62
     2
  0
POLYLINE
  5
53
  8
0
 62
     2
 66
     1
 10
0.0
 20
0.0
 30
0.0
  0
VERTEX
  5
2AC
  8
0
 62
     2
 10
-32.0
 20
26.0
 30
0.0
  0
VERTEX
  5
2AD
  8
0
 62
     2
 10
-32.0
 20
46.0
 30
0.0
  0
SEQEND
  5
2AE
  8
0
 62
     2
  0
POLYLINE
  5
54
  8
0
 62
     2
 66
     1
 10
0.0
 20
0.0
 30
0.0
  0
VERTEX
  5
2AF
  8
0
 62
     2
 10
-133.0
 20
41.0
 30
0.0
  0
VERTEX
  5
2B0
  8
0
 62
     2
 10
-92.0
 20
41.0
 30
0.0
  0
SEQEND
  5
2B1
  8
0
 62
     2
  0
POLYLINE
  5
55
  8
0
 62
     2
 66
     1
 10
0.0
 20
0.0
 30
0.0
  0
VERTEX
  5
2B2
  8
0
 62
     2
 10
-145.0
 20
0.0
 30
0.0
  0
VERTEX
  5
2B3
  8
0
 62
     2
 10
-145.0
 20
46.0
 30
0.0
  0
SEQEND
  5
2B4
  8
0
 62
     2
  0
POLYLINE
  5
56
  8
0
 62
     2
 66
     1
 10
0.0
 20
0.0
 30
0.0
  0
VERTEX
  5
2B5
  8
0
 62
     2
 10
-158.0
 20
0.0
 30
0.0
  0
VERTEX
  5
2B6
  8
0
 62
     2
 10
-158.0
 20
46.0
 30
0.0
  0
SEQEND
  5
2B7
  8
0
 62
     2
  0
LINE
  5
57
  8
0
 62
     2
 10
-200.0
 20
6.0
 30
0.0
 11
-133.0
 21
6.0
 31
0.0
  0
POLYLINE
  5
58
  8
0
 62
     4
 66
     1
 10
0.0
 20
0.0
 30
0.0
  0
VERTEX
  5
2B8
  8
0
 62
     4
 10
-200.0
 20
11.0
 30
0.0
  0
VERTEX
  5
2B9
  8
0
 62
     4
 10
-133.0
 20
11.0
 30
0.0
  0
SEQEND
  5
2BA
  8
0
 62
     4
  0
POLYLINE
  5
59
  8
0
 62
     4
 66
     1
 10
0.0
 20
0.0
 30
0.0
  0
VERTEX
  5
2BB
  8
0
 62
     4
 10
-200.0
 20
16.0
 30
0.0
  0
VERTEX
  5
2BC
  8
0
 62
     4
 10
-133.0
 20
16.0
 30
0.0
  0
SEQEND
  5
2BD
  8
0
 62
     4
  0
POLYLINE
  5
5A
  8
0
 62
     4
 66
     1
 10
0.0
 20
0.0
 30
0.0
  0
VERTEX
  5
2BE
  8
0
 62
     4
 10
-200.0
 20
21.0
 30
0.0
  0
VERTEX
  5
2BF
  8
0
 62
     4
 10
-133.0
 20
21.0
 30
0.0
  0
SEQEND
  5
2C0
  8
0
 62
     4
  0
POLYLINE
  5
5B
  8
0
 62
     4
 66
     1
 10
0.0
 20
0.0
 30
0.0
  0
VERTEX
  5
2C1
  8
0
 62
     4
 10
-200.0
 20
26.0
 30
0.0
  0
VERTEX
  5
2C2
  8
0
 62
     4
 10
-133.0
 20
26.0
 30
0.0
  0
SEQEND
  5
2C3
  8
0
 62
     4
  0
POLYLINE
  5
5C
  8
0
 62
     4
 66
     1
 10
0.0
 20
0.0
 30
0.0
  0
VERTEX
  5
2C4
  8
0
 62
     4
 10
-200.0
 20
31.0
 30
0.0
  0
VERTEX
  5
2C5
  8
0
 62
     4
 10
-133.0
 20
31.0
 30
0.0
  0
SEQEND
  5
2C6
  8
0
 62
     4
  0
POLYLINE
  5
5D
  8
0
 62
     4
 66
     1
 10
0.0
 20
0.0
 30
0.0
  0
VERTEX
  5
2C7
  8
0
 62
     4
 10
-200.0
 20
36.0
 30
0.0
  0
VERTEX
  5
2C8
  8
0
 62
     4
 10
-133.0
 20
36.0
 30
0.0
  0
SEQEND
  5
2C9
  8
0
 62
     4
  0
POLYLINE
  5
5E
  8
0
 62
     4
 66
     1
 10
0.0
 20
0.0
 30
0.0
  0
VERTEX
  5
2CA
  8
0
 62
     4
 10
-200.0
 20
41.0
 30
0.0
  0
VERTEX
  5
2CB
  8
0
 62
     4
 10
-133.0
 20
41.0
 30
0.0
  0
SEQEND
  5
2CC
  8
0
 62
     4
  0
TEXT
  5
5F
  8
0
 62
     4
 10
-50.0
 20
6.0
 30
0.0
 40
1.5
  1
Zeichn. Nr.
 51
15.0
  0
TEXT
  5
60
  8
0
 62
     4
 10
-50.0
 20
23.0
 30
0.0
 40
1.5
  1
Ersetzt durch:         Blatt
 51
15.0
  0
TEXT
  5
61
  8
0
 62
     4
 10
-50.0
 20
38.0
 30
0.0
 40
1.5
  1
Gezeichnet
 51
15.0
  0
TEXT
  5
62
  8
0
 62
     4
 10
-50.0
 20
27.0
 30
0.0
 40
1.5
  1
Gesehen
 51
15.0
  0
TEXT
  5
63
  8
0
 62
     4
 10
-31.0
 20
42.0
 30
0.0
 40
1.5
  1
Datum     Name
 51
15.0
  0
TEXT
  5
64
  8
0
 62
     4
 10
-91.0
 20
42.0
 30
0.0
 40
1.5
  1
Werkstoff:      Massstab:
 51
15.0
  0
TEXT
  5
65
  8
0
 62
     4
 10
-132.0
 20
23.0
 30
0.0
 40
1.5
  1
Benennung:
 51
15.0
  0
LINE
  5
66
  8
0
 62
     2
 10
-133.0
 20
33.0
 30
0.0
 11
-92.0
 21
33.0
 31
0.0
  0
TEXT
  5
67
  8
0
 62
     4
 10
-132.0
 20
39.0
 30
0.0
 40
1.5
  1
*)Lieferant darf ohne 
 51
15.0
  0
TEXT
  5
68
  8
0
 62
     4
 10
-132.0
 20
36.5
 30
0.0
 40
1.5
  1
 Ruecksprache nicht 
 51
15.0
  0
TEXT
  5
69
  8
0
 62
     4
 10
-132.0
 20
34.0
 30
0.0
 40
1.5
  1
 geaendert werden
 51
15.0
  0
TEXT
  5
6A
  8
0
 62
     4
 10
-132.0
 20
30.0
 30
0.0
 40
1.5
  1
Zeichnung urheberrechtlich
 51
15.0
  0
TEXT
  5
6B
  8
0
 62
     4
 10
-132.0
 20
27.5
 30
0.0
 40
1.5
  1
geschuetzt (DIN 34) (C)
 51
15.0
  0
TEXT
  5
6C
  8
0
 62
     4
 10
-50.0
 20
32.0
 30
0.0
 40
1.5
  1
Geprueft
 51
15.0
  0
TEXT
  5
6D
  8
0
 62
     4
 10
-50.0
 20
15.0
 30
0.0
 40
1.5
  1
Ersatz fuer:           von  Blatt
 51
15.0
  0
TEXT
  5
6E
  8
0
 62
     4
 10
-197.0
 20
1.0
 30
0.0
 40
1.5
  1
Ind.  Aenderung             Datum    Name
 51
15.0
  0
TEXT
  5
6F
  8
0
 62
     4
 10
-128.0
 20
3.0
 30
0.0
 40
3.005964
  1
NEUTRIK AG, FL-9494 SCHAAN
  7
UNIV
 72
     3
 11
-56.0
 21
3.0
 31
0.0
  0
ATTDEF
  5
71
  8
0
 62
     4
 10
-28.875
 20
37.0
 30
0.0
 40
2.5
  1
01.10.91
 41
0.7
 51
15.0
 72
     1
 11
-24.5
 21
37.0
 31
0.0
  3
Datum der Zeichnung ?
  2
DATE
 70
     0
  0
ATTDEF
  5
72
  8
0
 62
     4
 10
-80.5
 20
36.0
 30
0.0
 40
2.5
  1

 41
0.7
 51
15.0
 72
     1
 11
-80.5
 21
36.0
 31
0.0
  3
Aus welchem Werkstoff ?
  2
WERKSTOFF
 70
     0
  0
ATTDEF
  5
73
  8
0
 62
     2
 10
-92.0
 20
12.5
 30
0.0
 40
5.0
  1

 41
0.7
 51
15.0
 72
     1
 11
-92.0
 21
12.5
 31
0.0
  3
Zeichnungsname ?
  2
BENENNUNG
 70
     0
  0
ATTDEF
  5
74
  8
0
 62
     3
 10
-93.225
 20
21.0
 30
0.0
 40
3.5
  1
()
 41
0.7
 51
15.0
 72
     1
 11
-92.0
 21
21.0
 31
0.0
  3
Zu welchem Produkt ?
  2
TEIL
 70
     0
  0
ATTDEF
  5
75
  8
0
 62
     3
 10
-25.5
 20
2.0
 30
0.0
 40
3.5
  1

 41
0.7
 51
15.0
 72
     1
 11
-25.5
 21
2.0
 31
0.0
  3
Zeichnungsnummer ?
  2
NUMMER
 70
     0
  0
ATTDEF
  5
76
  8
0
 62
     2
 10
-63.860366
 20
34.930682
 30
0.0
 40
5.0
  1
5:1
 41
0.7
 51
15.0
 72
     1
 11
-60.943699
 21
34.930682
 31
0.0
  3
Hauptmassstab:
  2
MASS
 70
     0
  0
ATTDEF
  5
77
  8
0
 62
     3
 10
-60.0
 20
29.0
 30
0.0
 40
3.5
  1

 41
0.7
 51
15.0
 72
     1
 11
-60.0
 21
29.0
 31
0.0
  3
Nebenmassstab:
  2
MASS2
 70
     0
  0
ATTDEF
  5
78
  8
0
 62
     4
 10
-81.0
 20
29.0
 30
0.0
 40
2.5
  1

 41
0.7
 51
15.0
 72
     1
 11
-81.0
 21
29.0
 31
0.0
  3
Werkstoffzusatz:
  2
TEIL
 70
     0
  0
ATTDEF
  5
79
  8
0
 62
     3
 10
-99.549591
 20
59.004319
 30
0.0
 40
3.5
  1
Freimasstoleranzen %%p0.1
 41
0.7
 51
15.0
  3
Freimasstoleranzen:
  2
TOL
 70
     0
  0
ATTDEF
  5
7A
  8
0
 62
     3
 10
-99.549591
 20
54.004319
 30
0.0
 40
3.5
  1
nicht bemasste Radien R=0.2
 41
0.7
 51
15.0
  3
Nicht bemasste Radien:
  2
RADIEN
 70
     0
  0
ATTDEF
  5
7B
  8
0
 62
     3
 10
-99.549591
 20
49.004319
 30
0.0
 40
3.5
  1
nicht bemasste Facetten 0.5 x 45%%D
 41
0.7
 51
15.0
  3
nicht bemasste Facetten:
  2
FACETTE
 70
     0
  0
POLYLINE
  5
7C
  8
0
 62
     2
 66
     1
 10
0.0
 20
0.0
 30
0.0
  0
VERTEX
  5
2CD
  8
0
 62
     2
 10
-191.0
 20
0.0
 30
0.0
  0
VERTEX
  5
2CE
  8
0
 62
     2
 10
-191.0
 20
46.0
 30
0.0
  0
SEQEND
  5
2CF
  8
0
 62
     2
  0
POLYLINE
  5
7D
  8
0
 62
     2
 66
     1
 10
0.0
 20
0.0
 30
0.0
  0
VERTEX
  5
2D0
  8
0
 62
     2
 10
-133.0
 20
0.0
 30
0.0
  0
VERTEX
  5
2D1
  8
0
 62
     2
 10
-133.0
 20
46.0
 30
0.0
  0
SEQEND
  5
2D2
  8
0
 62
     2
  0
POLYLINE
  5
7E
  8
0
 62
     2
 66
     1
 10
0.0
 20
0.0
 30
0.0
  0
VERTEX
  5
2D3
  8
0
 62
     2
 10
-92.0
 20
26.0
 30
0.0
  0
VERTEX
  5
2D4
  8
0
 62
     2
 10
-92.0
 20
46.0
 30
0.0
  0
SEQEND
  5
2D5
  8
0
 62
     2
  0
POLYLINE
  5
7F
  8
0
 62
     2
 66
     1
 10
0.0
 20
0.0
 30
0.0
  0
VERTEX
  5
2D6
  8
0
 62
     2
 10
-69.0
 20
26.0
 30
0.0
  0
VERTEX
  5
2D7
  8
0
 62
     2
 10
-69.0
 20
46.0
 30
0.0
  0
SEQEND
  5
2D8
  8
0
 62
     2
  0
ATTDEF
  5
80
  8
0
 62
     4
 10
-197.186267
 20
7.0
 30
0.0
 40
2.5
  1

 41
0.7
 51
15.0
  3
Index1:
  2
INDEX1
 70
     0
  0
ATTDEF
  5
81
  8
0
 62
     4
 10
-190.348743
 20
7.0
 30
0.0
 40
2.5
  1

 41
0.7
 51
15.0
  3
Aenderung1:
  2
A1
 70
     0
  0
ATTDEF
  5
82
  8
0
 62
     4
 10
-157.348743
 20
7.0
 30
0.0
 40
2.5
  1

 41
0.7
 51
15.0
  3
Datum1:
  2
DATUM1
 70
     0
  0
ATTDEF
  5
83
  8
0
 62
     4
 10
-144.46499
 20
7.0
 30
0.0
 40
2.5
  1

 41
0.7
 51
15.0
  3
Name1:
  2
NAME1
 70
     0
  0
ATTDEF
  5
84
  8
0
 62
     4
 10
-197.186267
 20
12.0
 30
0.0
 40
2.5
  1

 41
0.7
 51
15.0
  3
Index2:
  2
INDEX2
 70
     0
  0
ATTDEF
  5
85
  8
0
 62
     4
 10
-190.348743
 20
12.0
 30
0.0
 40
2.5
  1

 41
0.7
 51
15.0
  3
Aenderung2:
  2
A2
 70
     0
  0
ATTDEF
  5
86
  8
0
 62
     4
 10
-157.348743
 20
12.0
 30
0.0
 40
2.5
  1

 41
0.7
 51
15.0
  3
Datum2:
  2
DATUM2
 70
     0
  0
ATTDEF
  5
87
  8
0
 62
     4
 10
-144.46499
 20
12.0
 30
0.0
 40
2.5
  1

 41
0.7
 51
15.0
  3
Name2
  2
NAME2
 70
     0
  0
ATTDEF
  5
88
  8
0
 62
     4
 10
-197.186267
 20
17.0
 30
0.0
 40
2.5
  1

 41
0.7
 51
15.0
  3
Index3:
  2
INDEX3
 70
     0
  0
ATTDEF
  5
89
  8
0
 62
     4
 10
-190.348743
 20
17.0
 30
0.0
 40
2.5
  1

 41
0.7
 51
15.0
  3
Aenderung3
  2
A3
 70
     0
  0
ATTDEF
  5
8A
  8
0
 62
     4
 10
-157.348743
 20
17.0
 30
0.0
 40
2.5
  1

 41
0.7
 51
15.0
  3
Datum3:
  2
DATUM3
 70
     0
  0
ATTDEF
  5
8B
  8
0
 62
     4
 10
-144.46499
 20
17.0
 30
0.0
 40
2.5
  1

 41
0.7
 51
15.0
  3
Name3:
  2
NAME3
 70
     0
  0
ATTDEF
  5
8C
  8
0
 62
     4
 10
-197.186267
 20
22.0
 30
0.0
 40
2.5
  1

 41
0.7
 51
15.0
  3
Index4:
  2
INDEX4
 70
     0
  0
ATTDEF
  5
8D
  8
0
 62
     4
 10
-190.348743
 20
22.0
 30
0.0
 40
2.5
  1

 41
0.7
 51
15.0
  3
Aenderung4:
  2
A4
 70
     0
  0
ATTDEF
  5
8E
  8
0
 62
     4
 10
-157.348743
 20
22.0
 30
0.0
 40
2.5
  1

 41
0.7
 51
15.0
  3
Datum4:
  2
DATUM4
 70
     0
  0
ATTDEF
  5
8F
  8
0
 62
     4
 10
-144.46499
 20
22.0
 30
0.0
 40
2.5
  1

 41
0.7
 51
15.0
  3
Name4:
  2
NAME4
 70
     0
  0
ATTDEF
  5
90
  8
0
 62
     4
 10
-197.186267
 20
27.0
 30
0.0
 40
2.5
  1

 41
0.7
 51
15.0
  3
Index5:
  2
INDEX5
 70
     0
  0
ATTDEF
  5
91
  8
0
 62
     4
 10
-190.348743
 20
27.0
 30
0.0
 40
2.5
  1

 41
0.7
 51
15.0
  3
Aenderung5:
  2
A5
 70
     0
  0
ATTDEF
  5
92
  8
0
 62
     4
 10
-157.348743
 20
27.0
 30
0.0
 40
2.5
  1

 41
0.7
 51
15.0
  3
Datum5:
  2
DATUM5
 70
     0
  0
ATTDEF
  5
93
  8
0
 62
     4
 10
-144.46499
 20
27.0
 30
0.0
 40
2.5
  1

 41
0.7
 51
15.0
  3
Name5
  2
NAME5
 70
     0
  0
ATTDEF
  5
94
  8
0
 62
     4
 10
-197.186267
 20
32.0
 30
0.0
 40
2.5
  1

 41
0.7
 51
15.0
  3
Index6:
  2
INDEX6
 70
     0
  0
ATTDEF
  5
95
  8
0
 62
     4
 10
-190.348743
 20
32.0
 30
0.0
 40
2.5
  1

 41
0.7
 51
15.0
  3
Aenderung6:
  2
A6
 70
     0
  0
ATTDEF
  5
96
  8
0
 62
     4
 10
-157.348743
 20
32.0
 30
0.0
 40
2.5
  1

 41
0.7
 51
15.0
  3
Datum6:
  2
DATUM6
 70
     0
  0
ATTDEF
  5
97
  8
0
 62
     4
 10
-144.46499
 20
32.0
 30
0.0
 40
2.5
  1

 41
0.7
 51
15.0
  3
Name6:
  2
NAME6
 70
     0
  0
ATTDEF
  5
98
  8
0
 62
     4
 10
-197.186267
 20
37.0
 30
0.0
 40
2.5
  1

 41
0.7
 51
15.0
  3
Index7:
  2
INDEX7
 70
     0
  0
ATTDEF
  5
99
  8
0
 62
     4
 10
-190.348743
 20
37.0
 30
0.0
 40
2.5
  1

 41
0.7
 51
15.0
  3
Aenderung7:
  2
A7
 70
     0
  0
ATTDEF
  5
9A
  8
0
 62
     4
 10
-157.348743
 20
37.0
 30
0.0
 40
2.5
  1

 41
0.7
 51
15.0
  3
Datum7:
  2
DATUM7
 70
     0
  0
ATTDEF
  5
9B
  8
0
 62
     4
 10
-144.46499
 20
37.0
 30
0.0
 40
2.5
  1

 41
0.7
 51
15.0
  3
Name7:
  2
NAME7
 70
     0
  0
ATTDEF
  5
9C
  8
0
 62
     4
 10
-197.186267
 20
42.0
 30
0.0
 40
2.5
  1

 41
0.7
 51
15.0
  3
Index8:
  2
INDEX8
 70
     0
  0
ATTDEF
  5
9D
  8
0
 62
     4
 10
-190.348743
 20
42.0
 30
0.0
 40
2.5
  1

 41
0.7
 51
15.0
  3
Aenderung8:
  2
A8
 70
     0
  0
ATTDEF
  5
9E
  8
0
 62
     4
 10
-157.348743
 20
42.0
 30
0.0
 40
2.5
  1

 41
0.7
 51
15.0
  3
Datum8:
  2
DATUM8
 70
     0
  0
ATTDEF
  5
9F
  8
0
 62
     4
 10
-144.46499
 20
42.0
 30
0.0
 40
2.5
  1

 41
0.7
 51
15.0
  3
Name8:
  2
NAME8
 70
     0
  0
POLYLINE
  5
A0
  8
0
 62
     2
 66
     1
 10
0.0
 20
0.0
 30
0.0
  0
VERTEX
  5
2D9
  8
0
 62
     2
 10
0.0
 20
0.0
 30
0.0
  0
VERTEX
  5
2DA
  8
0
 62
     2
 10
0.0
 20
46.0
 30
0.0
  0
SEQEND
  5
2DB
  8
0
 62
     2
  0
POLYLINE
  5
A1
  8
0
 62
     2
 66
     1
 10
0.0
 20
0.0
 30
0.0
  0
VERTEX
  5
2DC
  8
0
 62
     2
 10
-200.0
 20
46.0
 30
0.0
  0
VERTEX
  5
2DD
  8
0
 62
     2
 10
-200.0
 20
0.0
 30
0.0
  0
SEQEND
  5
2DE
  8
0
 62
     2
  0
POLYLINE
  5
A2
  8
0
 62
     2
 66
     1
 10
0.0
 20
0.0
 30
0.0
  0
VERTEX
  5
2DF
  8
0
 62
     2
 10
0.0
 20
9.0
 30
0.0
  0
VERTEX
  5
2E0
  8
0
 62
     2
 10
-133.0
 20
9.0
 30
0.0
  0
SEQEND
  5
2E1
  8
0
 62
     2
  0
POLYLINE
  5
A3
  8
0
 62
     2
 66
     1
 10
0.0
 20
0.0
 30
0.0
  0
VERTEX
  5
2E2
  8
0
 62
     2
 10
0.0
 20
18.0
 30
0.0
  0
VERTEX
  5
2E3
  8
0
 62
     2
 10
-51.0
 20
18.0
 30
0.0
  0
SEQEND
  5
2E4
  8
0
 62
     2
  0
POLYLINE
  5
A4
  8
0
 62
     2
 66
     1
 10
0.0
 20
0.0
 30
0.0
  0
VERTEX
  5
2E5
  8
0
 62
     2
 10
0.0
 20
26.0
 30
0.0
  0
VERTEX
  5
2E6
  8
0
 62
     2
 10
-133.0
 20
26.0
 30
0.0
  0
SEQEND
  5
2E7
  8
0
 62
     2
  0
POLYLINE
  5
A5
  8
0
 62
     2
 66
     1
 10
0.0
 20
0.0
 30
0.0
  0
VERTEX
  5
2E8
  8
0
 62
     2
 10
0.0
 20
31.0
 30
0.0
  0
VERTEX
  5
2E9
  8
0
 62
     2
 10
-51.0
 20
31.0
 30
0.0
  0
SEQEND
  5
2EA
  8
0
 62
     2
  0
POLYLINE
  5
A6
  8
0
 62
     2
 66
     1
 10
0.0
 20
0.0
 30
0.0
  0
VERTEX
  5
2EB
  8
0
 62
     2
 10
0.0
 20
36.0
 30
0.0
  0
VERTEX
  5
2EC
  8
0
 62
     2
 10
-51.0
 20
36.0
 30
0.0
  0
SEQEND
  5
2ED
  8
0
 62
     2
  0
POLYLINE
  5
A7
  8
0
 62
     2
 66
     1
 10
0.0
 20
0.0
 30
0.0
  0
VERTEX
  5
2EE
  8
0
 62
     2
 10
0.0
 20
41.0
 30
0.0
  0
VERTEX
  5
2EF
  8
0
 62
     2
 10
-51.0
 20
41.0
 30
0.0
  0
SEQEND
  5
2F0
  8
0
 62
     2
  0
POLYLINE
  5
A8
  8
0
 62
     2
 66
     1
 10
0.0
 20
0.0
 30
0.0
  0
VERTEX
  5
2F1
  8
0
 62
     2
 10
0.0
 20
46.0
 30
0.0
  0
VERTEX
  5
2F2
  8
0
 62
     2
 10
-200.0
 20
46.0
 30
0.0
  0
SEQEND
  5
2F3
  8
0
 62
     2
  0
ENDBLK
  5
AA
  8
0
  0
BLOCK
  8
0
  2
*X1
 70
     1
 10
0.0
 20
0.0
 30
0.0
  3
*X1
  1

  0
LINE
  5
124
  8
0
 62
     0
 10
51.502223
 20
198.933987
 30
0.0
 11
51.856175
 21
199.287939
 31
0.0
  0
LINE
  5
125
  8
0
 62
     0
 10
56.093234
 20
203.524998
 30
0.0
 11
56.447187
 21
203.878951
 31
0.0
  0
LINE
  5
126
  8
0
 62
     0
 10
51.323989
 20
199.109306
 30
0.0
 11
51.677698
 21
199.463015
 31
0.0
  0
LINE
  5
127
  8
0
 62
     0
 10
55.918158
 20
203.703476
 30
0.0
 11
56.271868
 21
204.057185
 31
0.0
  0
LINE
  5
128
  8
0
 62
     0
 10
51.158412
 20
199.297283
 30
0.0
 11
51.514
 21
199.652871
 31
0.0
  0
LINE
  5
129
  8
0
 62
     0
 10
55.728303
 20
203.867173
 30
0.0
 11
56.083891
 21
204.222762
 31
0.0
  0
LINE
  5
12A
  8
0
 62
     0
 10
51.005667
 20
199.498091
 30
0.0
 11
51.365362
 21
199.857786
 31
0.0
  0
LINE
  5
12B
  8
0
 62
     0
 10
55.523388
 20
204.015812
 30
0.0
 11
55.883083
 21
204.375507
 31
0.0
  0
LINE
  5
12C
  8
0
 62
     0
 10
50.866139
 20
199.712117
 30
0.0
 11
51.232406
 21
200.078384
 31
0.0
  0
LINE
  5
12D
  8
0
 62
     0
 10
55.30279
 20
204.148767
 30
0.0
 11
55.669057
 21
204.515034
 31
0.0
  0
LINE
  5
12E
  8
0
 62
     0
 10
50.740457
 20
199.939987
 30
0.0
 11
51.116179
 21
200.315709
 31
0.0
  0
LINE
  5
12F
  8
0
 62
     0
 10
55.065464
 20
204.264995
 30
0.0
 11
55.441186
 21
204.640717
 31
0.0
  0
LINE
  5
130
  8
0
 62
     0
 10
50.629548
 20
200.182632
 30
0.0
 11
51.01828
 21
200.571364
 31
0.0
  0
LINE
  5
131
  8
0
 62
     0
 10
54.809809
 20
204.362894
 30
0.0
 11
55.198541
 21
204.751625
 31
0.0
  0
LINE
  5
132
  8
0
 62
     0
 10
50.534739
 20
200.441377
 30
0.0
 11
50.941124
 21
200.847762
 31
0.0
  0
LINE
  5
133
  8
0
 62
     0
 10
54.533412
 20
204.44005
 30
0.0
 11
54.939797
 21
204.846434
 31
0.0
  0
LINE
  5
134
  8
0
 62
     0
 10
50.457911
 20
200.718102
 30
0.0
 11
50.888414
 21
201.148605
 31
0.0
  0
LINE
  5
135
  8
0
 62
     0
 10
54.232569
 20
204.49276
 30
0.0
 11
54.663071
 21
204.923262
 31
0.0
  0
LINE
  5
136
  8
0
 62
     0
 10
50.401783
 20
201.015528
 30
0.0
 11
50.866134
 21
201.479878
 31
0.0
  0
LINE
  5
137
  8
0
 62
     0
 10
53.901296
 20
204.51504
 30
0.0
 11
54.365646
 21
204.97939
 31
0.0
  0
LINE
  5
138
  8
0
 62
     0
 10
50.37043
 20
201.337728
 30
0.0
 11
50.884908
 21
201.852206
 31
0.0
  0
LINE
  5
139
  8
0
 62
     0
 10
53.528967
 20
204.496265
 30
0.0
 11
54.043446
 21
205.010744
 31
0.0
  0
LINE
  5
13A
  8
0
 62
     0
 10
50.370351
 20
201.691202
 30
0.0
 11
50.96716
 21
202.288011
 31
0.0
  0
LINE
  5
13B
  8
0
 62
     0
 10
53.093162
 20
204.414014
 30
0.0
 11
53.689972
 21
205.010823
 31
0.0
  0
LINE
  5
13C
  8
0
 62
     0
 10
50.413009
 20
202.087414
 30
0.0
 11
51.182802
 21
202.857207
 31
0.0
  0
LINE
  5
13D
  8
0
 62
     0
 10
52.523967
 20
204.198372
 30
0.0
 11
53.29376
 21
204.968164
 31
0.0
  0
LINE
  5
13E
  8
0
 62
     0
 10
50.522532
 20
202.55049
 30
0.0
 11
52.830683
 21
204.858641
 31
0.0
  0
LINE
  5
13F
  8
0
 62
     0
 10
50.774159
 20
203.15567
 30
0.0
 11
52.225503
 21
204.607015
 31
0.0
  0
LINE
  5
140
  8
0
 62
     0
 10
51.693137
 20
198.771348
 30
0.0
 11
52.049469
 21
199.127679
 31
0.0
  0
LINE
  5
141
  8
0
 62
     0
 10
56.253494
 20
203.331705
 30
0.0
 11
56.609826
 21
203.688037
 31
0.0
  0
LINE
  5
142
  8
0
 62
     0
 10
51.896952
 20
198.62161
 30
0.0
 11
52.257933
 21
198.98259
 31
0.0
  0
LINE
  5
143
  8
0
 62
     0
 10
56.398584
 20
203.123241
 30
0.0
 11
56.759564
 21
203.484221
 31
0.0
  0
LINE
  5
144
  8
0
 62
     0
 10
52.114107
 20
198.48521
 30
0.0
 11
52.48228
 21
198.853384
 31
0.0
  0
LINE
  5
145
  8
0
 62
     0
 10
56.52779
 20
202.898894
 30
0.0
 11
56.895963
 21
203.267067
 31
0.0
  0
LINE
  5
146
  8
0
 62
     0
 10
52.345291
 20
198.362841
 30
0.0
 11
52.723667
 21
198.741218
 31
0.0
  0
LINE
  5
147
  8
0
 62
     0
 10
56.639956
 20
202.657506
 30
0.0
 11
57.018332
 21
203.035883
 31
0.0
  0
LINE
  5
148
  8
0
 62
     0
 10
52.591515
 20
198.255512
 30
0.0
 11
52.983857
 21
198.647853
 31
0.0
  0
LINE
  5
149
  8
0
 62
     0
 10
56.73332
 20
202.397317
 30
0.0
 11
57.125661
 21
202.789658
 31
0.0
  0
LINE
  5
14A
  8
0
 62
     0
 10
52.854216
 20
198.16466
 30
0.0
 11
53.265503
 21
198.575947
 31
0.0
  0
LINE
  5
14B
  8
0
 62
     0
 10
56.805227
 20
202.11567
 30
0.0
 11
57.216514
 21
202.526957
 31
0.0
  0
LINE
  5
14C
  8
0
 62
     0
 10
53.135438
 20
198.092328
 30
0.0
 11
53.572721
 21
198.529611
 31
0.0
  0
LINE
  5
14D
  8
0
 62
     0
 10
56.851563
 20
201.808453
 30
0.0
 11
57.288846
 21
202.245736
 31
0.0
  0
LINE
  5
14E
  8
0
 62
     0
 10
53.438152
 20
198.041488
 30
0.0
 11
53.91227
 21
198.515607
 31
0.0
  0
LINE
  5
14F
  8
0
 62
     0
 10
56.865567
 20
201.468904
 30
0.0
 11
57.339685
 21
201.943022
 31
0.0
  0
LINE
  5
150
  8
0
 62
     0
 10
53.766867
 20
198.016651
 30
0.0
 11
54.296529
 21
198.546313
 31
0.0
  0
LINE
  5
151
  8
0
 62
     0
 10
56.834861
 20
201.084644
 30
0.0
 11
57.364523
 21
201.614306
 31
0.0
  0
LINE
  5
152
  8
0
 62
     0
 10
54.128913
 20
198.025143
 30
0.0
 11
54.753244
 21
198.649474
 31
0.0
  0
LINE
  5
153
  8
0
 62
     0
 10
56.7317
 20
200.62793
 30
0.0
 11
57.356031
 21
201.252261
 31
0.0
  0
LINE
  5
154
  8
0
 62
     0
 10
54.537633
 20
198.080309
 30
0.0
 11
55.386461
 21
198.929138
 31
0.0
  0
LINE
  5
155
  8
0
 62
     0
 10
56.452036
 20
199.994713
 30
0.0
 11
57.300864
 21
200.843541
 31
0.0
  0
LINE
  5
156
  8
0
 62
     0
 10
55.022874
 20
198.211997
 30
0.0
 11
57.169176
 21
200.358299
 31
0.0
  0
LINE
  5
157
  8
0
 62
     0
 10
55.696657
 20
198.532226
 30
0.0
 11
56.848947
 21
199.684517
 31
0.0
  0
ENDBLK
  5
159
  8
0
  0
BLOCK
  8
0
  2
*X2
 70
     1
 10
0.0
 20
0.0
 30
0.0
  3
*X2
  1

  0
LINE
  5
1A4
  8
0
 62
     0
 10
51.910248
 20
200.402672
 30
0.0
 11
52.206011
 21
200.698435
 31
0.0
  0
LINE
  5
1A5
  8
0
 62
     0
 10
51.793402
 20
200.639379
 30
0.0
 11
52.104303
 21
200.950281
 31
0.0
  0
LINE
  5
1A6
  8
0
 62
     0
 10
52.950675
 20
201.796653
 30
0.0
 11
53.220111
 21
202.066088
 31
0.0
  0
LINE
  5
1A7
  8
0
 62
     0
 10
51.70141
 20
200.900941
 30
0.0
 11
52.037036
 21
201.236566
 31
0.0
  0
LINE
  5
1A8
  8
0
 62
     0
 10
52.723668
 20
201.923198
 30
0.0
 11
53.017697
 21
202.217227
 31
0.0
  0
LINE
  5
1A9
  8
0
 62
     0
 10
51.639222
 20
201.192306
 30
0.0
 11
52.01673
 21
201.569814
 31
0.0
  0
LINE
  5
1AA
  8
0
 62
     0
 10
52.496684
 20
202.049768
 30
0.0
 11
52.790713
 21
202.343797
 31
0.0
  0
LINE
  5
1AB
  8
0
 62
     0
 10
51.615937
 20
201.522575
 30
0.0
 11
52.075918
 21
201.982556
 31
0.0
  0
LINE
  5
1AC
  8
0
 62
     0
 10
52.269701
 20
202.176338
 30
0.0
 11
52.56373
 21
202.470367
 31
0.0
  0
LINE
  5
1AD
  8
0
 62
     0
 10
51.651045
 20
201.911236
 30
0.0
 11
52.336746
 21
202.596937
 31
0.0
  0
LINE
  5
1AE
  8
0
 62
     0
 10
51.805526
 20
202.41927
 30
0.0
 11
52.101173
 21
202.714917
 31
0.0
  0
LINE
  5
1AF
  8
0
 62
     0
 10
52.049103
 20
200.187974
 30
0.0
 11
52.336108
 21
200.474979
 31
0.0
  0
LINE
  5
1B0
  8
0
 62
     0
 10
52.286054
 20
200.071371
 30
0.0
 11
52.435021
 21
200.220339
 31
0.0
  0
ENDBLK
  5
1B2
  8
0
  0
ENDSEC
  0
SECTION
  2
ENTITIES
  0
POLYLINE
  5
1E
  8
RAHMEN
 66
     1
 10
0.0
 20
0.0
 30
0.0
 70
     1
  0
VERTEX
  5
2A1
  8
RAHMEN
 10
202.0
 20
5.0
 30
0.0
  0
VERTEX
  5
2A2
  8
RAHMEN
 10
402.0
 20
5.0
 30
0.0
  0
VERTEX
  5
2A3
  8
RAHMEN
 10
402.0
 20
282.0
 30
0.0
  0
VERTEX
  5
2A4
  8
RAHMEN
 10
202.0
 20
282.0
 30
0.0
  0
SEQEND
  5
2A5
  8
RAHMEN
  0
INSERT
  5
20
  8
05
 66
     1
  2
ZKOPF
 10
402.0
 20
5.0
 30
0.0
  0
ATTRIB
  5
21
  8
0
 62
     4
 10
388.797619
 20
42.0
 30
0.0
 40
2.5
  1
Loretz
  7
SCRIPTS
 72
     1
 11
393.5
 21
42.0
 31
0.0
  2
NAME
 70
     0
  0
ATTRIB
  5
23
  8
0
 62
     4
 10
373.416667
 20
42.0
 30
0.0
 40
2.5
  1
3.11.94
 41
0.7
 51
15.0
 72
     1
 11
377.5
 21
42.0
 31
0.0
  2
DATE
 70
     0
  0
ATTRIB
  5
24
  8
0
 62
     4
 10
315.666667
 20
41.0
 30
0.0
 40
2.5
  1
Neopren
 41
0.7
 51
15.0
 72
     1
 11
321.5
 21
41.0
 31
0.0
  2
WERKSTOFF
 70
     0
  0
ATTRIB
  5
25
  8
0
 62
     2
 10
303.583333
 20
17.5
 30
0.0
 40
5.0
  1
SCDM
 41
0.7
 51
15.0
 72
     1
 11
310.0
 21
17.5
 31
0.0
  2
BENENNUNG
 70
     0
  0
ATTRIB
  5
26
  8
0
 62
     3
 10
302.65
 20
26.0
 30
0.0
 40
3.5
  1
X-Serie
 41
0.7
 51
15.0
 72
     1
 11
310.0
 21
26.0
 31
0.0
  2
TEIL
 70
     0
  0
ATTRIB
  5
27
  8
0
 62
     3
 10
376.5
 20
7.0
 30
0.0
 40
3.5
  1

 41
0.7
 51
15.0
 72
     1
 11
376.5
 21
7.0
 31
0.0
  2
NUMMER
 70
     0
  0
ATTRIB
  5
28
  8
0
 62
     2
 10
341.056301
 20
39.930682
 30
0.0
 40
5.0
  1

 41
0.7
 51
15.0
 72
     1
 11
341.056301
 21
39.930682
 31
0.0
  2
MASS
 70
     0
  0
ATTRIB
  5
29
  8
0
 62
     3
 10
342.0
 20
34.0
 30
0.0
 40
3.5
  1

 41
0.7
 51
15.0
 72
     1
 11
342.0
 21
34.0
 31
0.0
  2
MASS2
 70
     0
  0
ATTRIB
  5
2A
  8
0
 62
     4
 10
321.0
 20
34.0
 30
0.0
 40
2.5
  1

 41
0.7
 51
15.0
 72
     1
 11
321.0
 21
34.0
 31
0.0
  2
TEIL
 70
     0
  0
ATTRIB
  5
2B
  8
0
 62
     3
 10
302.450409
 20
64.004319
 30
0.0
 40
3.5
  1
 
 41
0.7
 51
15.0
  2
TOL
 70
     0
  0
ATTRIB
  5
2C
  8
0
 62
     3
 10
302.450409
 20
59.004319
 30
0.0
 40
3.5
  1

 41
0.7
 51
15.0
  2
RADIEN
 70
     0
  0
ATTRIB
  5
2D
  8
0
 62
     3
 10
302.450409
 20
54.004319
 30
0.0
 40
3.5
  1

 41
0.7
 51
15.0
  2
FACETTE
 70
     0
  0
ATTRIB
  5
2E
  8
0
 62
     4
 10
204.813733
 20
12.0
 30
0.0
 40
2.5
  1

 41
0.7
 51
15.0
  2
INDEX1
 70
     0
  0
ATTRIB
  5
2F
  8
0
 62
     4
 10
211.651257
 20
12.0
 30
0.0
 40
2.5
  1

 41
0.7
 51
15.0
  2
A1
 70
     0
  0
ATTRIB
  5
30
  8
0
 62
     4
 10
244.651257
 20
12.0
 30
0.0
 40
2.5
  1

 41
0.7
 51
15.0
  2
DATUM1
 70
     0
  0
ATTRIB
  5
31
  8
0
 62
     4
 10
257.53501
 20
12.0
 30
0.0
 40
2.5
  1

 41
0.7
 51
15.0
  2
NAME1
 70
     0
  0
ATTRIB
  5
32
  8
0
 62
     4
 10
204.813733
 20
17.0
 30
0.0
 40
2.5
  1

 41
0.7
 51
15.0
  2
INDEX2
 70
     0
  0
ATTRIB
  5
33
  8
0
 62
     4
 10
211.651257
 20
17.0
 30
0.0
 40
2.5
  1

 41
0.7
 51
15.0
  2
A2
 70
     0
  0
ATTRIB
  5
34
  8
0
 62
     4
 10
244.651257
 20
17.0
 30
0.0
 40
2.5
  1

 41
0.7
 51
15.0
  2
DATUM2
 70
     0
  0
ATTRIB
  5
35
  8
0
 62
     4
 10
257.53501
 20
17.0
 30
0.0
 40
2.5
  1

 41
0.7
 51
15.0
  2
NAME2
 70
     0
  0
ATTRIB
  5
36
  8
0
 62
     4
 10
204.813733
 20
22.0
 30
0.0
 40
2.5
  1

 41
0.7
 51
15.0
  2
INDEX3
 70
     0
  0
ATTRIB
  5
37
  8
0
 62
     4
 10
211.651257
 20
22.0
 30
0.0
 40
2.5
  1

 41
0.7
 51
15.0
  2
A3
 70
     0
  0
ATTRIB
  5
38
  8
0
 62
     4
 10
244.651257
 20
22.0
 30
0.0
 40
2.5
  1

 41
0.7
 51
15.0
  2
DATUM3
 70
     0
  0
ATTRIB
  5
39
  8
0
 62
     4
 10
257.53501
 20
22.0
 30
0.0
 40
2.5
  1

 41
0.7
 51
15.0
  2
NAME3
 70
     0
  0
ATTRIB
  5
3A
  8
0
 62
     4
 10
204.813733
 20
27.0
 30
0.0
 40
2.5
  1

 41
0.7
 51
15.0
  2
INDEX4
 70
     0
  0
ATTRIB
  5
3B
  8
0
 62
     4
 10
211.651257
 20
27.0
 30
0.0
 40
2.5
  1

 41
0.7
 51
15.0
  2
A4
 70
     0
  0
ATTRIB
  5
3C
  8
0
 62
     4
 10
244.651257
 20
27.0
 30
0.0
 40
2.5
  1

 41
0.7
 51
15.0
  2
DATUM4
 70
     0
  0
ATTRIB
  5
3D
  8
0
 62
     4
 10
257.53501
 20
27.0
 30
0.0
 40
2.5
  1

 41
0.7
 51
15.0
  2
NAME4
 70
     0
  0
ATTRIB
  5
3E
  8
0
 62
     4
 10
204.813733
 20
32.0
 30
0.0
 40
2.5
  1

 41
0.7
 51
15.0
  2
INDEX5
 70
     0
  0
ATTRIB
  5
3F
  8
0
 62
     4
 10
211.651257
 20
32.0
 30
0.0
 40
2.5
  1

 41
0.7
 51
15.0
  2
A5
 70
     0
  0
ATTRIB
  5
40
  8
0
 62
     4
 10
244.651257
 20
32.0
 30
0.0
 40
2.5
  1

 41
0.7
 51
15.0
  2
DATUM5
 70
     0
  0
ATTRIB
  5
41
  8
0
 62
     4
 10
257.53501
 20
32.0
 30
0.0
 40
2.5
  1

 41
0.7
 51
15.0
  2
NAME5
 70
     0
  0
ATTRIB
  5
42
  8
0
 62
     4
 10
204.813733
 20
37.0
 30
0.0
 40
2.5
  1

 41
0.7
 51
15.0
  2
INDEX6
 70
     0
  0
ATTRIB
  5
43
  8
0
 62
     4
 10
211.651257
 20
37.0
 30
0.0
 40
2.5
  1

 41
0.7
 51
15.0
  2
A6
 70
     0
  0
ATTRIB
  5
44
  8
0
 62
     4
 10
244.651257
 20
37.0
 30
0.0
 40
2.5
  1

 41
0.7
 51
15.0
  2
DATUM6
 70
     0
  0
ATTRIB
  5
45
  8
0
 62
     4
 10
257.53501
 20
37.0
 30
0.0
 40
2.5
  1

 41
0.7
 51
15.0
  2
NAME6
 70
     0
  0
ATTRIB
  5
46
  8
0
 62
     4
 10
204.813733
 20
42.0
 30
0.0
 40
2.5
  1

 41
0.7
 51
15.0
  2
INDEX7
 70
     0
  0
ATTRIB
  5
47
  8
0
 62
     4
 10
211.651257
 20
42.0
 30
0.0
 40
2.5
  1

 41
0.7
 51
15.0
  2
A7
 70
     0
  0
ATTRIB
  5
48
  8
0
 62
     4
 10
244.651257
 20
42.0
 30
0.0
 40
2.5
  1

 41
0.7
 51
15.0
  2
DATUM7
 70
     0
  0
ATTRIB
  5
49
  8
0
 62
     4
 10
257.53501
 20
42.0
 30
0.0
 40
2.5
  1

 41
0.7
 51
15.0
  2
NAME7
 70
     0
  0
ATTRIB
  5
4A
  8
0
 62
     4
 10
204.813733
 20
47.0
 30
0.0
 40
2.5
  1

 41
0.7
 51
15.0
  2
INDEX8
 70
     0
  0
ATTRIB
  5
4B
  8
0
 62
     4
 10
211.651257
 20
47.0
 30
0.0
 40
2.5
  1

 41
0.7
 51
15.0
  2
A8
 70
     0
  0
ATTRIB
  5
4C
  8
0
 62
     4
 10
244.651257
 20
47.0
 30
0.0
 40
2.5
  1

 41
0.7
 51
15.0
  2
DATUM8
 70
     0
  0
ATTRIB
  5
4D
  8
0
 62
     4
 10
257.53501
 20
47.0
 30
0.0
 40
2.5
  1

 41
0.7
 51
15.0
  2
NAME8
 70
     0
  0
SEQEND
  5
AB
  8
05
  0
LINE
  5
AC
  8
05
 10
319.851881
 20
146.282812
 30
0.0
 11
319.851881
 21
120.042812
 31
0.0
  0
LINE
  5
AD
  8
BEM1
 10
330.22956
 20
150.362812
 30
0.0
 11
330.22956
 21
115.962812
 31
0.0
  0
LINE
  5
AE
  8
SCHRAFFIERT
 10
302.731881
 20
140.53612
 30
0.0
 11
299.051881
 21
144.21612
 31
0.0
  0
LINE
  5
B0
  8
SCHRAFFIERT
 10
302.731881
 20
142.798862
 30
0.0
 11
299.051881
 21
146.478862
 31
0.0
  0
LINE
  5
B1
  8
SCHRAFFIERT
 10
299.051881
 20
141.939451
 30
0.0
 11
303.851881
 21
146.739451
 31
0.0
  0
LINE
  5
B2
  8
05
 10
302.731881
 20
143.962812
 30
0.0
 11
302.731881
 21
122.362812
 31
0.0
  0
ARC
  5
B3
  8
05
 10
237.470244
 20
133.162812
 30
0.0
 40
12.64
 50
5.427381
 51
84.572619
  0
ARC
  5
B4
  8
05
 10
237.470244
 20
133.162812
 30
0.0
 40
12.64
 50
95.427381
 51
174.572619
  0
CIRCLE
  5
B5
  8
05
 10
237.470244
 20
133.162812
 30
0.0
 40
17.2
  0
CIRCLE
  5
B6
  8
05
 10
237.470244
 20
133.162812
 30
0.0
 40
10.8
  0
LINE
  5
B7
  8
BEM1
 10
288.213325
 20
218.362812
 30
0.0
 11
288.213325
 21
111.962812
 31
0.0
  0
LINE
  5
B8
  8
035
 10
351.514592
 20
143.375227
 30
0.0
 11
349.992162
 21
144.918274
 31
0.0
  0
LINE
  5
BA
  8
035
 10
355.429567
 20
144.918274
 30
0.0
 11
354.908294
 21
142.566964
 31
0.0
  0
LINE
  5
BB
  8
035
 10
356.384787
 20
144.918274
 30
0.0
 11
355.863514
 21
142.566964
 31
0.0
  0
LINE
  5
BC
  8
035
 10
358.001313
 20
144.918274
 30
0.0
 11
357.48004
 21
142.566964
 31
0.0
  0
POLYLINE
  5
BD
  8
035
 66
     1
 10
0.0
 20
0.0
 30
0.0
  0
VERTEX
  5
2F4
  8
035
 10
360.573284
 20
143.625054
 30
0.0
 42
0.065514
  0
VERTEX
  5
2F5
  8
035
 10
360.402484
 20
143.601975
 30
0.0
 42
0.060566
  0
VERTEX
  5
2F6
  8
035
 10
360.254722
 20
143.542479
 30
0.0
 42
0.073981
  0
VERTEX
  5
2F7
  8
035
 10
360.150836
 20
143.463264
 30
0.0
 42
0.106894
  0
VERTEX
  5
2F8
  8
035
 10
360.085872
 20
143.359336
 30
0.0
 42
0.153048
  0
VERTEX
  5
2F9
  8
035
 10
360.08224
 20
143.272796
 30
0.0
 42
0.153048
  0
VERTEX
  5
2FA
  8
035
 10
360.128655
 20
143.199665
 30
0.0
 42
0.106894
  0
VERTEX
  5
2FB
  8
035
 10
360.23688
 20
143.142143
 30
0.0
 42
0.067948
  0
VERTEX
  5
2FC
  8
035
 10
360.355798
 20
143.1254
 30
0.0
 42
0.060506
  0
SEQEND
  5
2FD
  8
035
  0
POLYLINE
  5
BE
  8
035
 66
     1
 10
0.0
 20
0.0
 30
0.0
  0
VERTEX
  5
2FE
  8
035
 10
358.89239
 20
143.864874
 30
0.0
 42
0.015369
  0
VERTEX
  5
2FF
  8
035
 10
358.7848
 20
143.809811
 30
0.0
 42
0.073981
  0
VERTEX
  5
300
  8
035
 10
358.475232
 20
143.57376
 30
0.0
 42
0.106894
  0
VERTEX
  5
301
  8
035
 10
358.281647
 20
143.264066
 30
0.0
 42
0.153048
  0
VERTEX
  5
302
  8
035
 10
358.270825
 20
143.006185
 30
0.0
 42
0.153048
  0
VERTEX
  5
303
  8
035
 10
358.409137
 20
142.788264
 30
0.0
 42
0.106894
  0
VERTEX
  5
304
  8
035
 10
358.731634
 20
142.616854
 30
0.0
 42
0.067948
  0
VERTEX
  5
305
  8
035
 10
359.085996
 20
142.566964
 30
0.0
 42
0.060566
  0
SEQEND
  5
306
  8
035
  0
LINE
  5
BF
  8
035
 10
361.829405
 20
143.625054
 30
0.0
 11
361.718635
 21
143.1254
 31
0.0
  0
LINE
  5
C0
  8
035
 10
363.732631
 20
144.918274
 30
0.0
 11
363.211358
 21
142.566964
 31
0.0
  0
LINE
  5
C1
  8
035
 10
365.790028
 20
144.918274
 30
0.0
 11
365.399073
 21
143.154792
 31
0.0
  0
LINE
  5
C2
  8
035
 10
367.406553
 20
144.918274
 30
0.0
 11
367.015599
 21
143.154792
 31
0.0
  0
LINE
  5
C3
  8
035
 10
369.170014
 20
144.314245
 30
0.0
 11
368.782651
 21
142.566964
 31
0.0
  0
LINE
  5
C4
  8
035
 10
370.7292
 20
144.074025
 30
0.0
 11
370.395092
 21
142.566964
 31
0.0
  0
LINE
  5
C5
  8
035
 10
372.497005
 20
143.997786
 30
0.0
 11
372.1798
 21
142.566964
 31
0.0
  0
LINE
  5
C6
  8
035
 10
374.1543
 20
144.200047
 30
0.0
 11
373.792254
 21
142.566964
 31
0.0
  0
LINE
  5
C7
  8
035
 10
375.070012
 20
144.021837
 30
0.0
 11
374.946209
 21
143.463401
 31
0.0
  0
LINE
  5
C8
  8
035
 10
379.457018
 20
144.918274
 30
0.0
 11
378.935745
 21
142.566964
 31
0.0
  0
LINE
  5
C9
  8
035
 10
383.050538
 20
142.566964
 30
0.0
 11
381.588591
 21
143.595662
 31
0.0
  0
LINE
  5
CA
  8
035
 10
381.588591
 20
143.595662
 30
0.0
 11
381.360534
 21
142.566964
 31
0.0
  0
LINE
  5
CB
  8
035
 10
380.265281
 20
144.918274
 30
0.0
 11
379.744008
 21
142.566964
 31
0.0
  0
LINE
  5
CC
  8
035
 10
385.482251
 20
144.918274
 30
0.0
 11
384.960978
 21
142.566964
 31
0.0
  0
LINE
  5
CD
  8
MITTE
 10
367.753411
 20
223.265579
 30
0.0
 11
367.753411
 21
124.726254
 31
0.0
  0
LINE
  5
D0
  8
05
 10
388.553411
 20
213.162812
 30
0.0
 11
388.553411
 21
117.162812
 31
0.0
  0
LINE
  5
D1
  8
05
 10
346.953411
 20
213.162812
 30
0.0
 11
346.953411
 21
117.162812
 31
0.0
  0
LINE
  5
D2
  8
05
 10
299.051881
 20
221.162812
 30
0.0
 11
299.051881
 21
109.162812
 31
0.0
  0
LINE
  5
D3
  8
05
 10
258.270244
 20
213.162812
 30
0.0
 11
258.270244
 21
117.162812
 31
0.0
  0
LINE
  5
D4
  8
05
 10
216.670244
 20
213.162812
 30
0.0
 11
216.670244
 21
117.162812
 31
0.0
  0
LINE
  5
D5
  8
MITTE
 10
237.470244
 20
223.265579
 30
0.0
 11
237.470244
 21
108.17952
 31
0.0
  0
ARC
  5
D6
  8
05
 10
237.470244
 20
121.642812
 30
0.0
 40
1.6
 50
221.650368
 51
318.349632
  0
LINE
  5
D7
  8
05
 10
224.670244
 20
109.162812
 30
0.0
 11
250.270244
 21
109.162812
 31
0.0
  0
ARC
  5
D8
  8
05
 10
237.470244
 20
133.162812
 30
0.0
 40
12.64
 50
185.427381
 51
264.572619
  0
ARC
  5
D9
  8
05
 10
224.670244
 20
117.162812
 30
0.0
 40
8.0
 50
180.0
 51
270.0
  0
ARC
  5
DA
  8
05
 10
225.950244
 20
133.162812
 30
0.0
 40
1.6
 50
131.650368
 51
228.349632
  0
ARC
  5
DB
  8
05
 10
237.470244
 20
133.162812
 30
0.0
 40
12.64
 50
275.427381
 51
354.572619
  0
LINE
  5
DC
  8
025
 10
258.270244
 20
117.162812
 30
0.0
 11
250.270244
 21
109.162812
 31
0.0
  0
ARC
  5
DE
  8
05
 10
250.270244
 20
117.162812
 30
0.0
 40
8.0
 50
270.0
 51
0.0
  0
ARC
  5
DF
  8
05
 10
248.990244
 20
133.162812
 30
0.0
 40
1.6
 50
311.650368
 51
48.349632
  0
LINE
  5
E0
  8
BEM1
 10
319.851881
 20
114.045417
 30
0.0
 11
319.851881
 21
92.948767
 31
0.0
  0
TEXT
  5
E1
  8
BEM1
 62
     3
 10
306.185215
 20
95.788767
 30
0.0
 40
2.8
  1
13.00
 41
0.7
 51
15.0
 72
     1
 11
309.451881
 21
97.188767
 31
0.0
 73
     2
  0
LINE
  5
E2
  8
BEM1
 10
299.051881
 20
108.522812
 30
0.0
 11
299.051881
 21
92.948767
 31
0.0
  0
LINE
  5
E3
  8
BEM1
 10
301.851881
 20
94.388767
 30
0.0
 11
317.051881
 21
94.388767
 31
0.0
  0
SOLID
  5
E4
  8
BEM1
 10
301.851881
 20
94.855434
 30
0.0
 11
301.851881
 21
93.9221
 31
0.0
 12
299.051881
 22
94.388767
 32
0.0
 13
299.051881
 23
94.388767
 33
0.0
  0
SOLID
  5
E5
  8
BEM1
 10
317.051881
 20
94.855434
 30
0.0
 11
317.051881
 21
93.9221
 31
0.0
 12
319.851881
 22
94.388767
 32
0.0
 13
319.851881
 23
94.388767
 33
0.0
  0
LINE
  5
E6
  8
MITTE
 10
321.000064
 20
133.162812
 30
0.0
 11
296.889442
 21
133.162812
 31
0.0
  0
LINE
  5
E7
  8
SCHRAFFIERT
 10
302.731881
 20
138.273378
 30
0.0
 11
299.051881
 21
141.953378
 31
0.0
  0
LINE
  5
E8
  8
SCHRAFFIERT
 10
302.731881
 20
136.010637
 30
0.0
 11
299.051881
 21
139.690637
 31
0.0
  0
LINE
  5
E9
  8
SCHRAFFIERT
 10
302.731881
 20
133.747895
 30
0.0
 11
299.051881
 21
137.427895
 31
0.0
  0
LINE
  5
EA
  8
SCHRAFFIERT
 10
299.051881
 20
132.888484
 30
0.0
 11
302.731881
 21
136.568484
 31
0.0
  0
LINE
  5
EB
  8
SCHRAFFIERT
 10
299.051881
 20
135.151226
 30
0.0
 11
302.731881
 21
138.831226
 31
0.0
  0
LINE
  5
EC
  8
SCHRAFFIERT
 10
299.051881
 20
137.413967
 30
0.0
 11
302.731881
 21
141.093967
 31
0.0
  0
LINE
  5
ED
  8
SCHRAFFIERT
 10
299.051881
 20
139.676709
 30
0.0
 11
302.731881
 21
143.356709
 31
0.0
  0
LINE
  5
EE
  8
SCHRAFFIERT
 10
302.731881
 20
126.95967
 30
0.0
 11
299.051881
 21
130.63967
 31
0.0
  0
LINE
  5
EF
  8
SCHRAFFIERT
 10
302.731881
 20
124.696928
 30
0.0
 11
299.051881
 21
128.376928
 31
0.0
  0
LINE
  5
F0
  8
SCHRAFFIERT
 10
302.731881
 20
122.434186
 30
0.0
 11
299.051881
 21
126.114186
 31
0.0
  0
LINE
  5
F1
  8
SCHRAFFIERT
 10
303.851881
 20
119.051445
 30
0.0
 11
299.051881
 21
123.851445
 31
0.0
  0
LINE
  5
F2
  8
SCHRAFFIERT
 10
299.051881
 20
121.574775
 30
0.0
 11
302.731881
 21
125.254775
 31
0.0
  0
LINE
  5
F3
  8
SCHRAFFIERT
 10
299.051881
 20
123.837517
 30
0.0
 11
302.731881
 21
127.517517
 31
0.0
  0
LINE
  5
F4
  8
SCHRAFFIERT
 10
299.051881
 20
126.100259
 30
0.0
 11
302.731881
 21
129.780259
 31
0.0
  0
LINE
  5
F5
  8
SCHRAFFIERT
 10
299.051881
 20
128.363001
 30
0.0
 11
302.731881
 21
132.043001
 31
0.0
  0
LINE
  5
F6
  8
SCHRAFFIERT
 10
299.051881
 20
119.312034
 30
0.0
 11
302.731881
 21
122.992034
 31
0.0
  0
LINE
  5
F7
  8
05
 10
301.131881
 20
115.962812
 30
0.0
 11
303.851881
 21
115.962812
 31
0.0
  0
LINE
  5
F8
  8
SCHRAFFIERT
 10
303.851881
 20
116.788703
 30
0.0
 11
299.051881
 21
121.588703
 31
0.0
  0
LINE
  5
F9
  8
SCHRAFFIERT
 10
299.051881
 20
117.049292
 30
0.0
 11
304.365401
 21
122.362812
 31
0.0
  0
LINE
  5
FA
  8
SCHRAFFIERT
 10
299.051881
 20
114.78655
 30
0.0
 11
303.851881
 21
119.58655
 31
0.0
  0
LINE
  5
FB
  8
SCHRAFFIERT
 10
302.490884
 20
115.962812
 30
0.0
 11
303.851881
 21
117.323809
 31
0.0
  0
LINE
  5
FC
  8
SCHRAFFIERT
 10
302.731881
 20
131.485153
 30
0.0
 11
299.051881
 21
135.165153
 31
0.0
  0
LINE
  5
FD
  8
SCHRAFFIERT
 10
302.731881
 20
129.222412
 30
0.0
 11
299.051881
 21
132.902412
 31
0.0
  0
LINE
  5
FE
  8
SCHRAFFIERT
 10
299.051881
 20
130.625742
 30
0.0
 11
302.731881
 21
134.305742
 31
0.0
  0
LINE
  5
FF
  8
BEM1
 10
296.923538
 20
109.162812
 30
0.0
 11
286.773325
 21
109.162812
 31
0.0
  0
SOLID
  5
100
  8
BEM1
 10
287.746658
 20
111.962812
 30
0.0
 11
288.679991
 21
111.962812
 31
0.0
 12
288.213325
 22
109.162812
 32
0.0
 13
288.213325
 23
109.162812
 33
0.0
  0
LINE
  5
101
  8
SCHRAFFIERT
 10
301.131881
 20
112.720478
 30
0.0
 11
299.051881
 21
114.800478
 31
0.0
  0
LINE
  5
102
  8
SCHRAFFIERT
 10
299.051881
 20
112.523809
 30
0.0
 11
301.131881
 21
114.603809
 31
0.0
  0
LINE
  5
103
  8
05
 10
301.131881
 20
115.962812
 30
0.0
 11
301.131881
 21
109.162812
 31
0.0
  0
LINE
  5
104
  8
05
 10
299.051881
 20
109.162812
 30
0.0
 11
301.131881
 21
109.162812
 31
0.0
  0
LINE
  5
105
  8
SCHRAFFIERT
 10
301.131881
 20
110.457736
 30
0.0
 11
299.051881
 21
112.537736
 31
0.0
  0
LINE
  5
106
  8
SCHRAFFIERT
 10
300.164064
 20
109.162812
 30
0.0
 11
299.051881
 21
110.274995
 31
0.0
  0
LINE
  5
107
  8
SCHRAFFIERT
 10
299.051881
 20
110.261067
 30
0.0
 11
301.131881
 21
112.341067
 31
0.0
  0
LINE
  5
108
  8
SCHRAFFIERT
 10
300.216368
 20
109.162812
 30
0.0
 11
301.131881
 21
110.078325
 31
0.0
  0
LINE
  5
109
  8
SCHRAFFIERT
 10
301.131881
 20
114.98322
 30
0.0
 11
299.051881
 21
117.06322
 31
0.0
  0
LINE
  5
10A
  8
SCHRAFFIERT
 10
302.415031
 20
115.962812
 30
0.0
 11
299.051881
 21
119.325961
 31
0.0
  0
LINE
  5
10B
  8
SCHRAFFIERT
 10
316.436965
 20
120.042812
 30
0.0
 11
314.116965
 21
122.362812
 31
0.0
  0
LINE
  5
10C
  8
SCHRAFFIERT
 10
313.35911
 20
120.042812
 30
0.0
 11
315.67911
 21
122.362812
 31
0.0
  0
LINE
  5
10D
  8
SCHRAFFIERT
 10
315.621851
 20
120.042812
 30
0.0
 11
317.941851
 21
122.362812
 31
0.0
  0
LINE
  5
10E
  8
SCHRAFFIERT
 10
311.911481
 20
120.042812
 30
0.0
 11
309.591481
 21
122.362812
 31
0.0
  0
LINE
  5
10F
  8
SCHRAFFIERT
 10
309.648739
 20
120.042812
 30
0.0
 11
307.328739
 21
122.362812
 31
0.0
  0
LINE
  5
110
  8
SCHRAFFIERT
 10
308.833626
 20
120.042812
 30
0.0
 11
311.153626
 21
122.362812
 31
0.0
  0
LINE
  5
111
  8
SCHRAFFIERT
 10
314.174223
 20
120.042812
 30
0.0
 11
311.854223
 21
122.362812
 31
0.0
  0
LINE
  5
112
  8
SCHRAFFIERT
 10
311.096368
 20
120.042812
 30
0.0
 11
313.416368
 21
122.362812
 31
0.0
  0
LINE
  5
113
  8
SCHRAFFIERT
 10
305.123256
 20
120.042812
 30
0.0
 11
302.803256
 21
122.362812
 31
0.0
  0
LINE
  5
114
  8
SCHRAFFIERT
 10
304.308143
 20
120.042812
 30
0.0
 11
306.628143
 21
122.362812
 31
0.0
  0
LINE
  5
115
  8
SCHRAFFIERT
 10
307.385998
 20
120.042812
 30
0.0
 11
305.065998
 21
122.362812
 31
0.0
  0
LINE
  5
116
  8
SCHRAFFIERT
 10
306.570884
 20
120.042812
 30
0.0
 11
308.890884
 21
122.362812
 31
0.0
  0
LINE
  5
117
  8
SCHRAFFIERT
 10
318.699706
 20
120.042812
 30
0.0
 11
316.379706
 21
122.362812
 31
0.0
  0
LINE
  5
118
  8
SCHRAFFIERT
 10
317.884593
 20
120.042812
 30
0.0
 11
319.851881
 21
122.0101
 31
0.0
  0
LINE
  5
119
  8
BEM1
 10
304.491881
 20
115.962812
 30
0.0
 11
331.66956
 21
115.962812
 31
0.0
  0
LINE
  5
11A
  8
05
 10
303.851881
 20
120.042812
 30
0.0
 11
319.851881
 21
120.042812
 31
0.0
  0
LINE
  5
11B
  8
05
 10
303.851881
 20
115.962812
 30
0.0
 11
303.851881
 21
120.042812
 31
0.0
  0
SOLID
  5
11C
  8
BEM1
 10
329.762893
 20
118.762812
 30
0.0
 11
330.696226
 21
118.762812
 31
0.0
 12
330.22956
 22
115.962812
 32
0.0
 13
330.22956
 23
115.962812
 33
0.0
  0
LINE
  5
11D
  8
SCHRAFFIERT
 10
319.851881
 20
121.153378
 30
0.0
 11
318.642448
 21
122.362812
 31
0.0
  0
LINE
  5
11E
  8
05
 10
302.731881
 20
122.362812
 30
0.0
 11
319.851881
 21
122.362812
 31
0.0
  0
TEXT
  5
11F
  8
BEM1
 62
     3
 10
328.82956
 20
125.98153
 30
0.0
 40
2.8
  1
%%c21.50
 50
90.0
 41
0.7
 51
15.0
 72
     1
 11
327.42956
 21
130.39153
 31
0.0
 73
     2
  0
TEXT
  5
120
  8
BEM1
 10
328.510673
 20
136.554217
 30
0.0
 40
2.0
  1
%%p0.4
 50
90.0
 41
0.7
 51
15.0
  0
LINE
  5
121
  8
0
 62
     4
 10
367.323105
 20
130.252174
 30
0.0
 11
366.770518
 21
129.699588
 31
0.0
  0
INSERT
  5
122
  8
035
 62
     4
  2
*X1
 10
453.938891
 20
455.58721
 30
0.0
 41
1.6
 42
1.6
 43
1.6
 50
180.0
  0
ARC
  5
15A
  8
035
 62
     4
 10
367.753411
 20
133.162812
 30
0.0
 40
2.96
 50
238.961019
 51
260.12911
  0
ARC
  5
15B
  8
035
 62
     4
 10
367.753411
 20
133.162812
 30
0.0
 40
3.6
 50
238.909008
 51
306.716102
  0
CIRCLE
  5
15C
  8
035
 62
     4
 10
367.753411
 20
133.162812
 30
0.0
 40
4.8
  0
CIRCLE
  5
15D
  8
035
 62
     4
 10
367.753411
 20
133.162812
 30
0.0
 40
5.6
  0
LINE
  5
15E
  8
035
 10
368.354849
 20
142.566964
 30
0.0
 11
363.725707
 21
142.566964
 31
0.0
  0
LINE
  5
15F
  8
05
 10
349.587726
 20
130.72261
 30
0.0
 11
368.513209
 21
111.797126
 31
0.0
  0
LINE
  5
160
  8
05
 10
350.719097
 20
131.853981
 30
0.0
 11
369.64458
 21
112.928497
 31
0.0
  0
LINE
  5
161
  8
025
 10
350.153411
 20
131.288295
 30
0.0
 11
369.078895
 21
112.362812
 31
0.0
  0
LINE
  5
162
  8
MITTE
 10
390.787017
 20
133.162812
 30
0.0
 11
344.719805
 21
133.162812
 31
0.0
  0
LINE
  5
163
  8
05
 10
380.553411
 20
109.162812
 30
0.0
 11
354.953411
 21
109.162812
 31
0.0
  0
LINE
  5
164
  8
05
 10
349.587726
 20
121.671643
 30
0.0
 11
359.462242
 21
111.797126
 31
0.0
  0
LINE
  5
165
  8
05
 10
350.719097
 20
122.803014
 30
0.0
 11
360.593613
 21
112.928497
 31
0.0
  0
LINE
  5
166
  8
05
 10
349.587726
 20
126.197126
 30
0.0
 11
363.987726
 21
111.797126
 31
0.0
  0
LINE
  5
167
  8
05
 10
350.719097
 20
127.328497
 30
0.0
 11
365.119097
 21
112.928497
 31
0.0
  0
LINE
  5
168
  8
025
 10
350.153411
 20
122.237328
 30
0.0
 11
360.027928
 21
112.362812
 31
0.0
  0
LINE
  5
169
  8
025
 10
350.153411
 20
126.762812
 30
0.0
 11
364.553411
 21
112.362812
 31
0.0
  0
LINE
  5
16A
  8
05
 10
349.587726
 20
117.14616
 30
0.0
 11
354.936759
 21
111.797126
 31
0.0
  0
LINE
  5
16B
  8
05
 10
350.719097
 20
118.27753
 30
0.0
 11
356.06813
 21
112.928497
 31
0.0
  0
LINE
  5
16C
  8
025
 10
350.153411
 20
117.711845
 30
0.0
 11
355.502444
 21
112.362812
 31
0.0
  0
ARC
  5
16D
  8
05
 10
354.953411
 20
117.162812
 30
0.0
 40
8.0
 50
180.0
 51
270.0
  0
LINE
  5
16E
  8
05
 10
350.719097
 20
118.27753
 30
0.0
 11
349.587726
 21
117.14616
 31
0.0
  0
LINE
  5
16F
  8
05
 10
356.06813
 20
112.928497
 30
0.0
 11
354.936759
 21
111.797126
 31
0.0
  0
LINE
  5
170
  8
05
 10
360.593613
 20
112.928497
 30
0.0
 11
359.462242
 21
111.797126
 31
0.0
  0
LINE
  5
171
  8
05
 10
365.119097
 20
112.928497
 30
0.0
 11
363.987726
 21
111.797126
 31
0.0
  0
LINE
  5
172
  8
035
 10
351.514592
 20
143.375227
 30
0.0
 11
349.617846
 21
142.566964
 31
0.0
  0
LINE
  5
173
  8
035
 10
351.675243
 20
142.566964
 30
0.0
 11
349.617846
 21
142.566964
 31
0.0
  0
LINE
  5
174
  8
05
 10
350.719097
 20
122.803014
 30
0.0
 11
349.587726
 21
121.671643
 31
0.0
  0
LINE
  5
175
  8
05
 10
350.719097
 20
127.328497
 30
0.0
 11
349.587726
 21
126.197126
 31
0.0
  0
LINE
  5
176
  8
05
 10
350.719097
 20
131.853981
 30
0.0
 11
349.587726
 21
130.72261
 31
0.0
  0
LINE
  5
177
  8
0
 62
     4
 10
365.055721
 20
131.944588
 30
0.0
 11
364.577945
 21
131.466812
 31
0.0
  0
LINE
  5
178
  8
0
 62
     4
 10
364.904599
 20
132.359152
 30
0.0
 11
364.399668
 21
131.854221
 31
0.0
  0
ARC
  5
179
  8
035
 62
     4
 10
367.753411
 20
133.162812
 30
0.0
 40
2.96
 50
160.726108
 51
215.294203
  0
ARC
  5
17A
  8
035
 62
     4
 10
367.753411
 20
133.162812
 30
0.0
 40
3.6
 50
150.577083
 51
215.346236
  0
LINE
  5
17B
  8
0
 62
     4
 10
365.253961
 20
131.577142
 30
0.0
 11
364.792274
 21
131.115456
 31
0.0
  0
LINE
  5
17C
  8
0
 62
     4
 10
366.849462
 20
130.344217
 30
0.0
 11
366.35202
 21
129.846775
 31
0.0
  0
LINE
  5
17D
  8
0
 62
     4
 10
366.446509
 20
130.506949
 30
0.0
 11
365.973288
 21
130.033728
 31
0.0
  0
LINE
  5
17E
  8
0
 62
     4
 10
366.042776
 20
130.668901
 30
0.0
 11
365.749412
 21
130.375537
 31
0.0
  0
ARC
  5
17F
  8
035
 62
     4
 10
365.064959
 20
131.256023
 30
0.0
 40
0.304
 50
215.346236
 51
310.63832
  0
ARC
  5
180
  8
035
 62
     4
 10
365.089347
 20
131.276954
 30
0.0
 40
0.304
 50
310.63832
 51
35.294203
  0
ARC
  5
181
  8
035
 62
     4
 10
366.070425
 20
130.366161
 30
0.0
 40
0.304
 50
58.961041
 51
143.616924
  0
ARC
  5
182
  8
035
 62
     4
 10
366.051361
 20
130.340288
 30
0.0
 40
0.304
 50
143.616924
 51
238.909008
  0
LINE
  5
183
  8
035
 62
     4
 10
365.287337
 20
131.046268
 30
0.0
 11
365.262949
 21
131.025337
 31
0.0
  0
LINE
  5
184
  8
035
 62
     4
 10
365.825684
 20
130.546488
 30
0.0
 11
365.80662
 21
130.520615
 31
0.0
  0
LINE
  5
185
  8
035
 10
354.908294
 20
142.566964
 30
0.0
 11
353.365247
 21
142.566964
 31
0.0
  0
LINE
  5
186
  8
035
 10
353.54156
 20
143.36226
 30
0.0
 11
353.365247
 21
142.566964
 31
0.0
  0
LINE
  5
187
  8
035
 10
353.54156
 20
143.36226
 30
0.0
 11
351.675243
 21
142.566964
 31
0.0
  0
LINE
  5
188
  8
035
 10
357.48004
 20
142.566964
 30
0.0
 11
355.863514
 21
142.566964
 31
0.0
  0
LINE
  5
189
  8
0
 62
     4
 10
364.78789
 20
135.07087
 30
0.0
 11
364.580377
 21
134.863356
 31
0.0
  0
LINE
  5
18A
  8
0
 62
     4
 10
365.222939
 20
134.940234
 30
0.0
 11
364.242809
 21
133.960103
 31
0.0
  0
LINE
  5
18B
  8
0
 62
     4
 10
364.944347
 20
134.095956
 30
0.0
 11
364.156338
 21
133.307947
 31
0.0
  0
LINE
  5
18C
  8
0
 62
     4
 10
365.586113
 20
134.737722
 30
0.0
 11
365.094669
 21
134.246278
 31
0.0
  0
LINE
  5
18D
  8
0
 62
     4
 10
364.801982
 20
133.387906
 30
0.0
 11
364.175822
 21
132.761745
 31
0.0
  0
LINE
  5
18E
  8
0
 62
     4
 10
365.949287
 20
134.53521
 30
0.0
 11
365.47884
 21
134.064764
 31
0.0
  0
LINE
  5
18F
  8
0
 62
     4
 10
364.811936
 20
132.832174
 30
0.0
 11
364.262613
 21
132.282851
 31
0.0
  0
LINE
  5
190
  8
0
 62
     4
 10
366.31246
 20
134.332698
 30
0.0
 11
365.842014
 21
133.862252
 31
0.0
  0
LINE
  5
191
  8
0
 62
     4
 10
366.666114
 20
134.120667
 30
0.0
 11
366.205187
 21
133.65974
 31
0.0
  0
ARC
  5
192
  8
035
 62
     4
 10
365.110347
 20
134.087048
 30
0.0
 40
0.16
 50
60.855218
 51
160.726108
  0
ARC
  5
193
  8
035
 62
     4
 10
366.432112
 20
133.881271
 30
0.0
 40
0.304
 50
240.855218
 51
331.46476
  0
ARC
  5
194
  8
035
 62
     4
 10
366.447696
 20
133.90922
 30
0.0
 40
0.304
 50
330.245677
 51
60.855218
  0
ARC
  5
195
  8
035
 62
     4
 10
364.882538
 20
134.781979
 30
0.0
 40
0.304
 50
60.855218
 51
150.577083
  0
LINE
  5
196
  8
035
 62
     4
 10
366.59575
 20
134.174731
 30
0.0
 11
365.030591
 21
135.04749
 31
0.0
  0
LINE
  5
197
  8
035
 62
     4
 10
366.284058
 20
133.61576
 30
0.0
 11
365.18827
 21
134.22679
 31
0.0
  0
ARC
  5
198
  8
035
 62
     4
 10
367.753411
 20
133.162812
 30
0.0
 40
1.2
 50
150.245677
 51
151.46476
  0
LINE
  5
199
  8
035
 10
363.211358
 20
142.566964
 30
0.0
 11
359.085996
 21
142.566964
 31
0.0
  0
LINE
  5
19A
  8
035
 10
361.718635
 20
143.1254
 30
0.0
 11
360.355798
 21
143.1254
 31
0.0
  0
LINE
  5
19B
  8
035
 10
365.399073
 20
143.154792
 30
0.0
 11
363.856026
 21
143.154792
 31
0.0
  0
LINE
  5
19C
  8
035
 10
363.856026
 20
143.154792
 30
0.0
 11
363.725707
 21
142.566964
 31
0.0
  0
ARC
  5
19D
  8
05
 10
380.553411
 20
117.162812
 30
0.0
 40
8.0
 50
270.0
 51
0.0
  0
LINE
  5
19E
  8
MITTE
 10
367.753411
 20
118.1822
 30
0.0
 11
367.753411
 21
108.160813
 31
0.0
  0
LINE
  5
19F
  8
05
 10
369.64458
 20
112.928497
 30
0.0
 11
368.513209
 21
111.797126
 31
0.0
  0
LINE
  5
1A0
  8
035
 10
384.960978
 20
142.566964
 30
0.0
 11
383.050538
 21
142.566964
 31
0.0
  0
LINE
  5
1A1
  8
0
 62
     4
 10
368.073411
 20
132.133851
 30
0.0
 11
367.433411
 21
131.493851
 31
0.0
  0
INSERT
  5
1A2
  8
035
 62
     4
  2
*X2
 10
453.938891
 20
455.58721
 30
0.0
 41
1.6
 42
1.6
 43
1.6
 50
180.0
  0
LINE
  5
1B3
  8
035
 62
     4
 10
367.433411
 20
136.458773
 30
0.0
 11
367.433411
 21
130.404261
 31
0.0
  0
LINE
  5
1B4
  8
035
 62
     4
 10
368.073411
 20
136.458773
 30
0.0
 11
368.073411
 21
130.404261
 31
0.0
  0
LINE
  5
1B5
  8
035
 62
     4
 10
370.476231
 20
131.278133
 30
0.0
 11
368.911072
 21
132.150893
 31
0.0
  0
ARC
  5
1B6
  8
035
 62
     4
 10
367.753411
 20
133.162812
 30
0.0
 40
3.6
 50
330.577083
 51
37.724479
  0
LINE
  5
1B7
  8
0
 62
     4
 10
369.99398
 20
130.660308
 30
0.0
 11
369.199845
 21
129.866173
 31
0.0
  0
LINE
  5
1B8
  8
0
 62
     4
 10
369.598134
 20
130.830147
 30
0.0
 11
368.386991
 21
129.619004
 31
0.0
  0
LINE
  5
1B9
  8
0
 62
     4
 10
368.501103
 20
130.298801
 30
0.0
 11
367.765133
 21
129.562831
 31
0.0
  0
LINE
  5
1BA
  8
0
 62
     4
 10
368.073411
 20
130.436795
 30
0.0
 11
367.236703
 21
129.600086
 31
0.0
  0
LINE
  5
1BB
  8
0
 62
     4
 10
368.073411
 20
131.00248
 30
0.0
 11
367.425498
 21
130.354567
 31
0.0
  0
LINE
  5
1BC
  8
0
 62
     4
 10
368.073411
 20
131.568166
 30
0.0
 11
367.433411
 21
130.928166
 31
0.0
  0
ARC
  5
1BD
  8
035
 62
     4
 10
367.273411
 20
130.404261
 30
0.0
 40
0.16
 50
260.12911
 51
0.0
  0
ARC
  5
1BE
  8
035
 62
     4
 10
368.233411
 20
130.404261
 30
0.0
 40
0.16
 50
180.0
 51
279.87089
  0
ARC
  5
1BF
  8
035
 62
     4
 10
369.702418
 20
130.544593
 30
0.0
 40
0.304
 50
42.008185
 51
126.664068
  0
ARC
  5
1C0
  8
035
 62
     4
 10
369.723926
 20
130.520713
 30
0.0
 40
0.304
 50
306.716102
 51
42.008185
  0
ARC
  5
1C1
  8
035
 62
     4
 10
370.624284
 20
131.543645
 30
0.0
 40
0.304
 50
240.855218
 51
330.577083
  0
ARC
  5
1C2
  8
035
 62
     4
 10
367.753411
 20
133.162812
 30
0.0
 40
2.96
 50
279.87089
 51
306.664068
  0
LINE
  5
1C3
  8
035
 62
     4
 10
369.928305
 20
130.748041
 30
0.0
 11
369.949813
 21
130.724161
 31
0.0
  0
LINE
  5
1C4
  8
035
 10
377.517955
 20
143.463401
 30
0.0
 11
374.946209
 21
143.463401
 31
0.0
  0
LINE
  5
1C5
  8
035
 10
378.935745
 20
142.566964
 30
0.0
 11
374.527039
 21
142.566964
 31
0.0
  0
LINE
  5
1C6
  8
035
 10
377.443022
 20
143.1254
 30
0.0
 11
374.650841
 21
143.1254
 31
0.0
  0
LINE
  5
1C7
  8
0
 62
     4
 10
368.029776
 20
136.6157
 30
0.0
 11
367.433411
 21
136.019335
 31
0.0
  0
LINE
  5
1C8
  8
0
 62
     4
 10
368.073411
 20
136.093649
 30
0.0
 11
367.433411
 21
135.453649
 31
0.0
  0
LINE
  5
1C9
  8
0
 62
     4
 10
368.073411
 20
135.527964
 30
0.0
 11
367.433411
 21
134.887964
 31
0.0
  0
LINE
  5
1CA
  8
0
 62
     4
 10
368.073411
 20
134.962278
 30
0.0
 11
367.433411
 21
134.322278
 31
0.0
  0
LINE
  5
1CB
  8
0
 62
     4
 10
368.073411
 20
134.396593
 30
0.0
 11
367.433411
 21
133.756593
 31
0.0
  0
LINE
  5
1CC
  8
0
 62
     4
 10
368.073411
 20
132.699537
 30
0.0
 11
367.433411
 21
132.059537
 31
0.0
  0
LINE
  5
1CD
  8
0
 62
     4
 10
368.073411
 20
133.265222
 30
0.0
 11
367.433411
 21
132.625222
 31
0.0
  0
LINE
  5
1CE
  8
0
 62
     4
 10
368.073411
 20
133.830907
 30
0.0
 11
367.433411
 21
133.190907
 31
0.0
  0
ARC
  5
1CF
  8
035
 62
     4
 10
370.396475
 20
132.238576
 30
0.0
 40
0.16
 50
240.855218
 51
340.726108
  0
ARC
  5
1D0
  8
035
 62
     4
 10
367.737411
 20
136.458773
 30
0.0
 40
0.304
 50
90.278136
 51
180.0
  0
ARC
  5
1D1
  8
035
 62
     4
 10
367.769411
 20
136.458773
 30
0.0
 40
0.304
 50
0.0
 51
89.721864
  0
ARC
  5
1D2
  8
035
 62
     4
 10
369.059126
 20
132.416404
 30
0.0
 40
0.304
 50
150.245677
 51
240.855218
  0
ARC
  5
1D3
  8
035
 62
     4
 10
369.07471
 20
132.444352
 30
0.0
 40
0.304
 50
60.855218
 51
151.46476
  0
ARC
  5
1D4
  8
035
 62
     4
 10
370.336924
 20
135.157594
 30
0.0
 40
0.304
 50
133.016562
 51
217.672445
  0
ARC
  5
1D5
  8
035
 62
     4
 10
370.360423
 20
135.179519
 30
0.0
 40
0.304
 50
37.724479
 51
133.016562
  0
LINE
  5
1D6
  8
035
 62
     4
 10
370.318552
 20
132.098833
 30
0.0
 11
369.222764
 21
132.709863
 31
0.0
  0
ARC
  5
1D7
  8
035
 62
     4
 10
367.753411
 20
133.162812
 30
0.0
 40
2.96
 50
340.726108
 51
37.672445
  0
ARC
  5
1D8
  8
035
 62
     4
 10
367.753411
 20
133.162812
 30
0.0
 40
1.2
 50
330.245677
 51
331.46476
  0
ARC
  5
1D9
  8
035
 62
     4
 10
367.753411
 20
133.162812
 30
0.0
 40
3.6
 50
89.721864
 51
90.278136
  0
LINE
  5
1DA
  8
035
 62
     4
 10
370.129533
 20
135.379865
 30
0.0
 11
370.153031
 21
135.40179
 31
0.0
  0
LINE
  5
1DB
  8
035
 10
368.485168
 20
143.154792
 30
0.0
 11
367.015599
 21
143.154792
 31
0.0
  0
LINE
  5
1DC
  8
035
 10
368.485168
 20
143.154792
 30
0.0
 11
368.354849
 21
142.566964
 31
0.0
  0
LINE
  5
1DD
  8
035
 10
370.395092
 20
142.566964
 30
0.0
 11
368.782651
 21
142.566964
 31
0.0
  0
LINE
  5
1DE
  8
035
 10
373.792254
 20
142.566964
 30
0.0
 11
372.1798
 21
142.566964
 31
0.0
  0
LINE
  5
1DF
  8
035
 10
374.650841
 20
143.1254
 30
0.0
 11
374.527039
 21
142.566964
 31
0.0
  0
LINE
  5
1E0
  8
035
 10
377.517955
 20
143.463401
 30
0.0
 11
377.443022
 21
143.1254
 31
0.0
  0
LINE
  5
1E1
  8
035
 10
381.360534
 20
142.566964
 30
0.0
 11
379.744008
 21
142.566964
 31
0.0
  0
SOLID
  5
1E2
  8
BEM1
 10
250.670244
 20
236.659209
 30
0.0
 11
250.670244
 21
235.725876
 31
0.0
 12
253.470244
 22
236.192543
 32
0.0
 13
253.470244
 23
236.192543
 33
0.0
  0
SOLID
  5
1E3
  8
BEM1
 10
224.270244
 20
236.659209
 30
0.0
 11
224.270244
 21
235.725876
 31
0.0
 12
221.470244
 22
236.192543
 32
0.0
 13
221.470244
 23
236.192543
 33
0.0
  0
LINE
  5
1E4
  8
BEM1
 10
253.470244
 20
180.248385
 30
0.0
 11
253.470244
 21
237.632543
 31
0.0
  0
LINE
  5
1E5
  8
BEM1
 10
221.470244
 20
218.134817
 30
0.0
 11
221.470244
 21
237.632543
 31
0.0
  0
TEXT
  5
1E6
  8
BEM1
 62
     3
 10
272.651914
 20
193.569478
 30
0.0
 40
2.8
  1
24.00
 50
90.0
 41
0.7
 51
15.0
 72
     1
 11
271.251914
 21
197.162812
 31
0.0
 73
     2
  0
LINE
  5
1E7
  8
BEM1
 10
255.075059
 20
177.962812
 30
0.0
 11
275.491914
 21
177.962812
 31
0.0
  0
LINE
  5
1E8
  8
BEM1
 10
224.169849
 20
216.362812
 30
0.0
 11
275.491914
 21
216.362812
 31
0.0
  0
LINE
  5
1E9
  8
BEM1
 10
267.575734
 20
212.762812
 30
0.0
 11
267.575734
 21
181.562812
 31
0.0
  0
LINE
  5
1EA
  8
BEM1
 10
252.670244
 20
181.196898
 30
0.0
 11
252.670244
 21
231.911538
 31
0.0
  0
TEXT
  5
1EB
  8
BEM1
 62
     3
 10
227.29204
 20
186.354313
 30
0.0
 40
2.8
  1
%%c23.80
 50
50.991243
 41
0.7
 51
15.0
 72
     1
 11
229.185614
 21
190.916154
 31
0.0
 73
     2
  0
LINE
  5
1EC
  8
BEM1
 10
249.454766
 20
211.957839
 30
0.0
 11
225.485723
 21
182.367784
 31
0.0
  0
CIRCLE
  5
1ED
  8
05
 10
237.470244
 20
197.162812
 30
0.0
 40
19.04
  0
ARC
  5
1EE
  8
05
 10
237.470244
 20
144.682812
 30
0.0
 40
1.6
 50
41.650368
 51
138.349632
  0
LINE
  5
1EF
  8
05
 10
226.270244
 20
153.962812
 30
0.0
 11
248.670244
 21
153.962812
 31
0.0
  0
LINE
  5
1F0
  8
05
 10
226.270244
 20
173.162812
 30
0.0
 11
248.670244
 21
173.162812
 31
0.0
  0
LINE
  5
1F1
  8
05
 10
223.070244
 20
169.962812
 30
0.0
 11
223.070244
 21
157.162812
 31
0.0
  0
ARC
  5
1F2
  8
05
 10
226.270244
 20
157.162812
 30
0.0
 40
3.2
 50
180.0
 51
270.0
  0
ARC
  5
1F3
  8
05
 10
226.270244
 20
169.962812
 30
0.0
 40
3.2
 50
90.0
 51
180.0
  0
SOLID
  5
1F4
  8
BEM1
 10
226.885529
 20
184.837262
 30
0.0
 11
227.610776
 21
184.249785
 31
0.0
 12
225.485723
 22
182.367784
 32
0.0
 13
225.485723
 23
182.367784
 33
0.0
  0
LINE
  5
1F5
  8
05
 10
251.870244
 20
169.962812
 30
0.0
 11
251.870244
 21
157.162812
 31
0.0
  0
ARC
  5
1F6
  8
05
 10
248.670244
 20
157.162812
 30
0.0
 40
3.2
 50
270.0
 51
0.0
  0
LINE
  5
1F7
  8
MITTE
 10
251.8255
 20
178.762812
 30
0.0
 11
254.646602
 21
178.762812
 31
0.0
  0
ARC
  5
1F8
  8
05
 10
252.670244
 20
177.962812
 30
0.0
 40
2.56
 50
135.0
 51
315.0
  0
ARC
  5
1F9
  8
05
 10
253.470244
 20
178.762812
 30
0.0
 40
2.56
 50
315.0
 51
135.0
  0
LINE
  5
1FA
  8
MITTE
 10
253.470244
 20
179.730943
 30
0.0
 11
253.470244
 21
176.798368
 31
0.0
  0
LINE
  5
1FB
  8
MITTE
 10
252.670244
 20
180.430249
 30
0.0
 11
252.670244
 21
176.076502
 31
0.0
  0
ARC
  5
1FC
  8
05
 10
248.670244
 20
169.962812
 30
0.0
 40
3.2
 50
0.0
 51
90.0
  0
LINE
  5
1FD
  8
MITTE
 10
250.945314
 20
177.962812
 30
0.0
 11
254.172658
 21
177.962812
 31
0.0
  0
LINE
  5
1FE
  8
05
 10
251.660051
 20
180.573005
 30
0.0
 11
250.860051
 21
179.773005
 31
0.0
  0
LINE
  5
1FF
  8
05
 10
254.480438
 20
176.152618
 30
0.0
 11
255.280438
 21
176.952618
 31
0.0
  0
LINE
  5
200
  8
BEM1
 10
255.203269
 20
178.762812
 30
0.0
 11
269.015734
 21
178.762812
 31
0.0
  0
SOLID
  5
201
  8
BEM1
 10
267.109067
 20
181.562812
 30
0.0
 11
268.0424
 21
181.562812
 31
0.0
 12
267.575734
 22
178.762812
 32
0.0
 13
267.575734
 23
178.762812
 33
0.0
  0
LINE
  5
202
  8
BEM1
 10
224.270244
 20
236.192543
 30
0.0
 11
250.670244
 21
236.192543
 31
0.0
  0
LINE
  5
203
  8
BEM1
 10
223.339426
 20
215.562812
 30
0.0
 11
269.015734
 21
215.562812
 31
0.0
  0
TEXT
  5
204
  8
BEM1
 62
     3
 10
234.203578
 20
231.871538
 30
0.0
 40
2.8
  1
19.00
 41
0.7
 51
15.0
 72
     1
 11
237.470244
 21
233.271538
 31
0.0
 73
     2
  0
LINE
  5
205
  8
BEM1
 10
225.070244
 20
230.471538
 30
0.0
 11
249.870244
 21
230.471538
 31
0.0
  0
LINE
  5
206
  8
MITTE
 10
236.932317
 20
197.162812
 30
0.0
 11
260.50385
 21
197.162812
 31
0.0
  0
LINE
  5
207
  8
05
 10
224.670244
 20
221.162812
 30
0.0
 11
250.270244
 21
221.162812
 31
0.0
  0
ARC
  5
208
  8
05
 10
221.470244
 20
215.562812
 30
0.0
 40
2.56
 50
135.0
 51
315.0
  0
LINE
  5
209
  8
MITTE
 10
214.436639
 20
197.162812
 30
0.0
 11
229.438349
 21
197.162812
 31
0.0
  0
TEXT
  5
20A
  8
BEM1
 10
234.563179
 20
194.42492
 30
0.0
 40
2.0
  1
-0
 50
50.591443
 41
0.7
 51
15.0
  0
TEXT
  5
20B
  8
BEM1
 10
232.6228
 20
195.948559
 30
0.0
 40
2.0
  1
+0.2
 50
50.591443
 41
0.7
 51
15.0
  0
LINE
  5
20C
  8
MITTE
 10
219.873627
 20
215.562812
 30
0.0
 11
222.96857
 21
215.562812
 31
0.0
  0
LINE
  5
20D
  8
MITTE
 10
221.017975
 20
216.362812
 30
0.0
 11
223.696787
 21
216.362812
 31
0.0
  0
ARC
  5
20E
  8
05
 10
222.270244
 20
216.362812
 30
0.0
 40
2.56
 50
315.0
 51
135.0
  0
ARC
  5
20F
  8
05
 10
224.670244
 20
213.162812
 30
0.0
 40
8.0
 50
90.0
 51
180.0
  0
LINE
  5
210
  8
MITTE
 10
221.470244
 20
217.716056
 30
0.0
 11
221.470244
 21
213.842695
 31
0.0
  0
LINE
  5
211
  8
05
 10
219.660051
 20
217.373005
 30
0.0
 11
220.460051
 21
218.173005
 31
0.0
  0
LINE
  5
212
  8
BEM1
 10
222.270244
 20
218.618502
 30
0.0
 11
222.270244
 21
231.911538
 31
0.0
  0
LINE
  5
213
  8
05
 10
228.830244
 20
221.162812
 30
0.0
 11
228.830244
 21
214.129603
 31
0.0
  0
LINE
  5
214
  8
MITTE
 10
222.270244
 20
218.261967
 30
0.0
 11
222.270244
 21
214.830531
 31
0.0
  0
LINE
  5
215
  8
05
 10
223.280438
 20
213.752618
 30
0.0
 11
224.080438
 21
214.552618
 31
0.0
  0
SOLID
  5
216
  8
BEM1
 10
225.070244
 20
230.938204
 30
0.0
 11
225.070244
 21
230.004871
 31
0.0
 12
222.270244
 22
230.471538
 32
0.0
 13
222.270244
 23
230.471538
 33
0.0
  0
SOLID
  5
217
  8
BEM1
 10
267.109067
 20
212.762812
 30
0.0
 11
268.0424
 21
212.762812
 31
0.0
 12
267.575734
 22
215.562812
 32
0.0
 13
267.575734
 23
215.562812
 33
0.0
  0
SOLID
  5
218
  8
BEM1
 10
248.05496
 20
209.488362
 30
0.0
 11
247.329713
 21
210.075838
 31
0.0
 12
249.454766
 22
211.957839
 32
0.0
 13
249.454766
 23
211.957839
 33
0.0
  0
TEXT
  5
219
  8
BEM1
 62
     3
 10
266.175734
 20
193.569478
 30
0.0
 40
2.8
  1
23.00
 50
90.0
 41
0.7
 51
15.0
 72
     1
 11
264.775734
 21
197.162812
 31
0.0
 73
     2
  0
ARC
  5
21A
  8
05
 10
250.270244
 20
213.162812
 30
0.0
 40
8.0
 50
0.0
 51
90.0
  0
LINE
  5
21B
  8
05
 10
246.110244
 20
221.162812
 30
0.0
 11
246.110244
 21
214.129603
 31
0.0
  0
SOLID
  5
21C
  8
BEM1
 10
249.870244
 20
230.938204
 30
0.0
 11
249.870244
 21
230.004871
 31
0.0
 12
252.670244
 22
230.471538
 32
0.0
 13
252.670244
 23
230.471538
 33
0.0
  0
LINE
  5
21D
  8
05
 10
301.131881
 20
221.162812
 30
0.0
 11
301.131881
 21
150.362812
 31
0.0
  0
LINE
  5
21E
  8
BEM1
 10
274.051914
 20
213.562812
 30
0.0
 11
274.051914
 21
180.762812
 31
0.0
  0
LINE
  5
21F
  8
SCHRAFFIERT
 10
303.851881
 20
148.467087
 30
0.0
 11
301.956156
 21
150.362812
 31
0.0
  0
LINE
  5
220
  8
05
 10
301.131881
 20
150.362812
 30
0.0
 11
303.851881
 21
150.362812
 31
0.0
  0
LINE
  5
221
  8
SCHRAFFIERT
 10
303.830673
 20
143.962812
 30
0.0
 11
299.051881
 21
148.741603
 31
0.0
  0
LINE
  5
222
  8
SCHRAFFIERT
 10
306.093415
 20
143.962812
 30
0.0
 11
299.051881
 21
151.004345
 31
0.0
  0
LINE
  5
223
  8
SCHRAFFIERT
 10
299.051881
 20
144.202192
 30
0.0
 11
303.851881
 21
149.002192
 31
0.0
  0
LINE
  5
224
  8
SCHRAFFIERT
 10
299.051881
 20
146.464934
 30
0.0
 11
302.949759
 21
150.362812
 31
0.0
  0
TEXT
  5
225
  8
BEM1
 62
     3
 10
302.047547
 20
176.855532
 30
0.0
 40
2.8
  1
1.30
 41
0.7
 51
15.0
 72
     1
 11
304.497547
 21
178.255532
 31
0.0
 73
     2
  0
SOLID
  5
226
  8
BEM1
 10
303.931881
 20
175.922199
 30
0.0
 11
303.931881
 21
174.988866
 31
0.0
 12
301.131881
 22
175.455532
 32
0.0
 13
301.131881
 23
175.455532
 33
0.0
  0
LINE
  5
227
  8
BEM1
 10
299.051881
 20
175.455532
 30
0.0
 11
306.872844
 21
175.455532
 31
0.0
  0
TEXT
  5
228
  8
BEM1
 62
     3
 10
286.813325
 20
161.732812
 30
0.0
 40
2.8
  1
70.00
 50
90.0
 41
0.7
 51
15.0
 72
     1
 11
285.413325
 21
165.162812
 31
0.0
 73
     2
  0
LINE
  5
229
  8
SCHRAFFIERT
 10
299.051881
 20
148.727676
 30
0.0
 11
301.131881
 21
150.807676
 31
0.0
  0
LINE
  5
22A
  8
05
 10
299.051881
 20
153.962812
 30
0.0
 11
301.131881
 21
153.962812
 31
0.0
  0
LINE
  5
22B
  8
SCHRAFFIERT
 10
301.131881
 20
151.187087
 30
0.0
 11
299.051881
 21
153.267087
 31
0.0
  0
LINE
  5
22C
  8
SCHRAFFIERT
 10
301.131881
 20
153.449829
 30
0.0
 11
300.618898
 21
153.962812
 31
0.0
  0
LINE
  5
22D
  8
SCHRAFFIERT
 10
299.051881
 20
150.990418
 30
0.0
 11
301.131881
 21
153.070418
 31
0.0
  0
LINE
  5
22E
  8
SCHRAFFIERT
 10
299.051881
 20
153.253159
 30
0.0
 11
299.761534
 21
153.962812
 31
0.0
  0
TEXT
  5
22F
  8
BEM1
 10
287.328406
 20
169.722723
 30
0.0
 40
2.0
  1
-0.5
 50
90.0
 41
0.7
 51
15.0
  0
SOLID
  5
230
  8
BEM1
 10
273.585247
 20
180.762812
 30
0.0
 11
274.518581
 21
180.762812
 31
0.0
 12
274.051914
 22
177.962812
 32
0.0
 13
274.051914
 23
177.962812
 33
0.0
  0
TEXT
  5
231
  8
BEM1
 10
284.845793
 20
169.722723
 30
0.0
 40
2.0
  1
+0
 50
90.0
 41
0.7
 51
15.0
  0
LINE
  5
232
  8
BEM1
 10
296.251881
 20
175.455532
 30
0.0
 11
293.451881
 21
175.455532
 31
0.0
  0
SOLID
  5
233
  8
BEM1
 10
296.251881
 20
175.922199
 30
0.0
 11
296.251881
 21
174.988866
 31
0.0
 12
299.051881
 22
175.455532
 32
0.0
 13
299.051881
 23
175.455532
 33
0.0
  0
LINE
  5
234
  8
SCHRAFFIERT
 10
301.131881
 20
177.609829
 30
0.0
 11
300.618898
 21
178.122812
 31
0.0
  0
LINE
  5
235
  8
SCHRAFFIERT
 10
299.051881
 20
177.413159
 30
0.0
 11
299.761534
 21
178.122812
 31
0.0
  0
LINE
  5
236
  8
SCHRAFFIERT
 10
299.327017
 20
173.162812
 30
0.0
 11
301.131881
 21
174.967676
 31
0.0
  0
LINE
  5
237
  8
SCHRAFFIERT
 10
301.053415
 20
173.162812
 30
0.0
 11
299.051881
 21
175.164345
 31
0.0
  0
LINE
  5
238
  8
SCHRAFFIERT
 10
299.051881
 20
175.150418
 30
0.0
 11
301.131881
 21
177.230418
 31
0.0
  0
LINE
  5
239
  8
SCHRAFFIERT
 10
301.131881
 20
175.347087
 30
0.0
 11
299.051881
 21
177.427087
 31
0.0
  0
LINE
  5
23A
  8
05
 10
299.051881
 20
178.122812
 30
0.0
 11
301.131881
 21
178.122812
 31
0.0
  0
LINE
  5
23B
  8
05
 10
299.051881
 20
173.162812
 30
0.0
 11
301.131881
 21
173.162812
 31
0.0
  0
LINE
  5
23C
  8
BEM1
 10
304.491881
 20
150.362812
 30
0.0
 11
331.66956
 21
150.362812
 31
0.0
  0
LINE
  5
23D
  8
SCHRAFFIERT
 10
319.669865
 20
143.962812
 30
0.0
 11
317.349865
 21
146.282812
 31
0.0
  0
LINE
  5
23E
  8
SCHRAFFIERT
 10
316.914434
 20
143.962812
 30
0.0
 11
319.234434
 21
146.282812
 31
0.0
  0
LINE
  5
23F
  8
05
 10
302.731881
 20
143.962812
 30
0.0
 11
319.851881
 21
143.962812
 31
0.0
  0
LINE
  5
240
  8
05
 10
303.851881
 20
146.282812
 30
0.0
 11
319.851881
 21
146.282812
 31
0.0
  0
LINE
  5
241
  8
SCHRAFFIERT
 10
310.126209
 20
143.962812
 30
0.0
 11
312.446209
 21
146.282812
 31
0.0
  0
LINE
  5
242
  8
SCHRAFFIERT
 10
312.88164
 20
143.962812
 30
0.0
 11
310.56164
 21
146.282812
 31
0.0
  0
LINE
  5
243
  8
05
 10
303.851881
 20
150.362812
 30
0.0
 11
303.851881
 21
146.282812
 31
0.0
  0
LINE
  5
244
  8
SCHRAFFIERT
 10
308.356156
 20
143.962812
 30
0.0
 11
306.036156
 21
146.282812
 31
0.0
  0
LINE
  5
245
  8
SCHRAFFIERT
 10
305.600726
 20
143.962812
 30
0.0
 11
307.920726
 21
146.282812
 31
0.0
  0
LINE
  5
246
  8
SCHRAFFIERT
 10
303.337984
 20
143.962812
 30
0.0
 11
305.657984
 21
146.282812
 31
0.0
  0
LINE
  5
247
  8
SCHRAFFIERT
 10
310.618898
 20
143.962812
 30
0.0
 11
308.298898
 21
146.282812
 31
0.0
  0
LINE
  5
248
  8
SCHRAFFIERT
 10
307.863467
 20
143.962812
 30
0.0
 11
310.183467
 21
146.282812
 31
0.0
  0
LINE
  5
249
  8
SCHRAFFIERT
 10
315.144382
 20
143.962812
 30
0.0
 11
312.824382
 21
146.282812
 31
0.0
  0
LINE
  5
24A
  8
SCHRAFFIERT
 10
312.388951
 20
143.962812
 30
0.0
 11
314.708951
 21
146.282812
 31
0.0
  0
LINE
  5
24B
  8
SCHRAFFIERT
 10
317.407123
 20
143.962812
 30
0.0
 11
315.087123
 21
146.282812
 31
0.0
  0
LINE
  5
24C
  8
SCHRAFFIERT
 10
314.651693
 20
143.962812
 30
0.0
 11
316.971693
 21
146.282812
 31
0.0
  0
LINE
  5
24D
  8
SCHRAFFIERT
 10
319.851881
 20
146.043537
 30
0.0
 11
319.772607
 21
146.122812
 31
0.0
  0
SOLID
  5
24E
  8
BEM1
 10
329.762893
 20
147.562812
 30
0.0
 11
330.696226
 21
147.562812
 31
0.0
 12
330.22956
 22
150.362812
 32
0.0
 13
330.22956
 23
150.362812
 33
0.0
  0
LINE
  5
24F
  8
MITTE
 10
294.350154
 20
197.162812
 30
0.0
 11
305.60564
 21
197.162812
 31
0.0
  0
SOLID
  5
250
  8
BEM1
 10
273.585247
 20
213.562812
 30
0.0
 11
274.518581
 21
213.562812
 31
0.0
 12
274.051914
 22
216.362812
 32
0.0
 13
274.051914
 23
216.362812
 33
0.0
  0
LINE
  5
251
  8
BEM1
 10
296.923538
 20
221.162812
 30
0.0
 11
286.773325
 21
221.162812
 31
0.0
  0
SOLID
  5
252
  8
BEM1
 10
287.746658
 20
218.362812
 30
0.0
 11
288.679991
 21
218.362812
 31
0.0
 12
288.213325
 22
221.162812
 32
0.0
 13
288.213325
 23
221.162812
 33
0.0
  0
LINE
  5
253
  8
SCHRAFFIERT
 10
299.851881
 20
218.134504
 30
0.0
 11
299.051881
 21
218.934504
 31
0.0
  0
LINE
  5
254
  8
05
 10
299.851881
 20
221.162812
 30
0.0
 11
299.851881
 21
213.605488
 31
0.0
  0
LINE
  5
255
  8
SCHRAFFIERT
 10
299.051881
 20
216.657835
 30
0.0
 11
299.851881
 21
217.457835
 31
0.0
  0
LINE
  5
256
  8
SCHRAFFIERT
 10
299.520832
 20
216.202812
 30
0.0
 11
299.051881
 21
216.671762
 31
0.0
  0
LINE
  5
257
  8
05
 10
299.851881
 20
213.605488
 30
0.0
 11
301.131881
 21
213.605488
 31
0.0
  0
LINE
  5
258
  8
05
 10
299.051881
 20
216.202812
 30
0.0
 11
299.851881
 21
216.202812
 31
0.0
  0
LINE
  5
259
  8
SCHRAFFIERT
 10
299.051881
 20
218.920576
 30
0.0
 11
299.851881
 21
219.720576
 31
0.0
  0
LINE
  5
25A
  8
SCHRAFFIERT
 10
299.851881
 20
220.397246
 30
0.0
 11
299.086315
 21
221.162812
 31
0.0
  0
LINE
  5
25B
  8
05
 10
299.051881
 20
221.162812
 30
0.0
 11
301.131881
 21
221.162812
 31
0.0
  0
TEXT
  5
25C
  8
BEM1
 62
     3
 10
234.040244
 20
237.592543
 30
0.0
 40
2.8
  1
20.00
 41
0.7
 51
15.0
 72
     1
 11
237.470244
 21
238.992543
 31
0.0
 73
     2
  0
SOLID
  5
25D
  8
BEM1
 10
385.753411
 20
236.659209
 30
0.0
 11
385.753411
 21
235.725876
 31
0.0
 12
388.553411
 22
236.192543
 32
0.0
 13
388.553411
 23
236.192543
 33
0.0
  0
SOLID
  5
25E
  8
BEM1
 10
349.753411
 20
236.659209
 30
0.0
 11
349.753411
 21
235.725876
 31
0.0
 12
346.953411
 22
236.192543
 32
0.0
 13
346.953411
 23
236.192543
 33
0.0
  0
LINE
  5
25F
  8
BEM1
 10
388.553411
 20
213.802812
 30
0.0
 11
388.553411
 21
237.632543
 31
0.0
  0
LINE
  5
260
  8
BEM1
 10
346.953411
 20
213.802812
 30
0.0
 11
346.953411
 21
237.632543
 31
0.0
  0
CIRCLE
  5
261
  8
05
 10
367.753411
 20
197.162812
 30
0.0
 40
19.04
  0
LINE
  5
262
  8
035
 10
367.406553
 20
144.918274
 30
0.0
 11
365.790028
 21
144.918274
 31
0.0
  0
LINE
  5
263
  8
05
 10
378.953411
 20
173.162812
 30
0.0
 11
356.553411
 21
173.162812
 31
0.0
  0
LINE
  5
264
  8
05
 10
378.953411
 20
153.962812
 30
0.0
 11
356.553411
 21
153.962812
 31
0.0
  0
LINE
  5
265
  8
05
 10
353.353411
 20
169.962812
 30
0.0
 11
353.353411
 21
157.162812
 31
0.0
  0
LINE
  5
266
  8
035
 10
352.196516
 20
144.918274
 30
0.0
 11
349.992162
 21
144.918274
 31
0.0
  0
ARC
  5
267
  8
05
 10
356.553411
 20
157.162812
 30
0.0
 40
3.2
 50
180.0
 51
270.0
  0
LINE
  5
268
  8
035
 10
360.356346
 20
144.918274
 30
0.0
 11
358.719786
 21
144.918274
 31
0.0
  0
LINE
  5
269
  8
035
 10
355.429567
 20
144.918274
 30
0.0
 11
353.88652
 21
144.918274
 31
0.0
  0
LINE
  5
26A
  8
035
 10
353.066476
 20
144.036533
 30
0.0
 11
352.196516
 21
144.918274
 31
0.0
  0
LINE
  5
26B
  8
035
 10
353.756202
 20
144.330447
 30
0.0
 11
353.066476
 21
144.036533
 31
0.0
  0
LINE
  5
26C
  8
035
 10
353.88652
 20
144.918274
 30
0.0
 11
353.756202
 21
144.330447
 31
0.0
  0
LINE
  5
26D
  8
035
 10
358.001313
 20
144.918274
 30
0.0
 11
356.384787
 21
144.918274
 31
0.0
  0
POLYLINE
  5
26E
  8
035
 66
     1
 10
0.0
 20
0.0
 30
0.0
  0
VERTEX
  5
307
  8
035
 10
358.75408
 20
144.124648
 30
0.0
 42
0.084831
  0
VERTEX
  5
308
  8
035
 10
358.762476
 20
144.034181
 30
0.0
 42
0.153048
  0
VERTEX
  5
309
  8
035
 10
358.848921
 20
143.897981
 30
0.0
 42
0.025315
  0
VERTEX
  5
30A
  8
035
 10
358.89239
 20
143.864874
 30
0.0
 42
0.067948
  0
SEQEND
  5
30B
  8
035
  0
ARC
  5
26F
  8
035
 10
358.425872
 20
144.697839
 30
0.0
 40
0.367392
 50
356.0
 51
36.869898
  0
LINE
  5
270
  8
035
 10
358.792369
 20
144.672211
 30
0.0
 11
358.75408
 21
144.124648
 31
0.0
  0
LINE
  5
271
  8
035
 10
363.732631
 20
144.918274
 30
0.0
 11
362.116105
 21
144.918274
 31
0.0
  0
POLYLINE
  5
272
  8
035
 66
     1
 10
0.0
 20
0.0
 30
0.0
  0
VERTEX
  5
30C
  8
035
 10
360.383407
 20
144.300216
 30
0.0
 42
0.082344
  0
VERTEX
  5
30D
  8
035
 10
360.386174
 20
144.271927
 30
0.0
 42
0.153048
  0
VERTEX
  5
30E
  8
035
 10
360.414023
 20
144.228049
 30
0.0
 42
0.106894
  0
VERTEX
  5
30F
  8
035
 10
360.478958
 20
144.193535
 30
0.0
 42
0.067948
  0
VERTEX
  5
310
  8
035
 10
360.550308
 20
144.18349
 30
0.0
 42
0.060506
  0
SEQEND
  5
311
  8
035
  0
ARC
  5
273
  8
035
 10
360.059195
 20
144.726172
 30
0.0
 40
0.353838
 50
0.772005
 51
32.881875
  0
LINE
  5
274
  8
035
 10
361.829405
 20
143.625054
 30
0.0
 11
360.573284
 21
143.625054
 31
0.0
  0
LINE
  5
275
  8
035
 10
361.953208
 20
144.18349
 30
0.0
 11
360.550308
 21
144.18349
 31
0.0
  0
LINE
  5
276
  8
035
 10
360.413002
 20
144.73094
 30
0.0
 11
360.383407
 21
144.300216
 31
0.0
  0
LINE
  5
277
  8
035
 10
362.116105
 20
144.918274
 30
0.0
 11
361.953208
 21
144.18349
 31
0.0
  0
ARC
  5
278
  8
05
 10
352.553411
 20
177.962812
 30
0.0
 40
2.56
 50
225.0
 51
45.0
  0
ARC
  5
279
  8
05
 10
351.753411
 20
178.762812
 30
0.0
 40
2.56
 50
45.0
 51
225.0
  0
LINE
  5
27A
  8
MITTE
 10
356.02727
 20
177.962812
 30
0.0
 11
349.079552
 21
177.962812
 31
0.0
  0
LINE
  5
27B
  8
MITTE
 10
355.22986
 20
178.762812
 30
0.0
 11
348.276962
 21
178.762812
 31
0.0
  0
LINE
  5
27C
  8
05
 10
350.743218
 20
176.152618
 30
0.0
 11
349.943218
 21
176.952618
 31
0.0
  0
LINE
  5
27D
  8
MITTE
 10
352.553411
 20
181.436671
 30
0.0
 11
352.553411
 21
174.488953
 31
0.0
  0
LINE
  5
27E
  8
MITTE
 10
351.753411
 20
182.239261
 30
0.0
 11
351.753411
 21
175.286363
 31
0.0
  0
ARC
  5
27F
  8
05
 10
356.553411
 20
169.962812
 30
0.0
 40
3.2
 50
90.0
 51
180.0
  0
LINE
  5
280
  8
05
 10
353.563604
 20
180.573005
 30
0.0
 11
354.363604
 21
179.773005
 31
0.0
  0
LINE
  5
281
  8
05
 10
382.153411
 20
169.962812
 30
0.0
 11
382.153411
 21
157.162812
 31
0.0
  0
LINE
  5
282
  8
035
 10
383.572509
 20
143.595662
 30
0.0
 11
382.102242
 21
144.918274
 31
0.0
  0
ARC
  5
283
  8
05
 10
378.953411
 20
157.162812
 30
0.0
 40
3.2
 50
270.0
 51
0.0
  0
LINE
  5
284
  8
035
 10
377.71669
 20
144.359838
 30
0.0
 11
374.924509
 21
144.359838
 31
0.0
  0
LINE
  5
285
  8
035
 10
375.048312
 20
144.918274
 30
0.0
 11
374.924509
 21
144.359838
 31
0.0
  0
POLYLINE
  5
286
  8
035
 66
     1
 10
0.0
 20
0.0
 30
0.0
  0
VERTEX
  5
312
  8
035
 10
372.501524
 20
144.036533
 30
0.0
 42
0.199105
  0
VERTEX
  5
313
  8
035
 10
372.452119
 20
144.155682
 30
0.0
 42
0.098437
  0
VERTEX
  5
314
  8
035
 10
372.241354
 20
144.296319
 30
0.0
 42
0.055684
  0
VERTEX
  5
315
  8
035
 10
371.975072
 20
144.373156
 30
0.0
 42
0.042444
  0
VERTEX
  5
316
  8
035
 10
371.613248
 20
144.403925
 30
0.0
 42
0.042444
  0
VERTEX
  5
317
  8
035
 10
371.251425
 20
144.373156
 30
0.0
 42
0.055684
  0
VERTEX
  5
318
  8
035
 10
370.985143
 20
144.296319
 30
0.0
 42
0.098437
  0
VERTEX
  5
319
  8
035
 10
370.774377
 20
144.155682
 30
0.0
 42
0.141327
  0
VERTEX
  5
31A
  8
035
 10
370.7292
 20
144.074025
 30
0.0
 42
0.199105
  0
SEQEND
  5
31B
  8
035
  0
POLYLINE
  5
287
  8
035
 66
     1
 10
0.0
 20
0.0
 30
0.0
  0
VERTEX
  5
31C
  8
035
 10
374.160386
 20
144.256968
 30
0.0
 42
0.242955
  0
VERTEX
  5
31D
  8
035
 10
374.04702
 20
144.476502
 30
0.0
 42
0.083039
  0
VERTEX
  5
31E
  8
035
 10
373.42866
 20
144.776539
 30
0.0
 42
0.041229
  0
VERTEX
  5
31F
  8
035
 10
372.687969
 20
144.929495
 30
0.0
 42
0.030317
  0
VERTEX
  5
320
  8
035
 10
371.662118
 20
144.991753
 30
0.0
 42
0.030317
  0
VERTEX
  5
321
  8
035
 10
370.636268
 20
144.929495
 30
0.0
 42
0.041229
  0
VERTEX
  5
322
  8
035
 10
369.895577
 20
144.776539
 30
0.0
 42
0.083039
  0
VERTEX
  5
323
  8
035
 10
369.277217
 20
144.476502
 30
0.0
 42
0.186877
  0
VERTEX
  5
324
  8
035
 10
369.170014
 20
144.314245
 30
0.0
 42
0.242955
  0
SEQEND
  5
325
  8
035
  0
POLYLINE
  5
288
  8
035
 66
     1
 10
0.0
 20
0.0
 30
0.0
  0
VERTEX
  5
326
  8
035
 10
372.497005
 20
143.997786
 30
0.0
 42
0.058115
  0
VERTEX
  5
327
  8
035
 10
372.501524
 20
144.036533
 30
0.0
 42
0.199105
  0
SEQEND
  5
328
  8
035
  0
POLYLINE
  5
289
  8
035
 66
     1
 10
0.0
 20
0.0
 30
0.0
  0
VERTEX
  5
329
  8
035
 10
374.1543
 20
144.200047
 30
0.0
 42
0.053304
  0
VERTEX
  5
32A
  8
035
 10
374.160386
 20
144.256968
 30
0.0
 42
0.242955
  0
SEQEND
  5
32B
  8
035
  0
LINE
  5
28A
  8
035
 10
379.457018
 20
144.918274
 30
0.0
 11
375.048312
 21
144.918274
 31
0.0
  0
LINE
  5
28B
  8
035
 10
377.641757
 20
144.021837
 30
0.0
 11
375.070012
 21
144.021837
 31
0.0
  0
LINE
  5
28C
  8
035
 10
377.71669
 20
144.359838
 30
0.0
 11
377.641757
 21
144.021837
 31
0.0
  0
LINE
  5
28D
  8
035
 10
382.102242
 20
144.918274
 30
0.0
 11
380.265281
 21
144.918274
 31
0.0
  0
LINE
  5
28E
  8
035
 10
383.865725
 20
144.918274
 30
0.0
 11
383.572509
 21
143.595662
 31
0.0
  0
LINE
  5
28F
  8
035
 10
385.482251
 20
144.918274
 30
0.0
 11
383.865725
 21
144.918274
 31
0.0
  0
ARC
  5
290
  8
05
 10
378.953411
 20
169.962812
 30
0.0
 40
3.2
 50
0.0
 51
90.0
  0
LINE
  5
291
  8
BEM1
 10
349.753411
 20
236.192543
 30
0.0
 11
385.753411
 21
236.192543
 31
0.0
  0
LINE
  5
292
  8
05
 10
380.553411
 20
221.162812
 30
0.0
 11
354.953411
 21
221.162812
 31
0.0
  0
LINE
  5
293
  8
MITTE
 10
390.787017
 20
197.162812
 30
0.0
 11
344.719805
 21
197.162812
 31
0.0
  0
ARC
  5
294
  8
05
 10
354.953411
 20
213.162812
 30
0.0
 40
8.0
 50
90.0
 51
180.0
  0
LINE
  5
295
  8
MITTE
 10
382.953411
 20
220.136148
 30
0.0
 11
382.953411
 21
212.589476
 31
0.0
  0
LINE
  5
296
  8
MITTE
 10
383.753411
 20
219.025218
 30
0.0
 11
383.753411
 21
212.100405
 31
0.0
  0
ARC
  5
297
  8
05
 10
383.753411
 20
215.562812
 30
0.0
 40
2.56
 50
225.0
 51
45.0
  0
ARC
  5
298
  8
05
 10
380.553411
 20
213.162812
 30
0.0
 40
8.0
 50
0.0
 51
90.0
  0
LINE
  5
299
  8
MITTE
 10
386.726747
 20
216.362812
 30
0.0
 11
379.180075
 21
216.362812
 31
0.0
  0
LINE
  5
29A
  8
MITTE
 10
387.215818
 20
215.562812
 30
0.0
 11
380.291005
 21
215.562812
 31
0.0
  0
ARC
  5
29B
  8
05
 10
382.953411
 20
216.362812
 30
0.0
 40
2.56
 50
45.0
 51
225.0
  0
LINE
  5
29C
  8
05
 10
381.943218
 20
213.752618
 30
0.0
 11
381.143218
 21
214.552618
 31
0.0
  0
LINE
  5
29D
  8
05
 10
385.563604
 20
217.373005
 30
0.0
 11
384.763604
 21
218.173005
 31
0.0
  0
TEXT
  5
29E
  8
BEM1
 62
     3
 10
364.160078
 20
237.592543
 30
0.0
 40
2.8
  1
26.00
 41
0.7
 51
15.0
 72
     1
 11
367.753411
 21
238.992543
 31
0.0
 73
     2
  0
TEXT
  5
29F
  8
BEM1
 10
372.573642
 20
237.063828
 30
0.0
 40
2.0
  1
-0.3
 41
0.7
 51
15.0
  0
TEXT
  5
2A0
  8
BEM1
 10
372.812506
 20
239.528149
 30
0.0
 40
2.0
  1
+0
 41
0.7
 51
15.0
  0
ENDSEC
  0
EOF
