  0
SECTION
  2
HEADER
  9
$ACADVER
  1
AC1009
  9
$INSBASE
 10
0.0
 20
0.0
 30
0.0
  9
$EXTMIN
 10
0.0
 20
0.0
 30
0.0
  9
$EXTMAX
 10
420.0
 20
297.0
 30
0.0
  9
$LIMMIN
 10
0.0
 20
0.0
  9
$LIMMAX
 10
410.0
 20
287.0
  9
$ORTHOMODE
 70
     0
  9
$REGENMODE
 70
     1
  9
$FILLMODE
 70
     1
  9
$QTEXTMODE
 70
     0
  9
$MIRRTEXT
 70
     1
  9
$DRAGMODE
 70
     2
  9
$LTSCALE
 40
5.0
  9
$OSMODE
 70
   163
  9
$ATTMODE
 70
     1
  9
$TEXTSIZE
 40
3.5
  9
$TRACEWID
 40
26.0
  9
$TEXTSTYLE
  7
STANDARD
  9
$CLAYER
  8
05
  9
$CELTYPE
  6
BYLAYER
  9
$CECOLOR
 62
   256
  9
$DIMSCALE
 40
1.0
  9
$DIMASZ
 40
3.5
  9
$DIMEXO
 40
0.8
  9
$DIMDLI
 40
8.0
  9
$DIMRND
 40
0.0
  9
$DIMDLE
 40
0.0
  9
$DIMEXE
 40
1.8
  9
$DIMTP
 40
0.0
  9
$DIMTM
 40
0.0
  9
$DIMTXT
 40
3.5
  9
$DIMCEN
 40
1.5
  9
$DIMTSZ
 40
0.0
  9
$DIMTOL
 70
     0
  9
$DIMLIM
 70
     0
  9
$DIMTIH
 70
     0
  9
$DIMTOH
 70
     0
  9
$DIMSE1
 70
     0
  9
$DIMSE2
 70
     0
  9
$DIMTAD
 70
     1
  9
$DIMZIN
 70
     0
  9
$DIMBLK
  1

  9
$DIMASO
 70
     1
  9
$DIMSHO
 70
     0
  9
$DIMPOST
  1

  9
$DIMAPOST
  1
"
  9
$DIMALT
 70
     0
  9
$DIMALTD
 70
     3
  9
$DIMALTF
 40
0.03937
  9
$DIMLFAC
 40
1.0
  9
$DIMTOFL
 70
     0
  9
$DIMTVP
 40
0.0
  9
$DIMTIX
 70
     0
  9
$DIMSOXD
 70
     0
  9
$DIMSAH
 70
     0
  9
$DIMBLK1
  1

  9
$DIMBLK2
  1

  9
$DIMSTYLE
  2
STANDARD
  9
$DIMCLRD
 70
     0
  9
$DIMCLRE
 70
     0
  9
$DIMCLRT
 70
     3
  9
$DIMTFAC
 40
1.0
  9
$DIMGAP
 40
0.09
  9
$LUNITS
 70
     2
  9
$LUPREC
 70
     2
  9
$SKETCHINC
 40
1.0
  9
$FILLETRAD
 40
0.0
  9
$AUNITS
 70
     0
  9
$AUPREC
 70
     0
  9
$MENU
  1
acad
  9
$ELEVATION
 40
0.0
  9
$PELEVATION
 40
0.0
  9
$THICKNESS
 40
0.0
  9
$LIMCHECK
 70
     0
  9
$BLIPMODE
 70
     0
  9
$CHAMFERA
 40
0.0
  9
$CHAMFERB
 40
0.0
  9
$SKPOLY
 70
     0
  9
$TDCREATE
 40
2449757.349143
  9
$TDUPDATE
 40
2451192.582686
  9
$TDINDWG
 40
0.062803
  9
$TDUSRTIMER
 40
0.062803
  9
$USRTIMER
 70
     1
  9
$ANGBASE
 50
0.0
  9
$ANGDIR
 70
     0
  9
$PDMODE
 70
     0
  9
$PDSIZE
 40
0.0
  9
$PLINEWID
 40
0.0
  9
$COORDS
 70
     2
  9
$SPLFRAME
 70
     0
  9
$SPLINETYPE
 70
     6
  9
$SPLINESEGS
 70
     8
  9
$ATTDIA
 70
     1
  9
$ATTREQ
 70
     1
  9
$HANDLING
 70
     1
  9
$HANDSEED
  5
BB5
  9
$SURFTAB1
 70
     6
  9
$SURFTAB2
 70
     6
  9
$SURFTYPE
 70
     6
  9
$SURFU
 70
     6
  9
$SURFV
 70
     6
  9
$UCSNAME
  2

  9
$UCSORG
 10
0.0
 20
0.0
 30
0.0
  9
$UCSXDIR
 10
1.0
 20
0.0
 30
0.0
  9
$UCSYDIR
 10
0.0
 20
1.0
 30
0.0
  9
$PUCSNAME
  2

  9
$PUCSORG
 10
0.0
 20
0.0
 30
0.0
  9
$PUCSXDIR
 10
1.0
 20
0.0
 30
0.0
  9
$PUCSYDIR
 10
0.0
 20
1.0
 30
0.0
  9
$USERI1
 70
     0
  9
$USERI2
 70
     0
  9
$USERI3
 70
     0
  9
$USERI4
 70
     0
  9
$USERI5
 70
     0
  9
$USERR1
 40
0.0
  9
$USERR2
 40
0.0
  9
$USERR3
 40
0.0
  9
$USERR4
 40
0.0
  9
$USERR5
 40
0.0
  9
$WORLDVIEW
 70
     1
  9
$SHADEDGE
 70
     3
  9
$SHADEDIF
 70
    70
  9
$TILEMODE
 70
     1
  9
$MAXACTVP
 70
    16
  9
$PLIMCHECK
 70
     0
  9
$PEXTMIN
 10
1.000000E+020
 20
1.000000E+020
 30
1.000000E+020
  9
$PEXTMAX
 10
-1.000000E+020
 20
-1.000000E+020
 30
-1.000000E+020
  9
$PLIMMIN
 10
0.0
 20
0.0
  9
$PLIMMAX
 10
12.0
 20
9.0
  9
$UNITMODE
 70
     0
  9
$VISRETAIN
 70
     0
  9
$PLINEGEN
 70
     0
  9
$PSLTSCALE
 70
     0
  0
ENDSEC
  0
SECTION
  2
TABLES
  0
TABLE
  2
VPORT
 70
     2
  0
VPORT
  2
*ACTIVE
 70
     0
 10
0.0
 20
0.0
 11
1.0
 21
1.0
 12
232.391444
 22
148.502407
 13
0.0
 23
0.0
 14
1.0
 24
1.0
 15
2.0
 25
2.0
 16
0.0
 26
0.0
 36
1.0
 17
0.0
 27
0.0
 37
0.0
 40
306.290361
 41
1.525
 42
50.0
 43
0.0
 44
0.0
 50
0.0
 51
0.0
 71
     0
 72
   500
 73
     1
 74
     0
 75
     0
 76
     0
 77
     0
 78
     0
  0
ENDTAB
  0
TABLE
  2
LTYPE
 70
     3
  0
LTYPE
  2
AUSGEZOGEN
 70
     0
  3
Ausgezogene Linie
 72
    65
 73
     0
 40
0.0
  0
LTYPE
  2
HIDDEN
 70
     0
  3
_ _ _ _ _ _ _ _ _ _ _ _ _ _ _ _ _ _ _ _ _ _ _
 72
    65
 73
     2
 40
0.375
 49
0.25
 49
-0.125
  0
LTYPE
  2
CENTER
 70
     0
  3
____ _ ____ _ ____ _ ____ _ ____ _ ____ _ ____
 72
    65
 73
     4
 40
2.0
 49
1.25
 49
-0.25
 49
0.25
 49
-0.25
  0
ENDTAB
  0
TABLE
  2
LAYER
 70
    10
  0
LAYER
  2
0
 70
     0
 62
     8
  6
AUSGEZOGEN
  0
LAYER
  2
05
 70
     0
 62
     2
  6
AUSGEZOGEN
  0
LAYER
  2
035
 70
     0
 62
     3
  6
AUSGEZOGEN
  0
LAYER
  2
RAHMEN
 70
     0
 62
     2
  6
AUSGEZOGEN
  0
LAYER
  2
BEM1
 70
     0
 62
     4
  6
AUSGEZOGEN
  0
LAYER
  2
MITTE
 70
     0
 62
     4
  6
CENTER
  0
LAYER
  2
VERDECKT
 70
     0
 62
     4
  6
HIDDEN
  0
LAYER
  2
SCHRAFFIERT
 70
     0
 62
     4
  6
AUSGEZOGEN
  0
LAYER
  2
025
 70
     0
 62
     4
  6
AUSGEZOGEN
  0
LAYER
  2
KONTAKT
 70
     0
 62
     3
  6
AUSGEZOGEN
  0
ENDTAB
  0
TABLE
  2
STYLE
 70
     6
  0
STYLE
  2
STANDARD
 70
     0
 40
0.0
 41
0.7
 50
15.0
 71
     0
 42
3.5
  3
txt
  4

  0
STYLE
  2
SCRIPTS
 70
     0
 40
0.0
 41
1.0
 50
0.0
 71
     0
 42
5.0
  3
scripts
  4

  0
STYLE
  2
HELV
 70
     0
 40
0.0
 41
0.8
 50
10.0
 71
     0
 42
2.0
  3
HELV.SHX
  4

  0
STYLE
  2
HELVL
 70
     0
 40
0.0
 41
0.7
 50
0.0
 71
     0
 42
2.0
  3
helvl
  4

  0
STYLE
  2
ARIAL
 70
     0
 40
0.0
 41
1.0
 50
0.0
 71
     0
 42
2.5
  3
txt
  4

  0
STYLE
  2
UNIV
 70
     0
 40
0.0
 41
1.0
 50
0.0
 71
     0
 42
6.0
  3
univ
  4

  0
ENDTAB
  0
TABLE
  2
VIEW
 70
     0
  0
ENDTAB
  0
TABLE
  2
UCS
 70
     0
  0
ENDTAB
  0
TABLE
  2
APPID
 70
     1
  0
APPID
  2
ACAD
 70
     0
  0
ENDTAB
  0
TABLE
  2
DIMSTYLE
 70
     1
  0
DIMSTYLE
  2
STANDARD
 70
     0
  3

  4

  5

  6

  7

 40
1.0
 41
0.18
 42
0.0625
 43
0.38
 44
0.18
 45
0.0
 46
0.0
 47
0.0
 48
0.0
140
0.18
141
0.09
142
0.0
143
25.4
144
1.0
145
0.0
146
1.0
147
0.09
 71
     0
 72
     0
 73
     1
 74
     1
 75
     0
 76
     0
 77
     0
 78
     0
170
     0
171
     2
172
     0
173
     0
174
     0
175
     0
176
     0
177
     0
178
     0
  0
ENDTAB
  0
ENDSEC
  0
SECTION
  2
BLOCKS
  0
BLOCK
  8
0
  2
$MODEL_SPACE
 70
     0
 10
0.0
 20
0.0
 30
0.0
  3
$MODEL_SPACE
  1

  0
ENDBLK
  5
6
  8
0
  0
BLOCK
 67
     1
  8
0
  2
$PAPER_SPACE
 70
     0
 10
0.0
 20
0.0
 30
0.0
  3
$PAPER_SPACE
  1

  0
ENDBLK
  5
9
 67
     1
  8
0
  0
BLOCK
  8
0
  2
ZKOPF
 70
     2
 10
0.0
 20
0.0
 30
0.0
  3
ZKOPF
  1

  0
ATTDEF
  5
367
  8
0
 62
     4
 10
-13.321429
 20
37.0
 30
0.0
 40
2.5
  1
Dobler
  7
SCRIPTS
 72
     1
 11
-8.5
 21
37.0
 31
0.0
  3
Name des Konstrukteurs ?
  2
NAME
 70
     0
  0
POLYLINE
  5
368
  8
0
 62
     2
 66
     1
 10
0.0
 20
0.0
 30
0.0
  0
VERTEX
  5
A5B
  8
0
 62
     2
 10
-51.0
 20
0.0
 30
0.0
  0
VERTEX
  5
A5C
  8
0
 62
     2
 10
-51.0
 20
46.0
 30
0.0
  0
SEQEND
  5
A5D
  8
0
 62
     2
  0
POLYLINE
  5
369
  8
0
 62
     2
 66
     1
 10
0.0
 20
0.0
 30
0.0
  0
VERTEX
  5
A5E
  8
0
 62
     2
 10
-17.0
 20
9.0
 30
0.0
  0
VERTEX
  5
A5F
  8
0
 62
     2
 10
-17.0
 20
46.0
 30
0.0
  0
SEQEND
  5
A60
  8
0
 62
     2
  0
POLYLINE
  5
36A
  8
0
 62
     2
 66
     1
 10
0.0
 20
0.0
 30
0.0
  0
VERTEX
  5
A61
  8
0
 62
     2
 10
-32.0
 20
26.0
 30
0.0
  0
VERTEX
  5
A62
  8
0
 62
     2
 10
-32.0
 20
46.0
 30
0.0
  0
SEQEND
  5
A63
  8
0
 62
     2
  0
POLYLINE
  5
36B
  8
0
 62
     2
 66
     1
 10
0.0
 20
0.0
 30
0.0
  0
VERTEX
  5
A64
  8
0
 62
     2
 10
-133.0
 20
41.0
 30
0.0
  0
VERTEX
  5
A65
  8
0
 62
     2
 10
-92.0
 20
41.0
 30
0.0
  0
SEQEND
  5
A66
  8
0
 62
     2
  0
POLYLINE
  5
36C
  8
0
 62
     2
 66
     1
 10
0.0
 20
0.0
 30
0.0
  0
VERTEX
  5
A67
  8
0
 62
     2
 10
-145.0
 20
0.0
 30
0.0
  0
VERTEX
  5
A68
  8
0
 62
     2
 10
-145.0
 20
46.0
 30
0.0
  0
SEQEND
  5
A69
  8
0
 62
     2
  0
POLYLINE
  5
36D
  8
0
 62
     2
 66
     1
 10
0.0
 20
0.0
 30
0.0
  0
VERTEX
  5
A6A
  8
0
 62
     2
 10
-158.0
 20
0.0
 30
0.0
  0
VERTEX
  5
A6B
  8
0
 62
     2
 10
-158.0
 20
46.0
 30
0.0
  0
SEQEND
  5
A6C
  8
0
 62
     2
  0
LINE
  5
36E
  8
0
 62
     2
 10
-200.0
 20
6.0
 30
0.0
 11
-133.0
 21
6.0
 31
0.0
  0
POLYLINE
  5
36F
  8
0
 62
     4
 66
     1
 10
0.0
 20
0.0
 30
0.0
  0
VERTEX
  5
A6D
  8
0
 62
     4
 10
-200.0
 20
11.0
 30
0.0
  0
VERTEX
  5
A6E
  8
0
 62
     4
 10
-133.0
 20
11.0
 30
0.0
  0
SEQEND
  5
A6F
  8
0
 62
     4
  0
POLYLINE
  5
370
  8
0
 62
     4
 66
     1
 10
0.0
 20
0.0
 30
0.0
  0
VERTEX
  5
A70
  8
0
 62
     4
 10
-200.0
 20
16.0
 30
0.0
  0
VERTEX
  5
A71
  8
0
 62
     4
 10
-133.0
 20
16.0
 30
0.0
  0
SEQEND
  5
A72
  8
0
 62
     4
  0
POLYLINE
  5
371
  8
0
 62
     4
 66
     1
 10
0.0
 20
0.0
 30
0.0
  0
VERTEX
  5
A73
  8
0
 62
     4
 10
-200.0
 20
21.0
 30
0.0
  0
VERTEX
  5
A74
  8
0
 62
     4
 10
-133.0
 20
21.0
 30
0.0
  0
SEQEND
  5
A75
  8
0
 62
     4
  0
POLYLINE
  5
372
  8
0
 62
     4
 66
     1
 10
0.0
 20
0.0
 30
0.0
  0
VERTEX
  5
A76
  8
0
 62
     4
 10
-200.0
 20
26.0
 30
0.0
  0
VERTEX
  5
A77
  8
0
 62
     4
 10
-133.0
 20
26.0
 30
0.0
  0
SEQEND
  5
A78
  8
0
 62
     4
  0
POLYLINE
  5
373
  8
0
 62
     4
 66
     1
 10
0.0
 20
0.0
 30
0.0
  0
VERTEX
  5
A79
  8
0
 62
     4
 10
-200.0
 20
31.0
 30
0.0
  0
VERTEX
  5
A7A
  8
0
 62
     4
 10
-133.0
 20
31.0
 30
0.0
  0
SEQEND
  5
A7B
  8
0
 62
     4
  0
POLYLINE
  5
374
  8
0
 62
     4
 66
     1
 10
0.0
 20
0.0
 30
0.0
  0
VERTEX
  5
A7C
  8
0
 62
     4
 10
-200.0
 20
36.0
 30
0.0
  0
VERTEX
  5
A7D
  8
0
 62
     4
 10
-133.0
 20
36.0
 30
0.0
  0
SEQEND
  5
A7E
  8
0
 62
     4
  0
POLYLINE
  5
375
  8
0
 62
     4
 66
     1
 10
0.0
 20
0.0
 30
0.0
  0
VERTEX
  5
A7F
  8
0
 62
     4
 10
-200.0
 20
41.0
 30
0.0
  0
VERTEX
  5
A80
  8
0
 62
     4
 10
-133.0
 20
41.0
 30
0.0
  0
SEQEND
  5
A81
  8
0
 62
     4
  0
TEXT
  5
376
  8
0
 62
     4
 10
-50.0
 20
6.0
 30
0.0
 40
1.5
  1
Zeichn. Nr.
 51
15.0
  0
TEXT
  5
377
  8
0
 62
     4
 10
-50.0
 20
23.0
 30
0.0
 40
1.5
  1
Ersetzt durch:         Blatt
 51
15.0
  0
TEXT
  5
378
  8
0
 62
     4
 10
-50.0
 20
38.0
 30
0.0
 40
1.5
  1
Gezeichnet
 51
15.0
  0
TEXT
  5
379
  8
0
 62
     4
 10
-50.0
 20
27.0
 30
0.0
 40
1.5
  1
Gesehen
 51
15.0
  0
TEXT
  5
37A
  8
0
 62
     4
 10
-31.0
 20
42.0
 30
0.0
 40
1.5
  1
Datum     Name
 51
15.0
  0
TEXT
  5
37B
  8
0
 62
     4
 10
-91.0
 20
42.0
 30
0.0
 40
1.5
  1
Werkstoff:      Massstab:
 51
15.0
  0
TEXT
  5
37C
  8
0
 62
     4
 10
-132.0
 20
23.0
 30
0.0
 40
1.5
  1
Benennung:
 51
15.0
  0
LINE
  5
37D
  8
0
 62
     2
 10
-133.0
 20
33.0
 30
0.0
 11
-92.0
 21
33.0
 31
0.0
  0
TEXT
  5
37E
  8
0
 62
     4
 10
-132.0
 20
39.0
 30
0.0
 40
1.5
  1
*)Lieferant darf ohne 
 51
15.0
  0
TEXT
  5
37F
  8
0
 62
     4
 10
-132.0
 20
36.5
 30
0.0
 40
1.5
  1
 Ruecksprache nicht 
 51
15.0
  0
TEXT
  5
380
  8
0
 62
     4
 10
-132.0
 20
34.0
 30
0.0
 40
1.5
  1
 geaendert werden
 51
15.0
  0
TEXT
  5
381
  8
0
 62
     4
 10
-132.0
 20
30.0
 30
0.0
 40
1.5
  1
Zeichnung urheberrechtlich
 51
15.0
  0
TEXT
  5
382
  8
0
 62
     4
 10
-132.0
 20
27.5
 30
0.0
 40
1.5
  1
geschuetzt (DIN 34) (C)
 51
15.0
  0
TEXT
  5
383
  8
0
 62
     4
 10
-50.0
 20
32.0
 30
0.0
 40
1.5
  1
Geprueft
 51
15.0
  0
TEXT
  5
384
  8
0
 62
     4
 10
-50.0
 20
15.0
 30
0.0
 40
1.5
  1
Ersatz fuer:           von  Blatt
 51
15.0
  0
TEXT
  5
385
  8
0
 62
     4
 10
-197.0
 20
1.0
 30
0.0
 40
1.5
  1
Ind.  Aenderung             Datum    Name
 51
15.0
  0
ATTDEF
  5
386
  8
0
 62
     4
 10
-28.875
 20
37.0
 30
0.0
 40
2.5
  1
01.10.91
 41
0.7
 51
15.0
 72
     1
 11
-24.5
 21
37.0
 31
0.0
  3
Datum der Zeichnung ?
  2
DATE
 70
     0
  0
ATTDEF
  5
387
  8
0
 62
     4
 10
-80.5
 20
36.0
 30
0.0
 40
2.5
  1

 41
0.7
 51
15.0
 72
     1
 11
-80.5
 21
36.0
 31
0.0
  3
Aus welchem Werkstoff ?
  2
WERKSTOFF
 70
     0
  0
ATTDEF
  5
388
  8
0
 62
     2
 10
-92.0
 20
12.5
 30
0.0
 40
5.0
  1

 41
0.7
 51
15.0
 72
     1
 11
-92.0
 21
12.5
 31
0.0
  3
Zeichnungsname ?
  2
BENENNUNG
 70
     0
  0
ATTDEF
  5
389
  8
0
 62
     3
 10
-90.265457
 20
21.082191
 30
0.0
 40
3.5
  1
()
 41
0.7
 51
15.0
 72
     1
 11
-89.040457
 21
21.082191
 31
0.0
  3
Zu welchem Produkt ?
  2
TEIL
 70
     0
  0
ATTDEF
  5
38A
  8
0
 62
     3
 10
-20.550219
 20
1.976541
 30
0.0
 40
3.5
  1

 41
0.7
 51
15.0
 72
     1
 11
-20.550219
 21
1.976541
 31
0.0
  3
Zeichnungsnummer ?
  2
NUMMER
 70
     0
  0
ATTDEF
  5
38B
  8
0
 62
     2
 10
-63.482672
 20
34.656056
 30
0.0
 40
5.0
  1
5:1
 41
0.7
 51
15.0
 72
     1
 11
-60.566005
 21
34.656056
 31
0.0
  3
Hauptmassstab:
  2
MASS
 70
     0
  0
ATTDEF
  5
38C
  8
0
 62
     3
 10
-60.480701
 20
28.210451
 30
0.0
 40
3.5
  1

 41
0.7
 51
15.0
 72
     1
 11
-60.480701
 21
28.210451
 31
0.0
  3
Nebenmassstab:
  2
MASS2
 70
     0
  0
ATTDEF
  5
38D
  8
0
 62
     4
 10
-81.0
 20
29.0
 30
0.0
 40
2.5
  1

 41
0.7
 51
15.0
 72
     1
 11
-81.0
 21
29.0
 31
0.0
  3
Werkstoffzusatz:
  2
TEIL
 70
     0
  0
ATTDEF
  5
38E
  8
0
 62
     3
 10
-107.711452
 20
59.004319
 30
0.0
 40
3.5
  1
Freimasstoleranzen %%p0.1
 41
0.7
 51
15.0
  3
Freimasstoleranzen:
  2
TOL
 70
     0
  0
ATTDEF
  5
38F
  8
0
 62
     3
 10
-107.711452
 20
54.004319
 30
0.0
 40
3.5
  1
nicht bemasste Radien R=0.2
 41
0.7
 51
15.0
  3
Nicht bemasste Radien:
  2
RADIEN
 70
     0
  0
ATTDEF
  5
390
  8
0
 62
     3
 10
-107.711452
 20
49.004319
 30
0.0
 40
3.5
  1
nicht bemasste Facetten 0.5 x 45%%D
 41
0.7
 51
15.0
  3
nicht bemasste Facetten:
  2
FACETTE
 70
     0
  0
POLYLINE
  5
391
  8
0
 62
     2
 66
     1
 10
0.0
 20
0.0
 30
0.0
  0
VERTEX
  5
A82
  8
0
 62
     2
 10
-191.0
 20
0.0
 30
0.0
  0
VERTEX
  5
A83
  8
0
 62
     2
 10
-191.0
 20
46.0
 30
0.0
  0
SEQEND
  5
A84
  8
0
 62
     2
  0
POLYLINE
  5
392
  8
0
 62
     2
 66
     1
 10
0.0
 20
0.0
 30
0.0
  0
VERTEX
  5
A85
  8
0
 62
     2
 10
-133.0
 20
0.0
 30
0.0
  0
VERTEX
  5
A86
  8
0
 62
     2
 10
-133.0
 20
46.0
 30
0.0
  0
SEQEND
  5
A87
  8
0
 62
     2
  0
POLYLINE
  5
393
  8
0
 62
     2
 66
     1
 10
0.0
 20
0.0
 30
0.0
  0
VERTEX
  5
A88
  8
0
 62
     2
 10
-92.0
 20
26.0
 30
0.0
  0
VERTEX
  5
A89
  8
0
 62
     2
 10
-92.0
 20
46.0
 30
0.0
  0
SEQEND
  5
A8A
  8
0
 62
     2
  0
POLYLINE
  5
394
  8
0
 62
     2
 66
     1
 10
0.0
 20
0.0
 30
0.0
  0
VERTEX
  5
A8B
  8
0
 62
     2
 10
-69.0
 20
26.0
 30
0.0
  0
VERTEX
  5
A8C
  8
0
 62
     2
 10
-69.0
 20
46.0
 30
0.0
  0
SEQEND
  5
A8D
  8
0
 62
     2
  0
ATTDEF
  5
395
  8
0
 62
     4
 10
-197.186267
 20
7.0
 30
0.0
 40
2.5
  1

 41
0.7
 51
15.0
  3
Index1:
  2
INDEX1
 70
     0
  0
ATTDEF
  5
396
  8
0
 62
     4
 10
-190.348743
 20
7.0
 30
0.0
 40
2.5
  1

 41
0.7
 51
15.0
  3
Aenderung1:
  2
A1
 70
     0
  0
ATTDEF
  5
397
  8
0
 62
     4
 10
-157.348743
 20
7.0
 30
0.0
 40
2.5
  1

 41
0.7
 51
15.0
  3
Datum1:
  2
DATUM1
 70
     0
  0
ATTDEF
  5
398
  8
0
 62
     4
 10
-144.46499
 20
7.0
 30
0.0
 40
2.5
  1

 41
0.7
 51
15.0
  3
Name1:
  2
NAME1
 70
     0
  0
ATTDEF
  5
399
  8
0
 62
     4
 10
-197.186267
 20
12.0
 30
0.0
 40
2.5
  1

 41
0.7
 51
15.0
  3
Index2:
  2
INDEX2
 70
     0
  0
ATTDEF
  5
39A
  8
0
 62
     4
 10
-190.348743
 20
12.0
 30
0.0
 40
2.5
  1

 41
0.7
 51
15.0
  3
Aenderung2:
  2
A2
 70
     0
  0
ATTDEF
  5
39B
  8
0
 62
     4
 10
-157.348743
 20
12.0
 30
0.0
 40
2.5
  1

 41
0.7
 51
15.0
  3
Datum2:
  2
DATUM2
 70
     0
  0
ATTDEF
  5
39C
  8
0
 62
     4
 10
-144.46499
 20
12.0
 30
0.0
 40
2.5
  1

 41
0.7
 51
15.0
  3
Name2
  2
NAME2
 70
     0
  0
ATTDEF
  5
39D
  8
0
 62
     4
 10
-197.186267
 20
17.0
 30
0.0
 40
2.5
  1

 41
0.7
 51
15.0
  3
Index3:
  2
INDEX3
 70
     0
  0
ATTDEF
  5
39E
  8
0
 62
     4
 10
-190.348743
 20
17.0
 30
0.0
 40
2.5
  1

 41
0.7
 51
15.0
  3
Aenderung3
  2
A3
 70
     0
  0
ATTDEF
  5
39F
  8
0
 62
     4
 10
-157.348743
 20
17.0
 30
0.0
 40
2.5
  1

 41
0.7
 51
15.0
  3
Datum3:
  2
DATUM3
 70
     0
  0
ATTDEF
  5
3A0
  8
0
 62
     4
 10
-144.46499
 20
17.0
 30
0.0
 40
2.5
  1

 41
0.7
 51
15.0
  3
Name3:
  2
NAME3
 70
     0
  0
ATTDEF
  5
3A1
  8
0
 62
     4
 10
-197.186267
 20
22.0
 30
0.0
 40
2.5
  1

 41
0.7
 51
15.0
  3
Index4:
  2
INDEX4
 70
     0
  0
ATTDEF
  5
3A2
  8
0
 62
     4
 10
-190.348743
 20
22.0
 30
0.0
 40
2.5
  1

 41
0.7
 51
15.0
  3
Aenderung4:
  2
A4
 70
     0
  0
ATTDEF
  5
3A3
  8
0
 62
     4
 10
-157.348743
 20
22.0
 30
0.0
 40
2.5
  1

 41
0.7
 51
15.0
  3
Datum4:
  2
DATUM4
 70
     0
  0
ATTDEF
  5
3A4
  8
0
 62
     4
 10
-144.46499
 20
22.0
 30
0.0
 40
2.5
  1

 41
0.7
 51
15.0
  3
Name4:
  2
NAME4
 70
     0
  0
ATTDEF
  5
3A5
  8
0
 62
     4
 10
-197.186267
 20
27.0
 30
0.0
 40
2.5
  1

 41
0.7
 51
15.0
  3
Index5:
  2
INDEX5
 70
     0
  0
ATTDEF
  5
3A6
  8
0
 62
     4
 10
-190.348743
 20
27.0
 30
0.0
 40
2.5
  1

 41
0.7
 51
15.0
  3
Aenderung5:
  2
A5
 70
     0
  0
ATTDEF
  5
3A7
  8
0
 62
     4
 10
-157.348743
 20
27.0
 30
0.0
 40
2.5
  1

 41
0.7
 51
15.0
  3
Datum5:
  2
DATUM5
 70
     0
  0
ATTDEF
  5
3A8
  8
0
 62
     4
 10
-144.46499
 20
27.0
 30
0.0
 40
2.5
  1

 41
0.7
 51
15.0
  3
Name5
  2
NAME5
 70
     0
  0
ATTDEF
  5
3A9
  8
0
 62
     4
 10
-197.186267
 20
32.0
 30
0.0
 40
2.5
  1

 41
0.7
 51
15.0
  3
Index6:
  2
INDEX6
 70
     0
  0
ATTDEF
  5
3AA
  8
0
 62
     4
 10
-190.348743
 20
32.0
 30
0.0
 40
2.5
  1

 41
0.7
 51
15.0
  3
Aenderung6:
  2
A6
 70
     0
  0
ATTDEF
  5
3AB
  8
0
 62
     4
 10
-157.348743
 20
32.0
 30
0.0
 40
2.5
  1

 41
0.7
 51
15.0
  3
Datum6:
  2
DATUM6
 70
     0
  0
ATTDEF
  5
3AC
  8
0
 62
     4
 10
-144.46499
 20
32.0
 30
0.0
 40
2.5
  1

 41
0.7
 51
15.0
  3
Name6:
  2
NAME6
 70
     0
  0
ATTDEF
  5
3AD
  8
0
 62
     4
 10
-197.186267
 20
37.0
 30
0.0
 40
2.5
  1

 41
0.7
 51
15.0
  3
Index7:
  2
INDEX7
 70
     0
  0
ATTDEF
  5
3AE
  8
0
 62
     4
 10
-190.348743
 20
37.0
 30
0.0
 40
2.5
  1

 41
0.7
 51
15.0
  3
Aenderung7:
  2
A7
 70
     0
  0
ATTDEF
  5
3AF
  8
0
 62
     4
 10
-157.348743
 20
37.0
 30
0.0
 40
2.5
  1

 41
0.7
 51
15.0
  3
Datum7:
  2
DATUM7
 70
     0
  0
ATTDEF
  5
3B0
  8
0
 62
     4
 10
-144.46499
 20
37.0
 30
0.0
 40
2.5
  1

 41
0.7
 51
15.0
  3
Name7:
  2
NAME7
 70
     0
  0
ATTDEF
  5
3B1
  8
0
 62
     4
 10
-197.186267
 20
42.0
 30
0.0
 40
2.5
  1

 41
0.7
 51
15.0
  3
Index8:
  2
INDEX8
 70
     0
  0
ATTDEF
  5
3B2
  8
0
 62
     4
 10
-190.348743
 20
42.0
 30
0.0
 40
2.5
  1

 41
0.7
 51
15.0
  3
Aenderung8:
  2
A8
 70
     0
  0
ATTDEF
  5
3B3
  8
0
 62
     4
 10
-157.348743
 20
42.0
 30
0.0
 40
2.5
  1

 41
0.7
 51
15.0
  3
Datum8:
  2
DATUM8
 70
     0
  0
ATTDEF
  5
3B4
  8
0
 62
     4
 10
-144.46499
 20
42.0
 30
0.0
 40
2.5
  1

 41
0.7
 51
15.0
  3
Name8:
  2
NAME8
 70
     0
  0
POLYLINE
  5
3B5
  8
0
 62
     2
 66
     1
 10
0.0
 20
0.0
 30
0.0
  0
VERTEX
  5
A8E
  8
0
 62
     2
 10
0.0
 20
0.0
 30
0.0
  0
VERTEX
  5
A8F
  8
0
 62
     2
 10
0.0
 20
46.0
 30
0.0
  0
SEQEND
  5
A90
  8
0
 62
     2
  0
POLYLINE
  5
3B6
  8
0
 62
     2
 66
     1
 10
0.0
 20
0.0
 30
0.0
  0
VERTEX
  5
A91
  8
0
 62
     2
 10
-200.0
 20
46.0
 30
0.0
  0
VERTEX
  5
A92
  8
0
 62
     2
 10
-200.0
 20
0.0
 30
0.0
  0
SEQEND
  5
A93
  8
0
 62
     2
  0
POLYLINE
  5
3B7
  8
0
 62
     2
 66
     1
 10
0.0
 20
0.0
 30
0.0
  0
VERTEX
  5
A94
  8
0
 62
     2
 10
0.0
 20
9.0
 30
0.0
  0
VERTEX
  5
A95
  8
0
 62
     2
 10
-133.0
 20
9.0
 30
0.0
  0
SEQEND
  5
A96
  8
0
 62
     2
  0
POLYLINE
  5
3B8
  8
0
 62
     2
 66
     1
 10
0.0
 20
0.0
 30
0.0
  0
VERTEX
  5
A97
  8
0
 62
     2
 10
0.0
 20
18.0
 30
0.0
  0
VERTEX
  5
A98
  8
0
 62
     2
 10
-51.0
 20
18.0
 30
0.0
  0
SEQEND
  5
A99
  8
0
 62
     2
  0
POLYLINE
  5
3B9
  8
0
 62
     2
 66
     1
 10
0.0
 20
0.0
 30
0.0
  0
VERTEX
  5
A9A
  8
0
 62
     2
 10
0.0
 20
26.0
 30
0.0
  0
VERTEX
  5
A9B
  8
0
 62
     2
 10
-133.0
 20
26.0
 30
0.0
  0
SEQEND
  5
A9C
  8
0
 62
     2
  0
POLYLINE
  5
3BA
  8
0
 62
     2
 66
     1
 10
0.0
 20
0.0
 30
0.0
  0
VERTEX
  5
A9D
  8
0
 62
     2
 10
0.0
 20
31.0
 30
0.0
  0
VERTEX
  5
A9E
  8
0
 62
     2
 10
-51.0
 20
31.0
 30
0.0
  0
SEQEND
  5
A9F
  8
0
 62
     2
  0
POLYLINE
  5
3BB
  8
0
 62
     2
 66
     1
 10
0.0
 20
0.0
 30
0.0
  0
VERTEX
  5
AA0
  8
0
 62
     2
 10
0.0
 20
36.0
 30
0.0
  0
VERTEX
  5
AA1
  8
0
 62
     2
 10
-51.0
 20
36.0
 30
0.0
  0
SEQEND
  5
AA2
  8
0
 62
     2
  0
POLYLINE
  5
3BC
  8
0
 62
     2
 66
     1
 10
0.0
 20
0.0
 30
0.0
  0
VERTEX
  5
AA3
  8
0
 62
     2
 10
0.0
 20
41.0
 30
0.0
  0
VERTEX
  5
AA4
  8
0
 62
     2
 10
-51.0
 20
41.0
 30
0.0
  0
SEQEND
  5
AA5
  8
0
 62
     2
  0
POLYLINE
  5
3BD
  8
0
 62
     2
 66
     1
 10
0.0
 20
0.0
 30
0.0
  0
VERTEX
  5
AA6
  8
0
 62
     2
 10
0.0
 20
46.0
 30
0.0
  0
VERTEX
  5
AA7
  8
0
 62
     2
 10
-200.0
 20
46.0
 30
0.0
  0
SEQEND
  5
AA8
  8
0
 62
     2
  0
TEXT
  5
3BE
  8
035
 10
517.653158
 20
512.84859
 30
0.0
 40
3.5
  1
  
 41
0.7
 51
15.0
  0
LINE
  5
3BF
  8
035
 10
-131.889278
 20
3.208952
 30
0.0
 11
-130.181445
 21
3.208952
 31
0.0
  0
LINE
  5
3C0
  8
035
 10
-131.338562
 20
5.693072
 30
0.0
 11
-129.320214
 21
5.693072
 31
0.0
  0
LINE
  5
3C1
  8
035
 10
-131.889278
 20
3.208952
 30
0.0
 11
-131.338562
 21
5.693072
 31
0.0
  0
LINE
  5
3C2
  8
035
 10
-130.181445
 20
3.208952
 30
0.0
 11
-129.871668
 21
4.60627
 31
0.0
  0
LINE
  5
3C3
  8
035
 10
-126.377637
 20
3.208952
 30
0.0
 11
-125.826921
 21
5.693072
 31
0.0
  0
LINE
  5
3C4
  8
035
 10
-127.775692
 20
4.60627
 30
0.0
 11
-127.534753
 21
5.693072
 31
0.0
  0
LINE
  5
3C5
  8
035
 10
-129.871668
 20
4.60627
 30
0.0
 11
-128.318356
 21
3.208952
 31
0.0
  0
LINE
  5
3C6
  8
035
 10
-129.320214
 20
5.693072
 30
0.0
 11
-127.775692
 21
4.60627
 31
0.0
  0
LINE
  5
3C7
  8
035
 10
-127.534753
 20
5.693072
 30
0.0
 11
-125.826921
 21
5.693072
 31
0.0
  0
LINE
  5
3C8
  8
035
 10
-128.318356
 20
3.208952
 30
0.0
 11
-126.377637
 21
3.208952
 31
0.0
  0
LINE
  5
3C9
  8
035
 10
-125.523721
 20
3.208952
 30
0.0
 11
-124.973005
 21
5.693072
 31
0.0
  0
LINE
  5
3CA
  8
035
 10
-123.718348
 20
3.648931
 30
0.0
 11
-123.572674
 21
4.306023
 31
0.0
  0
LINE
  5
3CB
  8
035
 10
-120.855668
 20
4.306023
 30
0.0
 11
-120.791381
 21
4.596001
 31
0.0
  0
LINE
  5
3CC
  8
035
 10
-120.865996
 20
3.208952
 30
0.0
 11
-120.768456
 21
3.648931
 31
0.0
  0
LINE
  5
3CD
  8
035
 10
-125.523721
 20
3.208952
 30
0.0
 11
-120.865996
 21
3.208952
 31
0.0
  0
LINE
  5
3CE
  8
035
 10
-124.973005
 20
5.693072
 30
0.0
 11
-120.31528
 21
5.693072
 31
0.0
  0
LINE
  5
3CF
  8
035
 10
-123.508387
 20
4.596001
 30
0.0
 11
-123.362713
 21
5.253094
 31
0.0
  0
LINE
  5
3D0
  8
035
 10
-120.412821
 20
5.253094
 30
0.0
 11
-120.31528
 21
5.693072
 31
0.0
  0
LINE
  5
3D1
  8
035
 10
-119.921488
 20
3.967747
 30
0.0
 11
-119.538993
 21
5.693072
 31
0.0
  0
LINE
  5
3D2
  8
035
 10
-118.170584
 20
4.181432
 30
0.0
 11
-117.835462
 21
5.693072
 31
0.0
  0
LINE
  5
3D3
  8
035
 10
-116.302927
 20
4.100887
 30
0.0
 11
-115.949949
 21
5.693072
 31
0.0
  0
LINE
  5
3D4
  8
035
 10
-114.655674
 20
3.847099
 30
0.0
 11
-114.246432
 21
5.693072
 31
0.0
  0
LINE
  5
3D5
  8
035
 10
-119.538993
 20
5.693072
 30
0.0
 11
-117.835462
 21
5.693072
 31
0.0
  0
POLYLINE
  5
3D6
  8
035
 66
     1
 10
0.0
 20
0.0
 30
0.0
  0
VERTEX
  5
AA9
  8
035
 10
-119.921488
 20
3.967747
 30
0.0
 42
0.053304
  0
VERTEX
  5
AAA
  8
035
 10
-119.927918
 20
3.907611
 30
0.0
 42
0.242955
  0
SEQEND
  5
AAB
  8
035
  0
POLYLINE
  5
3D7
  8
035
 66
     1
 10
0.0
 20
0.0
 30
0.0
  0
VERTEX
  5
AAC
  8
035
 10
-119.927918
 20
3.907611
 30
0.0
 42
0.242955
  0
VERTEX
  5
AAD
  8
035
 10
-119.808149
 20
3.675677
 30
0.0
 42
0.083039
  0
VERTEX
  5
AAE
  8
035
 10
-119.154862
 20
3.358693
 30
0.0
 42
0.041229
  0
VERTEX
  5
AAF
  8
035
 10
-118.372334
 20
3.197098
 30
0.0
 42
0.030317
  0
VERTEX
  5
AB0
  8
035
 10
-117.28854
 20
3.131323
 30
0.0
 42
0.030317
  0
VERTEX
  5
AB1
  8
035
 10
-116.204747
 20
3.197098
 30
0.0
 42
0.041229
  0
VERTEX
  5
AB2
  8
035
 10
-115.422219
 20
3.358693
 30
0.0
 42
0.083039
  0
VERTEX
  5
AB3
  8
035
 10
-114.768932
 20
3.675677
 30
0.0
 42
0.186877
  0
VERTEX
  5
AB4
  8
035
 10
-114.655674
 20
3.847099
 30
0.0
 42
0.242955
  0
SEQEND
  5
AB5
  8
035
  0
POLYLINE
  5
3D8
  8
035
 66
     1
 10
0.0
 20
0.0
 30
0.0
  0
VERTEX
  5
AB6
  8
035
 10
-118.175358
 20
4.140497
 30
0.0
 42
0.199105
  0
VERTEX
  5
AB7
  8
035
 10
-118.123163
 20
4.014618
 30
0.0
 42
0.098437
  0
VERTEX
  5
AB8
  8
035
 10
-117.900493
 20
3.866038
 30
0.0
 42
0.055684
  0
VERTEX
  5
AB9
  8
035
 10
-117.619171
 20
3.784861
 30
0.0
 42
0.042444
  0
VERTEX
  5
ABA
  8
035
 10
-117.23691
 20
3.752353
 30
0.0
 42
0.042444
  0
VERTEX
  5
ABB
  8
035
 10
-116.854649
 20
3.784861
 30
0.0
 42
0.055684
  0
VERTEX
  5
ABC
  8
035
 10
-116.573327
 20
3.866038
 30
0.0
 42
0.098437
  0
VERTEX
  5
ABD
  8
035
 10
-116.350657
 20
4.014618
 30
0.0
 42
0.141327
  0
VERTEX
  5
ABE
  8
035
 10
-116.302927
 20
4.100887
 30
0.0
 42
0.199105
  0
SEQEND
  5
ABF
  8
035
  0
POLYLINE
  5
3D9
  8
035
 66
     1
 10
0.0
 20
0.0
 30
0.0
  0
VERTEX
  5
AC0
  8
035
 10
-118.170584
 20
4.181432
 30
0.0
 42
0.058115
  0
VERTEX
  5
AC1
  8
035
 10
-118.175358
 20
4.140497
 30
0.0
 42
0.199105
  0
SEQEND
  5
AC2
  8
035
  0
LINE
  5
3DA
  8
035
 10
-115.949949
 20
5.693072
 30
0.0
 11
-114.246432
 21
5.693072
 31
0.0
  0
LINE
  5
3DB
  8
035
 10
-113.932145
 20
5.072042
 30
0.0
 11
-113.794466
 21
5.693072
 31
0.0
  0
LINE
  5
3DC
  8
035
 10
-112.792607
 20
3.208952
 30
0.0
 11
-112.37957
 21
5.072042
 31
0.0
  0
LINE
  5
3DD
  8
035
 10
-111.084775
 20
3.208952
 30
0.0
 11
-110.671738
 21
5.072042
 31
0.0
  0
LINE
  5
3DE
  8
035
 10
-109.041534
 20
5.072042
 30
0.0
 11
-108.903855
 21
5.693072
 31
0.0
  0
LINE
  5
3DF
  8
035
 10
-113.932145
 20
5.072042
 30
0.0
 11
-112.37957
 21
5.072042
 31
0.0
  0
LINE
  5
3E0
  8
035
 10
-112.792607
 20
3.208952
 30
0.0
 11
-111.084775
 21
3.208952
 31
0.0
  0
LINE
  5
3E1
  8
035
 10
-113.794466
 20
5.693072
 30
0.0
 11
-108.903855
 21
5.693072
 31
0.0
  0
LINE
  5
3E2
  8
035
 10
-110.671738
 20
5.072042
 30
0.0
 11
-109.041534
 21
5.072042
 31
0.0
  0
LINE
  5
3E3
  8
035
 10
-108.91117
 20
3.208952
 30
0.0
 11
-108.360454
 21
5.693072
 31
0.0
  0
LINE
  5
3E4
  8
035
 10
-107.203338
 20
3.208952
 30
0.0
 11
-106.997985
 21
4.13524
 31
0.0
  0
LINE
  5
3E5
  8
035
 10
-108.91117
 20
3.208952
 30
0.0
 11
-107.203338
 21
3.208952
 31
0.0
  0
LINE
  5
3E6
  8
035
 10
-108.360454
 20
5.693072
 30
0.0
 11
-104.002078
 21
5.693072
 31
0.0
  0
LINE
  5
3E7
  8
035
 10
-103.691866
 20
3.468914
 30
0.0
 11
-103.651414
 21
4.047405
 31
0.0
  0
LINE
  5
3E8
  8
035
 10
-105.404037
 20
3.406868
 30
0.0
 11
-105.372771
 21
3.861921
 31
0.0
  0
LINE
  5
3E9
  8
035
 10
-106.933698
 20
4.425218
 30
0.0
 11
-106.750163
 21
5.253094
 31
0.0
  0
ARC
  5
3EA
  8
035
 10
-103.304668
 20
3.441838
 30
0.0
 40
0.388144
 50
176.0
 51
216.869898
  0
ARC
  5
3EB
  8
035
 10
-105.030247
 20
3.411905
 30
0.0
 40
0.373824
 50
180.772005
 51
212.881875
  0
LINE
  5
3EC
  8
035
 10
-105.344182
 20
3.208952
 30
0.0
 11
-103.615183
 21
3.208952
 31
0.0
  0
POLYLINE
  5
3ED
  8
035
 66
     1
 10
0.0
 20
0.0
 30
0.0
  0
VERTEX
  5
AC3
  8
035
 10
-103.651414
 20
4.047405
 30
0.0
 42
0.084831
  0
VERTEX
  5
AC4
  8
035
 10
-103.660284
 20
4.142982
 30
0.0
 42
0.153048
  0
VERTEX
  5
AC5
  8
035
 10
-103.751613
 20
4.286875
 30
0.0
 42
0.025315
  0
VERTEX
  5
AC6
  8
035
 10
-103.797537
 20
4.321852
 30
0.0
 42
0.067948
  0
SEQEND
  5
AC7
  8
035
  0
POLYLINE
  5
3EE
  8
035
 66
     1
 10
0.0
 20
0.0
 30
0.0
  0
VERTEX
  5
AC8
  8
035
 10
-103.797537
 20
4.321852
 30
0.0
 42
0.015369
  0
VERTEX
  5
AC9
  8
035
 10
-103.68387
 20
4.380025
 30
0.0
 42
0.073981
  0
VERTEX
  5
ACA
  8
035
 10
-103.356816
 20
4.629409
 30
0.0
 42
0.106894
  0
VERTEX
  5
ACB
  8
035
 10
-103.152297
 20
4.956595
 30
0.0
 42
0.153048
  0
VERTEX
  5
ACC
  8
035
 10
-103.140863
 20
5.229042
 30
0.0
 42
0.153048
  0
VERTEX
  5
ACD
  8
035
 10
-103.286988
 20
5.459272
 30
0.0
 42
0.106894
  0
VERTEX
  5
ACE
  8
035
 10
-103.627701
 20
5.640364
 30
0.0
 42
0.067948
  0
VERTEX
  5
ACF
  8
035
 10
-104.002078
 20
5.693072
 30
0.0
 42
0.060566
  0
SEQEND
  5
AD0
  8
035
  0
LINE
  5
3EF
  8
035
 10
-102.856129
 20
3.208952
 30
0.0
 11
-102.305412
 21
5.693072
 31
0.0
  0
LINE
  5
3F0
  8
035
 10
-101.148296
 20
3.208952
 30
0.0
 11
-100.59758
 21
5.693072
 31
0.0
  0
LINE
  5
3F1
  8
035
 10
-102.856129
 20
3.208952
 30
0.0
 11
-101.148296
 21
3.208952
 31
0.0
  0
LINE
  5
3F2
  8
035
 10
-102.305412
 20
5.693072
 30
0.0
 11
-100.59758
 21
5.693072
 31
0.0
  0
LINE
  5
3F3
  8
035
 10
-100.139123
 20
3.208952
 30
0.0
 11
-99.588406
 21
5.693072
 31
0.0
  0
LINE
  5
3F4
  8
035
 10
-98.508919
 20
3.208952
 30
0.0
 11
-98.37124
 21
3.829982
 31
0.0
  0
LINE
  5
3F5
  8
035
 10
-99.588406
 20
5.693072
 30
0.0
 11
-97.958203
 21
5.693072
 31
0.0
  0
LINE
  5
3F6
  8
035
 10
-100.139123
 20
3.208952
 30
0.0
 11
-98.508919
 21
3.208952
 31
0.0
  0
LINE
  5
3F7
  8
035
 10
-98.37124
 20
3.829982
 30
0.0
 11
-97.642556
 21
4.140497
 31
0.0
  0
LINE
  5
3F8
  8
035
 10
-98.144475
 20
4.852855
 30
0.0
 11
-96.172742
 21
5.693072
 31
0.0
  0
LINE
  5
3F9
  8
035
 10
-96.172742
 20
5.693072
 30
0.0
 11
-93.999137
 21
5.693072
 31
0.0
  0
LINE
  5
3FA
  8
035
 10
-97.642556
 20
4.140497
 30
0.0
 11
-96.723458
 21
3.208952
 31
0.0
  0
LINE
  5
3FB
  8
035
 10
-96.003018
 20
4.839156
 30
0.0
 11
-94.394596
 21
3.208952
 31
0.0
  0
LINE
  5
3FC
  8
035
 10
-96.003018
 20
4.839156
 30
0.0
 11
-93.999137
 21
5.693072
 31
0.0
  0
LINE
  5
3FD
  8
035
 10
-98.144475
 20
4.852855
 30
0.0
 11
-97.958203
 21
5.693072
 31
0.0
  0
LINE
  5
3FE
  8
035
 10
-96.723458
 20
3.208952
 30
0.0
 11
-94.394596
 21
3.208952
 31
0.0
  0
LINE
  5
3FF
  8
035
 10
-91.535849
 20
3.208952
 30
0.0
 11
-89.859713
 21
3.208952
 31
0.0
  0
LINE
  5
400
  8
035
 10
-89.672213
 20
5.693801
 30
0.0
 11
-86.717509
 21
5.693801
 31
0.0
  0
LINE
  5
401
  8
035
 10
-91.535849
 20
3.208952
 30
0.0
 11
-89.672213
 21
5.693801
 31
0.0
  0
LINE
  5
402
  8
035
 10
-86.717509
 20
5.693801
 30
0.0
 11
-86.096297
 21
3.208952
 31
0.0
  0
LINE
  5
403
  8
035
 10
-89.499689
 20
3.688984
 30
0.0
 11
-87.773968
 21
3.688984
 31
0.0
  0
LINE
  5
404
  8
035
 10
-89.219798
 20
4.062171
 30
0.0
 11
-87.867265
 21
4.062171
 31
0.0
  0
LINE
  5
405
  8
035
 10
-85.384981
 20
3.719952
 30
0.0
 11
-85.11662
 21
5.241907
 31
0.0
  0
LINE
  5
406
  8
035
 10
-80.632927
 20
3.208952
 30
0.0
 11
-80.440303
 21
4.301376
 31
0.0
  0
LINE
  5
407
  8
035
 10
-83.773875
 20
4.049318
 30
0.0
 11
-83.613979
 21
4.956134
 31
0.0
  0
LINE
  5
408
  8
035
 10
-82.185958
 20
3.208952
 30
0.0
 11
-82.180952
 21
3.237338
 31
0.0
  0
LINE
  5
409
  8
035
 10
-82.653819
 20
4.078649
 30
0.0
 11
-82.614546
 21
4.301376
 31
0.0
  0
LINE
  5
40A
  8
035
 10
-82.653819
 20
4.078649
 30
0.0
 11
-82.032607
 21
4.078649
 31
0.0
  0
ARC
  5
40B
  8
035
 10
-82.531573
 20
-8.003128
 30
0.0
 40
13.697153
 50
81.659895
 51
99.80279
  0
ARC
  5
40C
  8
035
 10
-83.091534
 20
16.90419
 30
0.0
 40
13.697153
 50
261.461473
 51
273.811815
  0
ARC
  5
40D
  8
035
 10
-84.810733
 20
5.187971
 30
0.0
 40
0.310606
 50
99.80279
 51
170.0
  0
ARC
  5
40E
  8
035
 10
-85.079094
 20
3.666016
 30
0.0
 40
0.310606
 50
170.0
 51
261.461473
  0
ARC
  5
40F
  8
035
 10
-80.58987
 20
5.24185
 30
0.0
 40
0.310606
 50
350.0
 51
81.659895
  0
LINE
  5
410
  8
035
 10
-81.898429
 20
4.963993
 30
0.0
 11
-80.323466
 21
4.963993
 31
0.0
  0
LINE
  5
411
  8
035
 10
-80.323466
 20
4.963993
 30
0.0
 11
-80.283983
 21
5.187914
 31
0.0
  0
LINE
  5
412
  8
035
 10
-82.052147
 20
3.967832
 30
0.0
 11
-82.032607
 21
4.078649
 31
0.0
  0
ARC
  5
413
  8
035
 10
-82.755724
 20
1.698274
 30
0.0
 40
3.561797
 50
80.208339
 51
99.781825
  0
ARC
  5
414
  8
035
 10
-82.989141
 20
7.211117
 30
0.0
 40
3.561797
 50
261.530468
 51
281.193068
  0
ARC
  5
415
  8
035
 10
-83.308092
 20
4.902198
 30
0.0
 40
0.310606
 50
99.781825
 51
170.0
  0
ARC
  5
416
  8
035
 10
-82.202807
 20
4.902103
 30
0.0
 40
0.310606
 50
11.493425
 51
80.208339
  0
ARC
  5
417
  8
035
 10
-83.467988
 20
3.995382
 30
0.0
 40
0.310606
 50
170.0
 51
261.530468
  0
ARC
  5
418
  8
035
 10
-82.358034
 20
4.021768
 30
0.0
 40
0.310606
 50
281.193068
 51
350.0
  0
LINE
  5
419
  8
035
 10
-82.185958
 20
3.208952
 30
0.0
 11
-80.632927
 21
3.208952
 31
0.0
  0
LINE
  5
41A
  8
035
 10
-87.65396
 20
3.208952
 30
0.0
 11
-86.096297
 21
3.208952
 31
0.0
  0
TEXT
  5
41B
  8
035
 62
     4
 10
-77.576926
 20
3.264636
 30
0.0
 40
2.484848
  1
FL-9494 SCHAAN
 41
0.7
 51
15.0
  7
HELV
  0
LINE
  5
41C
  8
035
 10
-123.362713
 20
5.253094
 30
0.0
 11
-120.412821
 21
5.253094
 31
0.0
  0
LINE
  5
41D
  8
035
 10
-123.508387
 20
4.596001
 30
0.0
 11
-120.791381
 21
4.596001
 31
0.0
  0
LINE
  5
41E
  8
035
 10
-123.572674
 20
4.306023
 30
0.0
 11
-120.855668
 21
4.306023
 31
0.0
  0
LINE
  5
41F
  8
035
 10
-123.718348
 20
3.648931
 30
0.0
 11
-120.768456
 21
3.648931
 31
0.0
  0
LINE
  5
420
  8
0
 62
     4
 10
-94.088306
 20
5.655074
 30
0.0
 11
-94.050308
 21
5.693072
 31
0.0
  0
LINE
  5
421
  8
0
 62
     4
 10
-94.413108
 20
3.208952
 30
0.0
 11
-94.40379
 21
3.21827
 31
0.0
  0
LINE
  5
422
  8
035
 10
-106.750163
 20
5.253094
 30
0.0
 11
-105.343603
 21
5.253094
 31
0.0
  0
LINE
  5
423
  8
035
 10
-106.933698
 20
4.425218
 30
0.0
 11
-105.573373
 21
4.425218
 31
0.0
  0
LINE
  5
424
  8
035
 10
-106.997985
 20
4.13524
 30
0.0
 11
-105.5491
 21
4.13524
 31
0.0
  0
LINE
  5
425
  8
035
 10
-105.343603
 20
5.253094
 30
0.0
 11
-105.232586
 21
5.23493
 31
0.0
  0
LINE
  5
426
  8
035
 10
-105.232586
 20
5.23493
 30
0.0
 11
-105.136389
 21
5.186199
 31
0.0
  0
LINE
  5
427
  8
035
 10
-105.136389
 20
5.186199
 30
0.0
 11
-105.090213
 21
5.111822
 31
0.0
  0
LINE
  5
428
  8
035
 10
-105.090213
 20
5.111822
 30
0.0
 11
-105.054301
 21
5.022057
 31
0.0
  0
LINE
  5
429
  8
035
 10
-105.054301
 20
5.022057
 30
0.0
 11
-105.053017
 21
4.9246
 31
0.0
  0
LINE
  5
42A
  8
035
 10
-105.053017
 20
4.9246
 30
0.0
 11
-105.063278
 21
4.783539
 31
0.0
  0
LINE
  5
42B
  8
035
 10
-105.063278
 20
4.783539
 30
0.0
 11
-105.114586
 21
4.697624
 31
0.0
  0
LINE
  5
42C
  8
035
 10
-105.114586
 20
4.697624
 30
0.0
 11
-105.20565
 21
4.591186
 31
0.0
  0
LINE
  5
42D
  8
035
 10
-105.20565
 20
4.591186
 30
0.0
 11
-105.342894
 21
4.509116
 31
0.0
  0
LINE
  5
42E
  8
035
 10
-105.342894
 20
4.509116
 30
0.0
 11
-105.473724
 21
4.442434
 31
0.0
  0
LINE
  5
42F
  8
035
 10
-105.473724
 20
4.442434
 30
0.0
 11
-105.573373
 21
4.425218
 31
0.0
  0
LINE
  5
430
  8
035
 10
-105.5491
 20
4.13524
 30
0.0
 11
-105.466219
 21
4.123579
 31
0.0
  0
LINE
  5
431
  8
035
 10
-105.466219
 20
4.123579
 30
0.0
 11
-105.413019
 21
4.089933
 31
0.0
  0
LINE
  5
432
  8
035
 10
-105.413019
 20
4.089933
 30
0.0
 11
-105.380449
 21
4.036745
 31
0.0
  0
LINE
  5
433
  8
035
 10
-105.380449
 20
4.036745
 30
0.0
 11
-105.365249
 21
3.972704
 31
0.0
  0
LINE
  5
434
  8
035
 10
-105.365249
 20
3.972704
 30
0.0
 11
-105.372771
 21
3.861921
 31
0.0
  0
LINE
  5
435
  8
035
 10
-88.205398
 20
5.414705
 30
0.0
 11
-87.867265
 21
4.062171
 31
0.0
  0
LINE
  5
436
  8
035
 10
-89.219798
 20
4.062171
 30
0.0
 11
-88.205398
 21
5.414705
 31
0.0
  0
LINE
  5
437
  8
035
 10
-87.773968
 20
3.688984
 30
0.0
 11
-87.65396
 21
3.208952
 31
0.0
  0
LINE
  5
438
  8
035
 10
-89.859713
 20
3.208952
 30
0.0
 11
-89.499689
 21
3.688984
 31
0.0
  0
LINE
  5
439
  8
035
 10
-82.614546
 20
4.301376
 30
0.0
 11
-80.440303
 21
4.301376
 31
0.0
  0
INSERT
  5
43A
  8
035
 62
     4
  2
*X1
 10
-280.0
 20
-100.0
 30
0.0
1001
ACAD
1000
HATCH
1002
{
1070
    16
1000
ANSI37,I
1040
1.8
1040
0.0
1002
}
  0
ENDBLK
  5
644
  8
0
  0
BLOCK
  8
0
  2
*X1
 70
     1
 10
0.0
 20
0.0
 30
0.0
  3
*X1
  1

  0
LINE
  5
43C
  8
0
 62
     0
 10
172.576127
 20
103.208952
 30
0.0
 11
172.85948
 21
103.492304
 31
0.0
  0
LINE
  5
43D
  8
0
 62
     0
 10
174.620269
 20
105.253094
 30
0.0
 11
175.060247
 21
105.693072
 31
0.0
  0
LINE
  5
43E
  8
0
 62
     0
 10
173.502415
 20
104.13524
 30
0.0
 11
173.792393
 21
104.425218
 31
0.0
  0
LINE
  5
43F
  8
0
 62
     0
 10
172.257929
 20
103.208952
 30
0.0
 11
172.950116
 21
103.901139
 31
0.0
  0
LINE
  5
440
  8
0
 62
     0
 10
174.302071
 20
105.253094
 30
0.0
 11
174.742049
 21
105.693072
 31
0.0
  0
LINE
  5
441
  8
0
 62
     0
 10
173.184217
 20
104.13524
 30
0.0
 11
173.474195
 21
104.425218
 31
0.0
  0
LINE
  5
442
  8
0
 62
     0
 10
171.939731
 20
103.208952
 30
0.0
 11
173.155997
 21
104.425218
 31
0.0
  0
LINE
  5
443
  8
0
 62
     0
 10
173.983873
 20
105.253094
 30
0.0
 11
174.423851
 21
105.693072
 31
0.0
  0
LINE
  5
444
  8
0
 62
     0
 10
171.621533
 20
103.208952
 30
0.0
 11
173.131389
 21
104.718808
 31
0.0
  0
LINE
  5
445
  8
0
 62
     0
 10
173.665675
 20
105.253094
 30
0.0
 11
174.105653
 21
105.693072
 31
0.0
  0
LINE
  5
446
  8
0
 62
     0
 10
171.303335
 20
103.208952
 30
0.0
 11
173.222025
 21
105.127642
 31
0.0
  0
LINE
  5
447
  8
0
 62
     0
 10
173.347477
 20
105.253094
 30
0.0
 11
173.787455
 21
105.693072
 31
0.0
  0
LINE
  5
448
  8
0
 62
     0
 10
171.118366
 20
103.342181
 30
0.0
 11
173.469257
 21
105.693072
 31
0.0
  0
LINE
  5
449
  8
0
 62
     0
 10
171.209002
 20
103.751015
 30
0.0
 11
173.151059
 21
105.693072
 31
0.0
  0
LINE
  5
44A
  8
0
 62
     0
 10
171.299639
 20
104.15985
 30
0.0
 11
172.832861
 21
105.693072
 31
0.0
  0
LINE
  5
44B
  8
0
 62
     0
 10
171.390275
 20
104.568684
 30
0.0
 11
172.514663
 21
105.693072
 31
0.0
  0
LINE
  5
44C
  8
0
 62
     0
 10
171.480911
 20
104.977519
 30
0.0
 11
172.196465
 21
105.693072
 31
0.0
  0
LINE
  5
44D
  8
0
 62
     0
 10
171.571548
 20
105.386353
 30
0.0
 11
171.878267
 21
105.693072
 31
0.0
  0
LINE
  5
44E
  8
0
 62
     0
 10
170.939039
 20
105.072042
 30
0.0
 11
170.963999
 21
105.097002
 31
0.0
  0
LINE
  5
44F
  8
0
 62
     0
 10
168.757751
 20
103.208952
 30
0.0
 11
168.96008
 21
103.411282
 31
0.0
  0
LINE
  5
450
  8
0
 62
     0
 10
170.620841
 20
105.072042
 30
0.0
 11
171.054636
 21
105.505837
 31
0.0
  0
LINE
  5
451
  8
0
 62
     0
 10
168.439553
 20
103.208952
 30
0.0
 11
169.050717
 21
103.820116
 31
0.0
  0
LINE
  5
452
  8
0
 62
     0
 10
170.302643
 20
105.072042
 30
0.0
 11
170.923673
 21
105.693072
 31
0.0
  0
LINE
  5
453
  8
0
 62
     0
 10
168.121355
 20
103.208952
 30
0.0
 11
169.141353
 21
104.228951
 31
0.0
  0
LINE
  5
454
  8
0
 62
     0
 10
169.984445
 20
105.072042
 30
0.0
 11
170.605474
 21
105.693072
 31
0.0
  0
LINE
  5
455
  8
0
 62
     0
 10
167.803157
 20
103.208952
 30
0.0
 11
169.23199
 21
104.637785
 31
0.0
  0
LINE
  5
456
  8
0
 62
     0
 10
169.666246
 20
105.072042
 30
0.0
 11
170.287276
 21
105.693072
 31
0.0
  0
LINE
  5
457
  8
0
 62
     0
 10
167.484959
 20
103.208952
 30
0.0
 11
169.322626
 21
105.04662
 31
0.0
  0
LINE
  5
458
  8
0
 62
     0
 10
169.348048
 20
105.072042
 30
0.0
 11
169.969078
 21
105.693072
 31
0.0
  0
LINE
  5
459
  8
0
 62
     0
 10
167.218966
 20
103.261158
 30
0.0
 11
169.65088
 21
105.693072
 31
0.0
  0
LINE
  5
45A
  8
0
 62
     0
 10
167.309603
 20
103.669992
 30
0.0
 11
169.332682
 21
105.693072
 31
0.0
  0
LINE
  5
45B
  8
0
 62
     0
 10
167.400239
 20
104.078827
 30
0.0
 11
169.014484
 21
105.693072
 31
0.0
  0
LINE
  5
45C
  8
0
 62
     0
 10
167.490876
 20
104.487661
 30
0.0
 11
168.696286
 21
105.693072
 31
0.0
  0
LINE
  5
45D
  8
0
 62
     0
 10
167.581512
 20
104.896496
 30
0.0
 11
168.378088
 21
105.693072
 31
0.0
  0
LINE
  5
45E
  8
0
 62
     0
 10
167.43886
 20
105.072042
 30
0.0
 11
168.05989
 21
105.693072
 31
0.0
  0
LINE
  5
45F
  8
0
 62
     0
 10
167.120662
 20
105.072042
 30
0.0
 11
167.741692
 21
105.693072
 31
0.0
  0
LINE
  5
460
  8
0
 62
     0
 10
166.802464
 20
105.072042
 30
0.0
 11
167.423494
 21
105.693072
 31
0.0
  0
LINE
  5
461
  8
0
 62
     0
 10
164.888376
 20
103.476152
 30
0.0
 11
165.368539
 21
103.956315
 31
0.0
  0
LINE
  5
462
  8
0
 62
     0
 10
166.484266
 20
105.072042
 30
0.0
 11
167.105296
 21
105.693072
 31
0.0
  0
LINE
  5
463
  8
0
 62
     0
 10
164.405466
 20
103.31144
 30
0.0
 11
165.459175
 21
104.365149
 31
0.0
  0
LINE
  5
464
  8
0
 62
     0
 10
166.166068
 20
105.072042
 30
0.0
 11
166.787098
 21
105.693072
 31
0.0
  0
LINE
  5
465
  8
0
 62
     0
 10
164.002769
 20
103.226941
 30
0.0
 11
165.549811
 21
104.773984
 31
0.0
  0
LINE
  5
466
  8
0
 62
     0
 10
166.130516
 20
105.354688
 30
0.0
 11
166.4689
 21
105.693072
 31
0.0
  0
LINE
  5
467
  8
0
 62
     0
 10
163.636859
 20
103.17923
 30
0.0
 11
165.640448
 21
105.182818
 31
0.0
  0
LINE
  5
468
  8
0
 62
     0
 10
163.289411
 20
103.149979
 30
0.0
 11
165.731084
 21
105.591652
 31
0.0
  0
LINE
  5
469
  8
0
 62
     0
 10
162.955891
 20
103.134657
 30
0.0
 11
165.514306
 21
105.693072
 31
0.0
  0
LINE
  5
46A
  8
0
 62
     0
 10
162.634688
 20
103.131652
 30
0.0
 11
163.335119
 21
103.832084
 31
0.0
  0
LINE
  5
46B
  8
0
 62
     0
 10
163.723606
 20
104.22057
 30
0.0
 11
165.196108
 21
105.693072
 31
0.0
  0
LINE
  5
46C
  8
0
 62
     0
 10
162.324518
 20
103.139681
 30
0.0
 11
162.944469
 21
103.759631
 31
0.0
  0
LINE
  5
46D
  8
0
 62
     0
 10
163.814242
 20
104.629404
 30
0.0
 11
164.87791
 21
105.693072
 31
0.0
  0
LINE
  5
46E
  8
0
 62
     0
 10
162.024343
 20
103.157703
 30
0.0
 11
162.623312
 21
103.756673
 31
0.0
  0
LINE
  5
46F
  8
0
 62
     0
 10
163.904878
 20
105.038239
 30
0.0
 11
164.559711
 21
105.693072
 31
0.0
  0
LINE
  5
470
  8
0
 62
     0
 10
161.733306
 20
103.184864
 30
0.0
 11
162.340799
 21
103.792357
 31
0.0
  0
LINE
  5
471
  8
0
 62
     0
 10
163.995515
 20
105.447073
 30
0.0
 11
164.241513
 21
105.693072
 31
0.0
  0
LINE
  5
472
  8
0
 62
     0
 10
161.452007
 20
103.221764
 30
0.0
 11
162.097229
 21
103.866985
 31
0.0
  0
LINE
  5
473
  8
0
 62
     0
 10
161.184171
 20
103.272125
 30
0.0
 11
161.902409
 21
103.990363
 31
0.0
  0
LINE
  5
474
  8
0
 62
     0
 10
160.928758
 20
103.33491
 30
0.0
 11
161.844836
 21
104.250989
 31
0.0
  0
LINE
  5
475
  8
0
 62
     0
 10
160.687321
 20
103.411671
 30
0.0
 11
161.935473
 21
104.659823
 31
0.0
  0
LINE
  5
476
  8
0
 62
     0
 10
160.466718
 20
103.509267
 30
0.0
 11
162.026109
 21
105.068658
 31
0.0
  0
LINE
  5
477
  8
0
 62
     0
 10
160.265103
 20
103.62585
 30
0.0
 11
162.116745
 21
105.477492
 31
0.0
  0
LINE
  5
478
  8
0
 62
     0
 10
160.101894
 20
103.780839
 30
0.0
 11
162.014127
 21
105.693072
 31
0.0
  0
LINE
  5
479
  8
0
 62
     0
 10
160.109248
 20
104.106391
 30
0.0
 11
161.695929
 21
105.693072
 31
0.0
  0
LINE
  5
47A
  8
0
 62
     0
 10
158.893611
 20
103.208952
 30
0.0
 11
159.202478
 21
103.517819
 31
0.0
  0
LINE
  5
47B
  8
0
 62
     0
 10
160.199885
 20
104.515226
 30
0.0
 11
161.377731
 21
105.693072
 31
0.0
  0
LINE
  5
47C
  8
0
 62
     0
 10
158.575413
 20
103.208952
 30
0.0
 11
159.015392
 21
103.648931
 31
0.0
  0
LINE
  5
47D
  8
0
 62
     0
 10
160.290521
 20
104.92406
 30
0.0
 11
161.059533
 21
105.693072
 31
0.0
  0
LINE
  5
47E
  8
0
 62
     0
 10
158.257215
 20
103.208952
 30
0.0
 11
158.697194
 21
103.648931
 31
0.0
  0
LINE
  5
47F
  8
0
 62
     0
 10
160.381158
 20
105.332895
 30
0.0
 11
160.741335
 21
105.693072
 31
0.0
  0
LINE
  5
480
  8
0
 62
     0
 10
157.939017
 20
103.208952
 30
0.0
 11
158.378996
 21
103.648931
 31
0.0
  0
LINE
  5
481
  8
0
 62
     0
 10
159.036088
 20
104.306023
 30
0.0
 11
159.175165
 21
104.4451
 31
0.0
  0
LINE
  5
482
  8
0
 62
     0
 10
157.620819
 20
103.208952
 30
0.0
 11
158.060797
 21
103.648931
 31
0.0
  0
LINE
  5
483
  8
0
 62
     0
 10
158.71789
 20
104.306023
 30
0.0
 11
159.007868
 21
104.596001
 31
0.0
  0
LINE
  5
484
  8
0
 62
     0
 10
157.302621
 20
103.208952
 30
0.0
 11
157.742599
 21
103.648931
 31
0.0
  0
LINE
  5
485
  8
0
 62
     0
 10
159.346762
 20
105.253094
 30
0.0
 11
159.65566
 21
105.561991
 31
0.0
  0
LINE
  5
486
  8
0
 62
     0
 10
158.399692
 20
104.306023
 30
0.0
 11
158.68967
 21
104.596001
 31
0.0
  0
LINE
  5
487
  8
0
 62
     0
 10
156.984423
 20
103.208952
 30
0.0
 11
157.424401
 21
103.648931
 31
0.0
  0
LINE
  5
488
  8
0
 62
     0
 10
159.028564
 20
105.253094
 30
0.0
 11
159.468543
 21
105.693072
 31
0.0
  0
LINE
  5
489
  8
0
 62
     0
 10
158.081494
 20
104.306023
 30
0.0
 11
158.371472
 21
104.596001
 31
0.0
  0
LINE
  5
48A
  8
0
 62
     0
 10
156.666225
 20
103.208952
 30
0.0
 11
157.106203
 21
103.648931
 31
0.0
  0
LINE
  5
48B
  8
0
 62
     0
 10
158.710366
 20
105.253094
 30
0.0
 11
159.150345
 21
105.693072
 31
0.0
  0
LINE
  5
48C
  8
0
 62
     0
 10
157.763296
 20
104.306023
 30
0.0
 11
158.053274
 21
104.596001
 31
0.0
  0
LINE
  5
48D
  8
0
 62
     0
 10
156.348027
 20
103.208952
 30
0.0
 11
156.788005
 21
103.648931
 31
0.0
  0
LINE
  5
48E
  8
0
 62
     0
 10
158.392168
 20
105.253094
 30
0.0
 11
158.832147
 21
105.693072
 31
0.0
  0
LINE
  5
48F
  8
0
 62
     0
 10
157.445097
 20
104.306023
 30
0.0
 11
157.735076
 21
104.596001
 31
0.0
  0
LINE
  5
490
  8
0
 62
     0
 10
156.029829
 20
103.208952
 30
0.0
 11
156.469807
 21
103.648931
 31
0.0
  0
LINE
  5
491
  8
0
 62
     0
 10
158.07397
 20
105.253094
 30
0.0
 11
158.513948
 21
105.693072
 31
0.0
  0
LINE
  5
492
  8
0
 62
     0
 10
157.126899
 20
104.306023
 30
0.0
 11
157.416878
 21
104.596001
 31
0.0
  0
LINE
  5
493
  8
0
 62
     0
 10
155.711631
 20
103.208952
 30
0.0
 11
156.318694
 21
103.816016
 31
0.0
  0
LINE
  5
494
  8
0
 62
     0
 10
157.755772
 20
105.253094
 30
0.0
 11
158.19575
 21
105.693072
 31
0.0
  0
LINE
  5
495
  8
0
 62
     0
 10
156.808701
 20
104.306023
 30
0.0
 11
157.09868
 21
104.596001
 31
0.0
  0
LINE
  5
496
  8
0
 62
     0
 10
155.393433
 20
103.208952
 30
0.0
 11
156.409331
 21
104.22485
 31
0.0
  0
LINE
  5
497
  8
0
 62
     0
 10
157.437574
 20
105.253094
 30
0.0
 11
157.877552
 21
105.693072
 31
0.0
  0
LINE
  5
498
  8
0
 62
     0
 10
156.490503
 20
104.306023
 30
0.0
 11
156.780482
 21
104.596001
 31
0.0
  0
LINE
  5
499
  8
0
 62
     0
 10
155.075235
 20
103.208952
 30
0.0
 11
156.499967
 21
104.633685
 31
0.0
  0
LINE
  5
49A
  8
0
 62
     0
 10
157.119376
 20
105.253094
 30
0.0
 11
157.559354
 21
105.693072
 31
0.0
  0
LINE
  5
49B
  8
0
 62
     0
 10
154.757037
 20
103.208952
 30
0.0
 11
156.590603
 21
105.042519
 31
0.0
  0
LINE
  5
49C
  8
0
 62
     0
 10
156.801178
 20
105.253094
 30
0.0
 11
157.241156
 21
105.693072
 31
0.0
  0
LINE
  5
49D
  8
0
 62
     0
 10
154.486944
 20
103.257057
 30
0.0
 11
156.922958
 21
105.693072
 31
0.0
  0
LINE
  5
49E
  8
0
 62
     0
 10
154.57758
 20
103.665892
 30
0.0
 11
156.60476
 21
105.693072
 31
0.0
  0
LINE
  5
49F
  8
0
 62
     0
 10
154.668217
 20
104.074726
 30
0.0
 11
156.286562
 21
105.693072
 31
0.0
  0
LINE
  5
4A0
  8
0
 62
     0
 10
153.484244
 20
103.208952
 30
0.0
 11
153.661705
 21
103.386413
 31
0.0
  0
LINE
  5
4A1
  8
0
 62
     0
 10
154.758853
 20
104.483561
 30
0.0
 11
155.968364
 21
105.693072
 31
0.0
  0
LINE
  5
4A2
  8
0
 62
     0
 10
153.166046
 20
103.208952
 30
0.0
 11
153.752341
 21
103.795247
 31
0.0
  0
LINE
  5
4A3
  8
0
 62
     0
 10
154.849489
 20
104.892395
 30
0.0
 11
155.650166
 21
105.693072
 31
0.0
  0
LINE
  5
4A4
  8
0
 62
     0
 10
152.847848
 20
103.208952
 30
0.0
 11
153.842978
 21
104.204082
 31
0.0
  0
LINE
  5
4A5
  8
0
 62
     0
 10
154.940126
 20
105.30123
 30
0.0
 11
155.331968
 21
105.693072
 31
0.0
  0
LINE
  5
4A6
  8
0
 62
     0
 10
152.52965
 20
103.208952
 30
0.0
 11
153.933614
 21
104.612916
 31
0.0
  0
LINE
  5
4A7
  8
0
 62
     0
 10
152.211452
 20
103.208952
 30
0.0
 11
154.024251
 21
105.021751
 31
0.0
  0
LINE
  5
4A8
  8
0
 62
     0
 10
151.893254
 20
103.208952
 30
0.0
 11
154.114887
 21
105.430585
 31
0.0
  0
LINE
  5
4A9
  8
0
 62
     0
 10
151.625533
 20
103.259429
 30
0.0
 11
154.059176
 21
105.693072
 31
0.0
  0
LINE
  5
4AA
  8
0
 62
     0
 10
151.458022
 20
103.410117
 30
0.0
 11
153.740978
 21
105.693072
 31
0.0
  0
LINE
  5
4AB
  8
0
 62
     0
 10
151.290512
 20
103.560804
 30
0.0
 11
153.42278
 21
105.693072
 31
0.0
  0
LINE
  5
4AC
  8
0
 62
     0
 10
151.123002
 20
103.711492
 30
0.0
 11
152.103081
 21
104.691571
 31
0.0
  0
LINE
  5
4AD
  8
0
 62
     0
 10
152.283137
 20
104.871627
 30
0.0
 11
153.104582
 21
105.693072
 31
0.0
  0
LINE
  5
4AE
  8
0
 62
     0
 10
150.955491
 20
103.86218
 30
0.0
 11
151.916307
 21
104.822995
 31
0.0
  0
LINE
  5
4AF
  8
0
 62
     0
 10
152.373773
 20
105.280462
 30
0.0
 11
152.786384
 21
105.693072
 31
0.0
  0
LINE
  5
4B0
  8
0
 62
     0
 10
150.787981
 20
104.012868
 30
0.0
 11
151.729532
 21
104.954419
 31
0.0
  0
LINE
  5
4B1
  8
0
 62
     0
 10
152.46441
 20
105.689296
 30
0.0
 11
152.468186
 21
105.693072
 31
0.0
  0
LINE
  5
4B2
  8
0
 62
     0
 10
149.665868
 20
103.208952
 30
0.0
 11
149.862046
 21
103.405131
 31
0.0
  0
LINE
  5
4B3
  8
0
 62
     0
 10
150.620471
 20
104.163555
 30
0.0
 11
151.542758
 21
105.085842
 31
0.0
  0
LINE
  5
4B4
  8
0
 62
     0
 10
149.34767
 20
103.208952
 30
0.0
 11
149.952683
 21
103.813965
 31
0.0
  0
LINE
  5
4B5
  8
0
 62
     0
 10
150.45296
 20
104.314243
 30
0.0
 11
151.355983
 21
105.217266
 31
0.0
  0
LINE
  5
4B6
  8
0
 62
     0
 10
149.029472
 20
103.208952
 30
0.0
 11
150.043319
 21
104.2228
 31
0.0
  0
LINE
  5
4B7
  8
0
 62
     0
 10
150.28545
 20
104.464931
 30
0.0
 11
151.169209
 21
105.34869
 31
0.0
  0
LINE
  5
4B8
  8
0
 62
     0
 10
148.711274
 20
103.208952
 30
0.0
 11
150.982435
 21
105.480113
 31
0.0
  0
LINE
  5
4B9
  8
0
 62
     0
 10
148.393076
 20
103.208952
 30
0.0
 11
150.79566
 21
105.611537
 31
0.0
  0
LINE
  5
4BA
  8
0
 62
     0
 10
148.120932
 20
103.255007
 30
0.0
 11
150.558997
 21
105.693072
 31
0.0
  0
LINE
  5
4BB
  8
0
 62
     0
 10
148.211569
 20
103.663842
 30
0.0
 11
150.240799
 21
105.693072
 31
0.0
  0
LINE
  5
4BC
  8
0
 62
     0
 10
148.302205
 20
104.072676
 30
0.0
 11
149.922601
 21
105.693072
 31
0.0
  0
LINE
  5
4BD
  8
0
 62
     0
 10
148.392842
 20
104.481511
 30
0.0
 11
149.604403
 21
105.693072
 31
0.0
  0
LINE
  5
4BE
  8
0
 62
     0
 10
148.483478
 20
104.890345
 30
0.0
 11
149.286205
 21
105.693072
 31
0.0
  0
LINE
  5
4BF
  8
0
 62
     0
 10
148.574115
 20
105.29918
 30
0.0
 11
148.968007
 21
105.693072
 31
0.0
  0
LINE
  5
4C0
  8
0
 62
     0
 10
173.820613
 20
104.13524
 30
0.0
 11
174.110591
 21
104.425218
 31
0.0
  0
LINE
  5
4C1
  8
0
 62
     0
 10
174.86666
 20
105.181287
 30
0.0
 11
175.378445
 21
105.693072
 31
0.0
  0
LINE
  5
4C2
  8
0
 62
     0
 10
174.138811
 20
104.13524
 30
0.0
 11
174.429241
 21
104.42567
 31
0.0
  0
LINE
  5
4C3
  8
0
 62
     0
 10
174.946739
 20
104.943167
 30
0.0
 11
175.696643
 21
105.693072
 31
0.0
  0
LINE
  5
4C4
  8
0
 62
     0
 10
174.456256
 20
104.134486
 30
0.0
 11
176.014671
 21
105.692902
 31
0.0
  0
LINE
  5
4C5
  8
0
 62
     0
 10
174.630516
 20
103.990548
 30
0.0
 11
176.298943
 21
105.658976
 31
0.0
  0
LINE
  5
4C6
  8
0
 62
     0
 10
174.613
 20
103.654835
 30
0.0
 11
176.535113
 21
105.576948
 31
0.0
  0
LINE
  5
4C7
  8
0
 62
     0
 10
174.605261
 20
103.328897
 30
0.0
 11
176.725075
 21
105.448711
 31
0.0
  0
LINE
  5
4C8
  8
0
 62
     0
 10
174.803514
 20
103.208952
 30
0.0
 11
176.8509
 21
105.256338
 31
0.0
  0
LINE
  5
4C9
  8
0
 62
     0
 10
175.121712
 20
103.208952
 30
0.0
 11
176.221213
 21
104.308453
 31
0.0
  0
LINE
  5
4CA
  8
0
 62
     0
 10
176.266083
 20
104.353323
 30
0.0
 11
176.834229
 21
104.921469
 31
0.0
  0
LINE
  5
4CB
  8
0
 62
     0
 10
175.43991
 20
103.208952
 30
0.0
 11
176.345758
 21
104.1148
 31
0.0
  0
LINE
  5
4CC
  8
0
 62
     0
 10
177.629233
 20
105.398275
 30
0.0
 11
177.92403
 21
105.693072
 31
0.0
  0
LINE
  5
4CD
  8
0
 62
     0
 10
175.758108
 20
103.208952
 30
0.0
 11
176.329942
 21
103.780786
 31
0.0
  0
LINE
  5
4CE
  8
0
 62
     0
 10
177.538596
 20
104.98944
 30
0.0
 11
178.242228
 21
105.693072
 31
0.0
  0
LINE
  5
4CF
  8
0
 62
     0
 10
176.076306
 20
103.208952
 30
0.0
 11
176.307193
 21
103.439839
 31
0.0
  0
LINE
  5
4D0
  8
0
 62
     0
 10
177.44796
 20
104.580606
 30
0.0
 11
178.560426
 21
105.693072
 31
0.0
  0
LINE
  5
4D1
  8
0
 62
     0
 10
177.357323
 20
104.171772
 30
0.0
 11
178.878624
 21
105.693072
 31
0.0
  0
LINE
  5
4D2
  8
0
 62
     0
 10
177.266687
 20
103.762937
 30
0.0
 11
179.196822
 21
105.693072
 31
0.0
  0
LINE
  5
4D3
  8
0
 62
     0
 10
177.176051
 20
103.354103
 30
0.0
 11
179.370347
 21
105.548399
 31
0.0
  0
LINE
  5
4D4
  8
0
 62
     0
 10
177.349098
 20
103.208952
 30
0.0
 11
179.27971
 21
105.139564
 31
0.0
  0
LINE
  5
4D5
  8
0
 62
     0
 10
177.667296
 20
103.208952
 30
0.0
 11
179.189074
 21
104.73073
 31
0.0
  0
LINE
  5
4D6
  8
0
 62
     0
 10
177.985494
 20
103.208952
 30
0.0
 11
179.098437
 21
104.321895
 31
0.0
  0
LINE
  5
4D7
  8
0
 62
     0
 10
180.395067
 20
105.618525
 30
0.0
 11
180.469614
 21
105.693072
 31
0.0
  0
LINE
  5
4D8
  8
0
 62
     0
 10
178.303692
 20
103.208952
 30
0.0
 11
179.007801
 21
103.913061
 31
0.0
  0
LINE
  5
4D9
  8
0
 62
     0
 10
180.30443
 20
105.20969
 30
0.0
 11
180.787812
 21
105.693072
 31
0.0
  0
LINE
  5
4DA
  8
0
 62
     0
 10
178.62189
 20
103.208952
 30
0.0
 11
178.917164
 21
103.504226
 31
0.0
  0
LINE
  5
4DB
  8
0
 62
     0
 10
180.213794
 20
104.800856
 30
0.0
 11
181.10601
 21
105.693072
 31
0.0
  0
LINE
  5
4DC
  8
0
 62
     0
 10
180.123158
 20
104.392021
 30
0.0
 11
181.424208
 21
105.693072
 31
0.0
  0
LINE
  5
4DD
  8
0
 62
     0
 10
180.032521
 20
103.983187
 30
0.0
 11
181.742406
 21
105.693072
 31
0.0
  0
LINE
  5
4DE
  8
0
 62
     0
 10
179.941885
 20
103.574352
 30
0.0
 11
182.03644
 21
105.668908
 31
0.0
  0
LINE
  5
4DF
  8
0
 62
     0
 10
179.894683
 20
103.208952
 30
0.0
 11
181.945804
 21
105.260073
 31
0.0
  0
LINE
  5
4E0
  8
0
 62
     0
 10
180.212881
 20
103.208952
 30
0.0
 11
181.857718
 21
104.853789
 31
0.0
  0
LINE
  5
4E1
  8
0
 62
     0
 10
180.531079
 20
103.208952
 30
0.0
 11
182.412196
 21
105.09007
 31
0.0
  0
LINE
  5
4E2
  8
0
 62
     0
 10
180.849277
 20
103.208952
 30
0.0
 11
182.966675
 21
105.326351
 31
0.0
  0
LINE
  5
4E3
  8
0
 62
     0
 10
181.167475
 20
103.208952
 30
0.0
 11
181.583258
 21
103.624735
 31
0.0
  0
LINE
  5
4E4
  8
0
 62
     0
 10
181.907125
 20
103.948602
 30
0.0
 11
183.521154
 21
105.562631
 31
0.0
  0
LINE
  5
4E5
  8
0
 62
     0
 10
181.485673
 20
103.208952
 30
0.0
 11
181.492621
 21
103.215901
 31
0.0
  0
LINE
  5
4E6
  8
0
 62
     0
 10
182.38713
 20
104.110409
 30
0.0
 11
183.969793
 21
105.693072
 31
0.0
  0
LINE
  5
4E7
  8
0
 62
     0
 10
182.545159
 20
103.95024
 30
0.0
 11
184.287991
 21
105.693072
 31
0.0
  0
LINE
  5
4E8
  8
0
 62
     0
 10
182.703188
 20
103.790071
 30
0.0
 11
184.606189
 21
105.693072
 31
0.0
  0
LINE
  5
4E9
  8
0
 62
     0
 10
182.861217
 20
103.629902
 30
0.0
 11
184.033479
 21
104.802165
 31
0.0
  0
LINE
  5
4EA
  8
0
 62
     0
 10
184.12504
 20
104.893725
 30
0.0
 11
184.924387
 21
105.693072
 31
0.0
  0
LINE
  5
4EB
  8
0
 62
     0
 10
183.019246
 20
103.469733
 30
0.0
 11
184.191508
 21
104.641995
 31
0.0
  0
LINE
  5
4EC
  8
0
 62
     0
 10
184.679519
 20
105.130006
 30
0.0
 11
185.242585
 21
105.693072
 31
0.0
  0
LINE
  5
4ED
  8
0
 62
     0
 10
183.177275
 20
103.309564
 30
0.0
 11
184.349537
 21
104.481826
 31
0.0
  0
LINE
  5
4EE
  8
0
 62
     0
 10
185.233998
 20
105.366287
 30
0.0
 11
185.560783
 21
105.693072
 31
0.0
  0
LINE
  5
4EF
  8
0
 62
     0
 10
183.394861
 20
103.208952
 30
0.0
 11
184.507566
 21
104.321657
 31
0.0
  0
LINE
  5
4F0
  8
0
 62
     0
 10
185.788476
 20
105.602567
 30
0.0
 11
185.878981
 21
105.693072
 31
0.0
  0
LINE
  5
4F1
  8
0
 62
     0
 10
183.713059
 20
103.208952
 30
0.0
 11
184.665595
 21
104.161488
 31
0.0
  0
LINE
  5
4F2
  8
0
 62
     0
 10
184.031257
 20
103.208952
 30
0.0
 11
184.823624
 21
104.001319
 31
0.0
  0
LINE
  5
4F3
  8
0
 62
     0
 10
184.349455
 20
103.208952
 30
0.0
 11
184.981653
 21
103.84115
 31
0.0
  0
LINE
  5
4F4
  8
0
 62
     0
 10
184.667653
 20
103.208952
 30
0.0
 11
185.139682
 21
103.680981
 31
0.0
  0
LINE
  5
4F5
  8
0
 62
     0
 10
184.985851
 20
103.208952
 30
0.0
 11
185.297711
 21
103.520812
 31
0.0
  0
LINE
  5
4F6
  8
0
 62
     0
 10
185.30405
 20
103.208952
 30
0.0
 11
185.45574
 21
103.360643
 31
0.0
  0
LINE
  5
4F7
  8
0
 62
     0
 10
190.307701
 20
105.66702
 30
0.0
 11
190.334482
 21
105.693801
 31
0.0
  0
LINE
  5
4F8
  8
0
 62
     0
 10
189.353107
 20
104.394227
 30
0.0
 11
190.65268
 21
105.693801
 31
0.0
  0
LINE
  5
4F9
  8
0
 62
     0
 10
188.48603
 20
103.208952
 30
0.0
 11
190.970879
 21
105.693801
 31
0.0
  0
LINE
  5
4FA
  8
0
 62
     0
 10
188.804228
 20
103.208952
 30
0.0
 11
191.289077
 21
105.693801
 31
0.0
  0
LINE
  5
4FB
  8
0
 62
     0
 10
189.122426
 20
103.208952
 30
0.0
 11
191.607275
 21
105.693801
 31
0.0
  0
LINE
  5
4FC
  8
0
 62
     0
 10
189.440624
 20
103.208952
 30
0.0
 11
191.925473
 21
105.693801
 31
0.0
  0
LINE
  5
4FD
  8
0
 62
     0
 10
189.758822
 20
103.208952
 30
0.0
 11
191.284682
 21
104.734812
 31
0.0
  0
LINE
  5
4FE
  8
0
 62
     0
 10
191.828596
 20
105.278726
 30
0.0
 11
192.243671
 21
105.693801
 31
0.0
  0
LINE
  5
4FF
  8
0
 62
     0
 10
190.07702
 20
103.208952
 30
0.0
 11
190.330088
 21
103.46202
 31
0.0
  0
LINE
  5
500
  8
0
 62
     0
 10
191.892236
 20
105.024168
 30
0.0
 11
192.561869
 21
105.693801
 31
0.0
  0
LINE
  5
501
  8
0
 62
     0
 10
190.557052
 20
103.688984
 30
0.0
 11
190.93024
 21
104.062171
 31
0.0
  0
LINE
  5
502
  8
0
 62
     0
 10
190.87525
 20
103.688984
 30
0.0
 11
191.248438
 21
104.062171
 31
0.0
  0
LINE
  5
503
  8
0
 62
     0
 10
191.955876
 20
104.76961
 30
0.0
 11
192.880067
 21
105.693801
 31
0.0
  0
LINE
  5
504
  8
0
 62
     0
 10
191.193448
 20
103.688984
 30
0.0
 11
191.566636
 21
104.062171
 31
0.0
  0
LINE
  5
505
  8
0
 62
     0
 10
192.019515
 20
104.515051
 30
0.0
 11
193.198265
 21
105.693801
 31
0.0
  0
LINE
  5
506
  8
0
 62
     0
 10
191.511646
 20
103.688984
 30
0.0
 11
191.884834
 21
104.062171
 31
0.0
  0
LINE
  5
507
  8
0
 62
     0
 10
192.083155
 20
104.260493
 30
0.0
 11
193.329286
 21
105.506623
 31
0.0
  0
LINE
  5
508
  8
0
 62
     0
 10
191.829844
 20
103.688984
 30
0.0
 11
193.392925
 21
105.252065
 31
0.0
  0
LINE
  5
509
  8
0
 62
     0
 10
192.148042
 20
103.688984
 30
0.0
 11
193.456565
 21
104.997506
 31
0.0
  0
LINE
  5
50A
  8
0
 62
     0
 10
192.274074
 20
103.496817
 30
0.0
 11
193.520204
 21
104.742948
 31
0.0
  0
LINE
  5
50B
  8
0
 62
     0
 10
192.337713
 20
103.242259
 30
0.0
 11
193.583844
 21
104.48839
 31
0.0
  0
LINE
  5
50C
  8
0
 62
     0
 10
192.622605
 20
103.208952
 30
0.0
 11
193.647484
 21
104.233831
 31
0.0
  0
LINE
  5
50D
  8
0
 62
     0
 10
192.940803
 20
103.208952
 30
0.0
 11
193.711123
 21
103.979273
 31
0.0
  0
LINE
  5
50E
  8
0
 62
     0
 10
194.864033
 20
105.132182
 30
0.0
 11
195.244054
 21
105.512203
 31
0.0
  0
LINE
  5
50F
  8
0
 62
     0
 10
193.259001
 20
103.208952
 30
0.0
 11
193.774763
 21
103.724714
 31
0.0
  0
LINE
  5
510
  8
0
 62
     0
 10
194.795915
 20
104.745866
 30
0.0
 11
195.618586
 21
105.568537
 31
0.0
  0
LINE
  5
511
  8
0
 62
     0
 10
193.577199
 20
103.208952
 30
0.0
 11
193.838402
 21
103.470156
 31
0.0
  0
LINE
  5
512
  8
0
 62
     0
 10
194.727797
 20
104.35955
 30
0.0
 11
195.981303
 21
105.613056
 31
0.0
  0
LINE
  5
513
  8
0
 62
     0
 10
193.895397
 20
103.208952
 30
0.0
 11
193.902042
 21
103.215597
 31
0.0
  0
LINE
  5
514
  8
0
 62
     0
 10
194.659679
 20
103.973234
 30
0.0
 11
196.333358
 21
105.646913
 31
0.0
  0
LINE
  5
515
  8
0
 62
     0
 10
194.615277
 20
103.610634
 30
0.0
 11
196.67571
 21
105.671067
 31
0.0
  0
LINE
  5
516
  8
0
 62
     0
 10
194.737894
 20
103.415053
 30
0.0
 11
197.009165
 21
105.686324
 31
0.0
  0
LINE
  5
517
  8
0
 62
     0
 10
194.983951
 20
103.342913
 30
0.0
 11
196.340819
 21
104.69978
 31
0.0
  0
LINE
  5
518
  8
0
 62
     0
 10
196.88271
 20
105.241671
 30
0.0
 11
197.334409
 21
105.69337
 31
0.0
  0
LINE
  5
519
  8
0
 62
     0
 10
195.265203
 20
103.305966
 30
0.0
 11
196.272701
 21
104.313464
 31
0.0
  0
LINE
  5
51A
  8
0
 62
     0
 10
197.219219
 20
105.259982
 30
0.0
 11
197.652032
 21
105.692795
 31
0.0
  0
LINE
  5
51B
  8
0
 62
     0
 10
195.551822
 20
103.274387
 30
0.0
 11
196.225094
 21
103.947659
 31
0.0
  0
LINE
  5
51C
  8
0
 62
     0
 10
197.526321
 20
105.248886
 30
0.0
 11
197.962545
 21
105.68511
 31
0.0
  0
LINE
  5
51D
  8
0
 62
     0
 10
195.844088
 20
103.248455
 30
0.0
 11
196.343872
 21
103.748239
 31
0.0
  0
LINE
  5
51E
  8
0
 62
     0
 10
197.810421
 20
105.214788
 30
0.0
 11
198.266395
 21
105.670762
 31
0.0
  0
LINE
  5
51F
  8
0
 62
     0
 10
196.142312
 20
103.228481
 30
0.0
 11
196.588304
 21
103.674473
 31
0.0
  0
LINE
  5
520
  8
0
 62
     0
 10
198.025995
 20
105.112164
 30
0.0
 11
198.563973
 21
105.650142
 31
0.0
  0
LINE
  5
521
  8
0
 62
     0
 10
196.446847
 20
103.214818
 30
0.0
 11
196.883622
 21
103.651593
 31
0.0
  0
LINE
  5
522
  8
0
 62
     0
 10
198.196022
 20
104.963993
 30
0.0
 11
198.855628
 21
105.623599
 31
0.0
  0
LINE
  5
523
  8
0
 62
     0
 10
197.353782
 20
104.121752
 30
0.0
 11
197.533406
 21
104.301376
 31
0.0
  0
LINE
  5
524
  8
0
 62
     0
 10
196.75809
 20
103.207862
 30
0.0
 11
197.204833
 21
103.654605
 31
0.0
  0
LINE
  5
525
  8
0
 62
     0
 10
198.51422
 20
104.963993
 30
0.0
 11
199.141667
 21
105.59144
 31
0.0
  0
LINE
  5
526
  8
0
 62
     0
 10
197.628876
 20
104.078649
 30
0.0
 11
197.851604
 21
104.301376
 31
0.0
  0
LINE
  5
527
  8
0
 62
     0
 10
197.076493
 20
103.208068
 30
0.0
 11
197.560393
 21
103.691967
 31
0.0
  0
LINE
  5
528
  8
0
 62
     0
 10
198.832418
 20
104.963993
 30
0.0
 11
199.422367
 21
105.553941
 31
0.0
  0
LINE
  5
529
  8
0
 62
     0
 10
197.947074
 20
104.078649
 30
0.0
 11
198.169802
 21
104.301376
 31
0.0
  0
LINE
  5
52A
  8
0
 62
     0
 10
197.402575
 20
103.215952
 30
0.0
 11
198.488
 21
104.301376
 31
0.0
  0
LINE
  5
52B
  8
0
 62
     0
 10
199.150616
 20
104.963993
 30
0.0
 11
199.638742
 21
105.452118
 31
0.0
  0
LINE
  5
52C
  8
0
 62
     0
 10
197.736936
 20
103.232115
 30
0.0
 11
198.806198
 21
104.301376
 31
0.0
  0
LINE
  5
52D
  8
0
 62
     0
 10
199.468814
 20
104.963993
 30
0.0
 11
199.719549
 21
105.214728
 31
0.0
  0
LINE
  5
52E
  8
0
 62
     0
 10
198.031972
 20
103.208952
 30
0.0
 11
199.124396
 21
104.301376
 31
0.0
  0
LINE
  5
52F
  8
0
 62
     0
 10
198.35017
 20
103.208952
 30
0.0
 11
199.442594
 21
104.301376
 31
0.0
  0
LINE
  5
530
  8
0
 62
     0
 10
198.668368
 20
103.208952
 30
0.0
 11
199.516647
 21
104.057232
 31
0.0
  0
LINE
  5
531
  8
0
 62
     0
 10
198.986566
 20
103.208952
 30
0.0
 11
199.448529
 21
103.670916
 31
0.0
  0
LINE
  5
532
  8
0
 62
     0
 10
199.304764
 20
103.208952
 30
0.0
 11
199.380411
 21
103.2846
 31
0.0
  0
LINE
  5
533
  8
0
 62
     0
 10
174.896145
 20
103.208952
 30
0.0
 11
174.602537
 21
103.50256
 31
0.0
  0
LINE
  5
534
  8
0
 62
     0
 10
173.177644
 20
104.927453
 30
0.0
 11
172.412025
 21
105.693072
 31
0.0
  0
LINE
  5
535
  8
0
 62
     0
 10
173.969857
 20
104.13524
 30
0.0
 11
173.679879
 21
104.425218
 31
0.0
  0
LINE
  5
536
  8
0
 62
     0
 10
173.651659
 20
104.13524
 30
0.0
 11
173.361681
 21
104.425218
 31
0.0
  0
LINE
  5
537
  8
0
 62
     0
 10
173.119903
 20
104.666996
 30
0.0
 11
172.093827
 21
105.693072
 31
0.0
  0
LINE
  5
538
  8
0
 62
     0
 10
173.333461
 20
104.13524
 30
0.0
 11
171.775629
 21
105.693072
 31
0.0
  0
LINE
  5
539
  8
0
 62
     0
 10
173.015263
 20
104.13524
 30
0.0
 11
171.606498
 21
105.544005
 31
0.0
  0
LINE
  5
53A
  8
0
 62
     0
 10
172.946677
 20
103.885628
 30
0.0
 11
171.548757
 21
105.283548
 31
0.0
  0
LINE
  5
53B
  8
0
 62
     0
 10
172.888936
 20
103.625171
 30
0.0
 11
171.491015
 21
105.023092
 31
0.0
  0
LINE
  5
53C
  8
0
 62
     0
 10
171.046222
 20
105.467885
 30
0.0
 11
170.821035
 21
105.693072
 31
0.0
  0
LINE
  5
53D
  8
0
 62
     0
 10
172.831194
 20
103.364715
 30
0.0
 11
171.433273
 21
104.762636
 31
0.0
  0
LINE
  5
53E
  8
0
 62
     0
 10
170.98848
 20
105.207429
 30
0.0
 11
170.502837
 21
105.693072
 31
0.0
  0
LINE
  5
53F
  8
0
 62
     0
 10
172.668758
 20
103.208952
 30
0.0
 11
171.375531
 21
104.502179
 31
0.0
  0
LINE
  5
540
  8
0
 62
     0
 10
170.805669
 20
105.072042
 30
0.0
 11
170.184639
 21
105.693072
 31
0.0
  0
LINE
  5
541
  8
0
 62
     0
 10
172.35056
 20
103.208952
 30
0.0
 11
171.317789
 21
104.241723
 31
0.0
  0
LINE
  5
542
  8
0
 62
     0
 10
170.487471
 20
105.072042
 30
0.0
 11
169.866441
 21
105.693072
 31
0.0
  0
LINE
  5
543
  8
0
 62
     0
 10
172.032362
 20
103.208952
 30
0.0
 11
171.260048
 21
103.981267
 31
0.0
  0
LINE
  5
544
  8
0
 62
     0
 10
170.169273
 20
105.072042
 30
0.0
 11
169.548243
 21
105.693072
 31
0.0
  0
LINE
  5
545
  8
0
 62
     0
 10
171.714164
 20
103.208952
 30
0.0
 11
171.202306
 21
103.720811
 31
0.0
  0
LINE
  5
546
  8
0
 62
     0
 10
169.851075
 20
105.072042
 30
0.0
 11
169.230045
 21
105.693072
 31
0.0
  0
LINE
  5
547
  8
0
 62
     0
 10
171.395966
 20
103.208952
 30
0.0
 11
171.144564
 21
103.460354
 31
0.0
  0
LINE
  5
548
  8
0
 62
     0
 10
169.532876
 20
105.072042
 30
0.0
 11
168.911847
 21
105.693072
 31
0.0
  0
LINE
  5
549
  8
0
 62
     0
 10
169.307651
 20
104.97907
 30
0.0
 11
168.593648
 21
105.693072
 31
0.0
  0
LINE
  5
54A
  8
0
 62
     0
 10
169.249909
 20
104.718614
 30
0.0
 11
168.27545
 21
105.693072
 31
0.0
  0
LINE
  5
54B
  8
0
 62
     0
 10
169.192167
 20
104.458157
 30
0.0
 11
167.957252
 21
105.693072
 31
0.0
  0
LINE
  5
54C
  8
0
 62
     0
 10
169.134425
 20
104.197701
 30
0.0
 11
167.639054
 21
105.693072
 31
0.0
  0
LINE
  5
54D
  8
0
 62
     0
 10
169.076683
 20
103.937245
 30
0.0
 11
167.320856
 21
105.693072
 31
0.0
  0
LINE
  5
54E
  8
0
 62
     0
 10
169.018942
 20
103.676788
 30
0.0
 11
167.002658
 21
105.693072
 31
0.0
  0
LINE
  5
54F
  8
0
 62
     0
 10
168.9612
 20
103.416332
 30
0.0
 11
167.563279
 21
104.814253
 31
0.0
  0
LINE
  5
550
  8
0
 62
     0
 10
167.30549
 20
105.072042
 30
0.0
 11
166.68446
 21
105.693072
 31
0.0
  0
LINE
  5
551
  8
0
 62
     0
 10
168.850382
 20
103.208952
 30
0.0
 11
167.505537
 21
104.553797
 31
0.0
  0
LINE
  5
552
  8
0
 62
     0
 10
166.987292
 20
105.072042
 30
0.0
 11
166.366262
 21
105.693072
 31
0.0
  0
LINE
  5
553
  8
0
 62
     0
 10
168.532184
 20
103.208952
 30
0.0
 11
167.447796
 21
104.29334
 31
0.0
  0
LINE
  5
554
  8
0
 62
     0
 10
166.669094
 20
105.072042
 30
0.0
 11
166.176959
 21
105.564177
 31
0.0
  0
LINE
  5
555
  8
0
 62
     0
 10
168.213986
 20
103.208952
 30
0.0
 11
167.390054
 21
104.032884
 31
0.0
  0
LINE
  5
556
  8
0
 62
     0
 10
165.749267
 20
105.673671
 30
0.0
 11
165.729866
 21
105.693072
 31
0.0
  0
LINE
  5
557
  8
0
 62
     0
 10
166.350896
 20
105.072042
 30
0.0
 11
166.119217
 21
105.303721
 31
0.0
  0
LINE
  5
558
  8
0
 62
     0
 10
167.895788
 20
103.208952
 30
0.0
 11
167.332312
 21
103.772428
 31
0.0
  0
LINE
  5
559
  8
0
 62
     0
 10
165.691525
 20
105.413214
 30
0.0
 11
165.411668
 21
105.693072
 31
0.0
  0
LINE
  5
55A
  8
0
 62
     0
 10
167.57759
 20
103.208952
 30
0.0
 11
167.27457
 21
103.511971
 31
0.0
  0
LINE
  5
55B
  8
0
 62
     0
 10
165.633784
 20
105.152758
 30
0.0
 11
165.09347
 21
105.693072
 31
0.0
  0
LINE
  5
55C
  8
0
 62
     0
 10
167.259392
 20
103.208952
 30
0.0
 11
167.216829
 21
103.251515
 31
0.0
  0
LINE
  5
55D
  8
0
 62
     0
 10
165.576042
 20
104.892302
 30
0.0
 11
164.775272
 21
105.693072
 31
0.0
  0
LINE
  5
55E
  8
0
 62
     0
 10
165.5183
 20
104.631846
 30
0.0
 11
164.457074
 21
105.693072
 31
0.0
  0
LINE
  5
55F
  8
0
 62
     0
 10
165.460558
 20
104.371389
 30
0.0
 11
164.138876
 21
105.693072
 31
0.0
  0
LINE
  5
560
  8
0
 62
     0
 10
165.402817
 20
104.110933
 30
0.0
 11
164.008428
 21
105.505322
 31
0.0
  0
LINE
  5
561
  8
0
 62
     0
 10
165.345075
 20
103.850477
 30
0.0
 11
163.950686
 21
105.244865
 31
0.0
  0
LINE
  5
562
  8
0
 62
     0
 10
165.213808
 20
103.663545
 30
0.0
 11
163.892945
 21
104.984409
 31
0.0
  0
LINE
  5
563
  8
0
 62
     0
 10
165.017448
 20
103.541707
 30
0.0
 11
163.835203
 21
104.723953
 31
0.0
  0
LINE
  5
564
  8
0
 62
     0
 10
164.802652
 20
103.438305
 30
0.0
 11
163.777461
 21
104.463496
 31
0.0
  0
LINE
  5
565
  8
0
 62
     0
 10
164.567173
 20
103.355586
 30
0.0
 11
163.719719
 21
104.20304
 31
0.0
  0
LINE
  5
566
  8
0
 62
     0
 10
164.315183
 20
103.289379
 30
0.0
 11
163.618712
 21
103.98585
 31
0.0
  0
LINE
  5
567
  8
0
 62
     0
 10
162.118619
 20
105.485943
 30
0.0
 11
161.911489
 21
105.693072
 31
0.0
  0
LINE
  5
568
  8
0
 62
     0
 10
164.051144
 20
103.235219
 30
0.0
 11
163.422176
 21
103.864188
 31
0.0
  0
LINE
  5
569
  8
0
 62
     0
 10
162.060877
 20
105.225486
 30
0.0
 11
161.593291
 21
105.693072
 31
0.0
  0
LINE
  5
56A
  8
0
 62
     0
 10
163.77367
 20
103.194495
 30
0.0
 11
163.177404
 21
103.790761
 31
0.0
  0
LINE
  5
56B
  8
0
 62
     0
 10
162.003135
 20
104.96503
 30
0.0
 11
161.275093
 21
105.693072
 31
0.0
  0
LINE
  5
56C
  8
0
 62
     0
 10
163.485182
 20
103.164785
 30
0.0
 11
162.893835
 21
103.756132
 31
0.0
  0
LINE
  5
56D
  8
0
 62
     0
 10
161.945393
 20
104.704574
 30
0.0
 11
160.956895
 21
105.693072
 31
0.0
  0
LINE
  5
56E
  8
0
 62
     0
 10
163.187779
 20
103.14399
 30
0.0
 11
162.571275
 21
103.760495
 31
0.0
  0
LINE
  5
56F
  8
0
 62
     0
 10
161.887652
 20
104.444117
 30
0.0
 11
160.638697
 21
105.693072
 31
0.0
  0
LINE
  5
570
  8
0
 62
     0
 10
162.88065
 20
103.132921
 30
0.0
 11
162.17665
 21
103.836921
 31
0.0
  0
LINE
  5
571
  8
0
 62
     0
 10
161.82991
 20
104.183661
 30
0.0
 11
160.43551
 21
105.578061
 31
0.0
  0
LINE
  5
572
  8
0
 62
     0
 10
162.562817
 20
103.132556
 30
0.0
 11
160.377768
 21
105.317605
 31
0.0
  0
LINE
  5
573
  8
0
 62
     0
 10
162.233074
 20
103.144101
 30
0.0
 11
160.320026
 21
105.057149
 31
0.0
  0
LINE
  5
574
  8
0
 62
     0
 10
159.684608
 20
105.692567
 30
0.0
 11
159.684103
 21
105.693072
 31
0.0
  0
LINE
  5
575
  8
0
 62
     0
 10
161.889919
 20
103.169058
 30
0.0
 11
160.262284
 21
104.796692
 31
0.0
  0
LINE
  5
576
  8
0
 62
     0
 10
159.626866
 20
105.432111
 30
0.0
 11
159.365905
 21
105.693072
 31
0.0
  0
LINE
  5
577
  8
0
 62
     0
 10
161.530904
 20
103.209875
 30
0.0
 11
160.204543
 21
104.536236
 31
0.0
  0
LINE
  5
578
  8
0
 62
     0
 10
159.487685
 20
105.253094
 30
0.0
 11
159.047707
 21
105.693072
 31
0.0
  0
LINE
  5
579
  8
0
 62
     0
 10
161.140832
 20
103.281749
 30
0.0
 11
160.146801
 21
104.27578
 31
0.0
  0
LINE
  5
57A
  8
0
 62
     0
 10
159.169487
 20
105.253094
 30
0.0
 11
158.729509
 21
105.693072
 31
0.0
  0
LINE
  5
57B
  8
0
 62
     0
 10
160.695959
 20
103.408424
 30
0.0
 11
160.089059
 21
104.015324
 31
0.0
  0
LINE
  5
57C
  8
0
 62
     0
 10
158.851289
 20
105.253094
 30
0.0
 11
158.411311
 21
105.693072
 31
0.0
  0
LINE
  5
57D
  8
0
 62
     0
 10
159.205273
 20
104.580911
 30
0.0
 11
159.190183
 21
104.596001
 31
0.0
  0
LINE
  5
57E
  8
0
 62
     0
 10
158.533091
 20
105.253094
 30
0.0
 11
158.093113
 21
105.693072
 31
0.0
  0
LINE
  5
57F
  8
0
 62
     0
 10
159.147532
 20
104.320455
 30
0.0
 11
158.871985
 21
104.596001
 31
0.0
  0
LINE
  5
580
  8
0
 62
     0
 10
158.214893
 20
105.253094
 30
0.0
 11
157.774915
 21
105.693072
 31
0.0
  0
LINE
  5
581
  8
0
 62
     0
 10
158.843766
 20
104.306023
 30
0.0
 11
158.553787
 21
104.596001
 31
0.0
  0
LINE
  5
582
  8
0
 62
     0
 10
157.896695
 20
105.253094
 30
0.0
 11
157.456717
 21
105.693072
 31
0.0
  0
LINE
  5
583
  8
0
 62
     0
 10
159.222674
 20
103.608917
 30
0.0
 11
159.18266
 21
103.648931
 31
0.0
  0
LINE
  5
584
  8
0
 62
     0
 10
157.578497
 20
105.253094
 30
0.0
 11
157.138519
 21
105.693072
 31
0.0
  0
LINE
  5
585
  8
0
 62
     0
 10
158.525568
 20
104.306023
 30
0.0
 11
158.235589
 21
104.596001
 31
0.0
  0
LINE
  5
586
  8
0
 62
     0
 10
159.164932
 20
103.348461
 30
0.0
 11
158.864462
 21
103.648931
 31
0.0
  0
LINE
  5
587
  8
0
 62
     0
 10
157.260299
 20
105.253094
 30
0.0
 11
156.820321
 21
105.693072
 31
0.0
  0
LINE
  5
588
  8
0
 62
     0
 10
158.20737
 20
104.306023
 30
0.0
 11
157.917391
 21
104.596001
 31
0.0
  0
LINE
  5
589
  8
0
 62
     0
 10
158.986242
 20
103.208952
 30
0.0
 11
158.546264
 21
103.648931
 31
0.0
  0
LINE
  5
58A
  8
0
 62
     0
 10
156.942101
 20
105.253094
 30
0.0
 11
156.502123
 21
105.693072
 31
0.0
  0
LINE
  5
58B
  8
0
 62
     0
 10
157.889172
 20
104.306023
 30
0.0
 11
157.599193
 21
104.596001
 31
0.0
  0
LINE
  5
58C
  8
0
 62
     0
 10
158.668044
 20
103.208952
 30
0.0
 11
158.228066
 21
103.648931
 31
0.0
  0
LINE
  5
58D
  8
0
 62
     0
 10
156.634858
 20
105.242138
 30
0.0
 11
156.183924
 21
105.693072
 31
0.0
  0
LINE
  5
58E
  8
0
 62
     0
 10
157.570974
 20
104.306023
 30
0.0
 11
157.280995
 21
104.596001
 31
0.0
  0
LINE
  5
58F
  8
0
 62
     0
 10
158.349846
 20
103.208952
 30
0.0
 11
157.909868
 21
103.648931
 31
0.0
  0
LINE
  5
590
  8
0
 62
     0
 10
156.577116
 20
104.981682
 30
0.0
 11
155.865726
 21
105.693072
 31
0.0
  0
LINE
  5
591
  8
0
 62
     0
 10
157.252775
 20
104.306023
 30
0.0
 11
156.962797
 21
104.596001
 31
0.0
  0
LINE
  5
592
  8
0
 62
     0
 10
158.031648
 20
103.208952
 30
0.0
 11
157.59167
 21
103.648931
 31
0.0
  0
LINE
  5
593
  8
0
 62
     0
 10
156.519374
 20
104.721226
 30
0.0
 11
155.547528
 21
105.693072
 31
0.0
  0
LINE
  5
594
  8
0
 62
     0
 10
156.934577
 20
104.306023
 30
0.0
 11
156.644599
 21
104.596001
 31
0.0
  0
LINE
  5
595
  8
0
 62
     0
 10
157.71345
 20
103.208952
 30
0.0
 11
157.273472
 21
103.648931
 31
0.0
  0
LINE
  5
596
  8
0
 62
     0
 10
156.616379
 20
104.306023
 30
0.0
 11
155.22933
 21
105.693072
 31
0.0
  0
LINE
  5
597
  8
0
 62
     0
 10
157.395252
 20
103.208952
 30
0.0
 11
156.955274
 21
103.648931
 31
0.0
  0
LINE
  5
598
  8
0
 62
     0
 10
156.403891
 20
104.200313
 30
0.0
 11
155.00597
 21
105.598234
 31
0.0
  0
LINE
  5
599
  8
0
 62
     0
 10
157.077054
 20
103.208952
 30
0.0
 11
156.637075
 21
103.648931
 31
0.0
  0
LINE
  5
59A
  8
0
 62
     0
 10
156.346149
 20
103.939857
 30
0.0
 11
154.948228
 21
105.337778
 31
0.0
  0
LINE
  5
59B
  8
0
 62
     0
 10
156.758856
 20
103.208952
 30
0.0
 11
156.318877
 21
103.648931
 31
0.0
  0
LINE
  5
59C
  8
0
 62
     0
 10
156.288407
 20
103.679401
 30
0.0
 11
154.890487
 21
105.077322
 31
0.0
  0
LINE
  5
59D
  8
0
 62
     0
 10
156.440658
 20
103.208952
 30
0.0
 11
154.832745
 21
104.816865
 31
0.0
  0
LINE
  5
59E
  8
0
 62
     0
 10
154.133784
 20
105.515826
 30
0.0
 11
153.956538
 21
105.693072
 31
0.0
  0
LINE
  5
59F
  8
0
 62
     0
 10
156.12246
 20
103.208952
 30
0.0
 11
154.775003
 21
104.556409
 31
0.0
  0
LINE
  5
5A0
  8
0
 62
     0
 10
154.076043
 20
105.255369
 30
0.0
 11
153.63834
 21
105.693072
 31
0.0
  0
LINE
  5
5A1
  8
0
 62
     0
 10
155.804262
 20
103.208952
 30
0.0
 11
154.717261
 21
104.295953
 31
0.0
  0
LINE
  5
5A2
  8
0
 62
     0
 10
154.018301
 20
104.994913
 30
0.0
 11
153.320142
 21
105.693072
 31
0.0
  0
LINE
  5
5A3
  8
0
 62
     0
 10
155.486064
 20
103.208952
 30
0.0
 11
154.65952
 21
104.035496
 31
0.0
  0
LINE
  5
5A4
  8
0
 62
     0
 10
153.960559
 20
104.734457
 30
0.0
 11
153.001944
 21
105.693072
 31
0.0
  0
LINE
  5
5A5
  8
0
 62
     0
 10
155.167866
 20
103.208952
 30
0.0
 11
154.601778
 21
103.77504
 31
0.0
  0
LINE
  5
5A6
  8
0
 62
     0
 10
153.902817
 20
104.474
 30
0.0
 11
152.683746
 21
105.693072
 31
0.0
  0
LINE
  5
5A7
  8
0
 62
     0
 10
154.849668
 20
103.208952
 30
0.0
 11
154.544036
 21
103.514584
 31
0.0
  0
LINE
  5
5A8
  8
0
 62
     0
 10
153.845076
 20
104.213544
 30
0.0
 11
152.447155
 21
105.611465
 31
0.0
  0
LINE
  5
5A9
  8
0
 62
     0
 10
154.53147
 20
103.208952
 30
0.0
 11
154.486294
 21
103.254128
 31
0.0
  0
LINE
  5
5AA
  8
0
 62
     0
 10
153.787334
 20
103.953088
 30
0.0
 11
152.389413
 21
105.351009
 31
0.0
  0
LINE
  5
5AB
  8
0
 62
     0
 10
153.729592
 20
103.692632
 30
0.0
 11
152.331671
 21
105.090552
 31
0.0
  0
LINE
  5
5AC
  8
0
 62
     0
 10
153.67185
 20
103.432175
 30
0.0
 11
152.27393
 21
104.830096
 31
0.0
  0
LINE
  5
5AD
  8
0
 62
     0
 10
153.576875
 20
103.208952
 30
0.0
 11
152.073304
 21
104.712524
 31
0.0
  0
LINE
  5
5AE
  8
0
 62
     0
 10
153.258677
 20
103.208952
 30
0.0
 11
150.999582
 21
105.468047
 31
0.0
  0
LINE
  5
5AF
  8
0
 62
     0
 10
152.940479
 20
103.208952
 30
0.0
 11
150.45636
 21
105.693072
 31
0.0
  0
LINE
  5
5B0
  8
0
 62
     0
 10
152.622281
 20
103.208952
 30
0.0
 11
150.138161
 21
105.693072
 31
0.0
  0
LINE
  5
5B1
  8
0
 62
     0
 10
152.304083
 20
103.208952
 30
0.0
 11
149.819963
 21
105.693072
 31
0.0
  0
LINE
  5
5B2
  8
0
 62
     0
 10
151.985885
 20
103.208952
 30
0.0
 11
149.501765
 21
105.693072
 31
0.0
  0
LINE
  5
5B3
  8
0
 62
     0
 10
151.542665
 20
103.333975
 30
0.0
 11
149.183567
 21
105.693072
 31
0.0
  0
LINE
  5
5B4
  8
0
 62
     0
 10
150.096365
 20
104.462076
 30
0.0
 11
148.865369
 21
105.693072
 31
0.0
  0
LINE
  5
5B5
  8
0
 62
     0
 10
150.038624
 20
104.20162
 30
0.0
 11
148.640703
 21
105.59954
 31
0.0
  0
LINE
  5
5B6
  8
0
 62
     0
 10
149.980882
 20
103.941163
 30
0.0
 11
148.582961
 21
105.339084
 31
0.0
  0
LINE
  5
5B7
  8
0
 62
     0
 10
149.92314
 20
103.680707
 30
0.0
 11
148.525219
 21
105.078628
 31
0.0
  0
LINE
  5
5B8
  8
0
 62
     0
 10
149.865398
 20
103.420251
 30
0.0
 11
148.467478
 21
104.818171
 31
0.0
  0
LINE
  5
5B9
  8
0
 62
     0
 10
149.758499
 20
103.208952
 30
0.0
 11
148.409736
 21
104.557715
 31
0.0
  0
LINE
  5
5BA
  8
0
 62
     0
 10
149.440301
 20
103.208952
 30
0.0
 11
148.351994
 21
104.297259
 31
0.0
  0
LINE
  5
5BB
  8
0
 62
     0
 10
149.122103
 20
103.208952
 30
0.0
 11
148.294252
 21
104.036803
 31
0.0
  0
LINE
  5
5BC
  8
0
 62
     0
 10
148.803905
 20
103.208952
 30
0.0
 11
148.236511
 21
103.776346
 31
0.0
  0
LINE
  5
5BD
  8
0
 62
     0
 10
148.485707
 20
103.208952
 30
0.0
 11
148.178769
 21
103.51589
 31
0.0
  0
LINE
  5
5BE
  8
0
 62
     0
 10
148.167508
 20
103.208952
 30
0.0
 11
148.121027
 21
103.255434
 31
0.0
  0
LINE
  5
5BF
  8
0
 62
     0
 10
175.214343
 20
103.208952
 30
0.0
 11
174.622995
 21
103.8003
 31
0.0
  0
LINE
  5
5C0
  8
0
 62
     0
 10
173.235386
 20
105.187909
 30
0.0
 11
172.730223
 21
105.693072
 31
0.0
  0
LINE
  5
5C1
  8
0
 62
     0
 10
174.288055
 20
104.13524
 30
0.0
 11
173.998077
 21
104.425218
 31
0.0
  0
LINE
  5
5C2
  8
0
 62
     0
 10
175.532541
 20
103.208952
 30
0.0
 11
174.316275
 21
104.425218
 31
0.0
  0
LINE
  5
5C3
  8
0
 62
     0
 10
173.4884
 20
105.253094
 30
0.0
 11
173.048421
 21
105.693072
 31
0.0
  0
LINE
  5
5C4
  8
0
 62
     0
 10
175.850739
 20
103.208952
 30
0.0
 11
174.586541
 21
104.47315
 31
0.0
  0
LINE
  5
5C5
  8
0
 62
     0
 10
173.806598
 20
105.253094
 30
0.0
 11
173.366619
 21
105.693072
 31
0.0
  0
LINE
  5
5C6
  8
0
 62
     0
 10
176.168937
 20
103.208952
 30
0.0
 11
174.789565
 21
104.588325
 31
0.0
  0
LINE
  5
5C7
  8
0
 62
     0
 10
174.124796
 20
105.253094
 30
0.0
 11
173.684817
 21
105.693072
 31
0.0
  0
LINE
  5
5C8
  8
0
 62
     0
 10
176.311422
 20
103.384665
 30
0.0
 11
174.927684
 21
104.768404
 31
0.0
  0
LINE
  5
5C9
  8
0
 62
     0
 10
174.442994
 20
105.253094
 30
0.0
 11
174.003015
 21
105.693072
 31
0.0
  0
LINE
  5
5CA
  8
0
 62
     0
 10
176.323639
 20
103.690647
 30
0.0
 11
174.914671
 21
105.099614
 31
0.0
  0
LINE
  5
5CB
  8
0
 62
     0
 10
174.791615
 20
105.22267
 30
0.0
 11
174.321213
 21
105.693072
 31
0.0
  0
LINE
  5
5CC
  8
0
 62
     0
 10
176.344435
 20
103.988048
 30
0.0
 11
174.639411
 21
105.693072
 31
0.0
  0
LINE
  5
5CD
  8
0
 62
     0
 10
177.441729
 20
103.208952
 30
0.0
 11
177.197922
 21
103.452759
 31
0.0
  0
LINE
  5
5CE
  8
0
 62
     0
 10
176.286615
 20
104.364066
 30
0.0
 11
174.95761
 21
105.693072
 31
0.0
  0
LINE
  5
5CF
  8
0
 62
     0
 10
177.759927
 20
103.208952
 30
0.0
 11
177.255664
 21
103.713216
 31
0.0
  0
LINE
  5
5D0
  8
0
 62
     0
 10
176.4817
 20
104.487179
 30
0.0
 11
175.275808
 21
105.693072
 31
0.0
  0
LINE
  5
5D1
  8
0
 62
     0
 10
178.078125
 20
103.208952
 30
0.0
 11
177.313406
 21
103.973672
 31
0.0
  0
LINE
  5
5D2
  8
0
 62
     0
 10
176.650286
 20
104.636791
 30
0.0
 11
175.594006
 21
105.693072
 31
0.0
  0
LINE
  5
5D3
  8
0
 62
     0
 10
178.396323
 20
103.208952
 30
0.0
 11
177.371148
 21
104.234128
 31
0.0
  0
LINE
  5
5D4
  8
0
 62
     0
 10
176.785346
 20
104.81993
 30
0.0
 11
175.912204
 21
105.693072
 31
0.0
  0
LINE
  5
5D5
  8
0
 62
     0
 10
178.714521
 20
103.208952
 30
0.0
 11
177.428889
 21
104.494584
 31
0.0
  0
LINE
  5
5D6
  8
0
 62
     0
 10
176.870902
 20
105.052571
 30
0.0
 11
176.255428
 21
105.668046
 31
0.0
  0
LINE
  5
5D7
  8
0
 62
     0
 10
178.884552
 20
103.35712
 30
0.0
 11
177.486631
 21
104.755041
 31
0.0
  0
LINE
  5
5D8
  8
0
 62
     0
 10
178.942294
 20
103.617576
 30
0.0
 11
177.544373
 21
105.015497
 31
0.0
  0
LINE
  5
5D9
  8
0
 62
     0
 10
179.000035
 20
103.878033
 30
0.0
 11
177.602115
 21
105.275953
 31
0.0
  0
LINE
  5
5DA
  8
0
 62
     0
 10
179.987314
 20
103.208952
 30
0.0
 11
179.883821
 21
103.312445
 31
0.0
  0
LINE
  5
5DB
  8
0
 62
     0
 10
179.057777
 20
104.138489
 30
0.0
 11
177.659856
 21
105.53641
 31
0.0
  0
LINE
  5
5DC
  8
0
 62
     0
 10
180.305512
 20
103.208952
 30
0.0
 11
179.941563
 21
103.572901
 31
0.0
  0
LINE
  5
5DD
  8
0
 62
     0
 10
179.115519
 20
104.398945
 30
0.0
 11
177.821392
 21
105.693072
 31
0.0
  0
LINE
  5
5DE
  8
0
 62
     0
 10
180.62371
 20
103.208952
 30
0.0
 11
179.999305
 21
103.833357
 31
0.0
  0
LINE
  5
5DF
  8
0
 62
     0
 10
179.173261
 20
104.659401
 30
0.0
 11
178.13959
 21
105.693072
 31
0.0
  0
LINE
  5
5E0
  8
0
 62
     0
 10
180.941908
 20
103.208952
 30
0.0
 11
180.057046
 21
104.093814
 31
0.0
  0
LINE
  5
5E1
  8
0
 62
     0
 10
179.231002
 20
104.919858
 30
0.0
 11
178.457788
 21
105.693072
 31
0.0
  0
LINE
  5
5E2
  8
0
 62
     0
 10
181.260106
 20
103.208952
 30
0.0
 11
180.114788
 21
104.35427
 31
0.0
  0
LINE
  5
5E3
  8
0
 62
     0
 10
179.288744
 20
105.180314
 30
0.0
 11
178.775986
 21
105.693072
 31
0.0
  0
LINE
  5
5E4
  8
0
 62
     0
 10
181.506909
 20
103.280347
 30
0.0
 11
180.17253
 21
104.614726
 31
0.0
  0
LINE
  5
5E5
  8
0
 62
     0
 10
179.346486
 20
105.44077
 30
0.0
 11
179.094184
 21
105.693072
 31
0.0
  0
LINE
  5
5E6
  8
0
 62
     0
 10
181.564651
 20
103.540804
 30
0.0
 11
180.230272
 21
104.875182
 31
0.0
  0
LINE
  5
5E7
  8
0
 62
     0
 10
181.622392
 20
103.80126
 30
0.0
 11
180.288014
 21
105.135639
 31
0.0
  0
LINE
  5
5E8
  8
0
 62
     0
 10
181.827275
 20
103.914576
 30
0.0
 11
180.345755
 21
105.396095
 31
0.0
  0
LINE
  5
5E9
  8
0
 62
     0
 10
182.050395
 20
104.009654
 30
0.0
 11
180.403497
 21
105.656551
 31
0.0
  0
LINE
  5
5EA
  8
0
 62
     0
 10
182.273514
 20
104.104732
 30
0.0
 11
180.685174
 21
105.693072
 31
0.0
  0
LINE
  5
5EB
  8
0
 62
     0
 10
183.487492
 20
103.208952
 30
0.0
 11
181.003372
 21
105.693072
 31
0.0
  0
LINE
  5
5EC
  8
0
 62
     0
 10
183.80569
 20
103.208952
 30
0.0
 11
182.070276
 21
104.944367
 31
0.0
  0
LINE
  5
5ED
  8
0
 62
     0
 10
181.911101
 20
105.103541
 30
0.0
 11
181.321571
 21
105.693072
 31
0.0
  0
LINE
  5
5EE
  8
0
 62
     0
 10
184.123888
 20
103.208952
 30
0.0
 11
182.293395
 21
105.039445
 31
0.0
  0
LINE
  5
5EF
  8
0
 62
     0
 10
181.968843
 20
105.363998
 30
0.0
 11
181.639769
 21
105.693072
 31
0.0
  0
LINE
  5
5F0
  8
0
 62
     0
 10
184.442086
 20
103.208952
 30
0.0
 11
182.516515
 21
105.134523
 31
0.0
  0
LINE
  5
5F1
  8
0
 62
     0
 10
182.026585
 20
105.624454
 30
0.0
 11
181.957967
 21
105.693072
 31
0.0
  0
LINE
  5
5F2
  8
0
 62
     0
 10
184.760284
 20
103.208952
 30
0.0
 11
182.739635
 21
105.229602
 31
0.0
  0
LINE
  5
5F3
  8
0
 62
     0
 10
185.078482
 20
103.208952
 30
0.0
 11
182.962755
 21
105.32468
 31
0.0
  0
LINE
  5
5F4
  8
0
 62
     0
 10
185.396681
 20
103.208952
 30
0.0
 11
183.185874
 21
105.419758
 31
0.0
  0
LINE
  5
5F5
  8
0
 62
     0
 10
184.058472
 20
104.865359
 30
0.0
 11
183.408994
 21
105.514837
 31
0.0
  0
LINE
  5
5F6
  8
0
 62
     0
 10
184.281592
 20
104.960437
 30
0.0
 11
183.632114
 21
105.609915
 31
0.0
  0
LINE
  5
5F7
  8
0
 62
     0
 10
184.504712
 20
105.055515
 30
0.0
 11
183.867155
 21
105.693072
 31
0.0
  0
LINE
  5
5F8
  8
0
 62
     0
 10
184.727831
 20
105.150593
 30
0.0
 11
184.185353
 21
105.693072
 31
0.0
  0
LINE
  5
5F9
  8
0
 62
     0
 10
184.950951
 20
105.245672
 30
0.0
 11
184.503551
 21
105.693072
 31
0.0
  0
LINE
  5
5FA
  8
0
 62
     0
 10
185.174071
 20
105.34075
 30
0.0
 11
184.821749
 21
105.693072
 31
0.0
  0
LINE
  5
5FB
  8
0
 62
     0
 10
185.397191
 20
105.435828
 30
0.0
 11
185.139947
 21
105.693072
 31
0.0
  0
LINE
  5
5FC
  8
0
 62
     0
 10
185.62031
 20
105.530907
 30
0.0
 11
185.458145
 21
105.693072
 31
0.0
  0
LINE
  5
5FD
  8
0
 62
     0
 10
185.84343
 20
105.625985
 30
0.0
 11
185.776343
 21
105.693072
 31
0.0
  0
LINE
  5
5FE
  8
0
 62
     0
 10
188.578661
 20
103.208952
 30
0.0
 11
188.513227
 21
103.274387
 31
0.0
  0
LINE
  5
5FF
  8
0
 62
     0
 10
188.896859
 20
103.208952
 30
0.0
 11
188.649597
 21
103.456214
 31
0.0
  0
LINE
  5
600
  8
0
 62
     0
 10
189.215057
 20
103.208952
 30
0.0
 11
188.785968
 21
103.638042
 31
0.0
  0
LINE
  5
601
  8
0
 62
     0
 10
189.533255
 20
103.208952
 30
0.0
 11
188.922338
 21
103.819869
 31
0.0
  0
LINE
  5
602
  8
0
 62
     0
 10
189.851453
 20
103.208952
 30
0.0
 11
189.058709
 21
104.001696
 31
0.0
  0
LINE
  5
603
  8
0
 62
     0
 10
190.152872
 20
103.225732
 30
0.0
 11
189.19508
 21
104.183524
 31
0.0
  0
LINE
  5
604
  8
0
 62
     0
 10
190.289242
 20
103.407559
 30
0.0
 11
189.33145
 21
104.365351
 31
0.0
  0
LINE
  5
605
  8
0
 62
     0
 10
190.425613
 20
103.589387
 30
0.0
 11
189.467821
 21
104.547179
 31
0.0
  0
LINE
  5
606
  8
0
 62
     0
 10
190.644214
 20
103.688984
 30
0.0
 11
189.604191
 21
104.729006
 31
0.0
  0
LINE
  5
607
  8
0
 62
     0
 10
190.962412
 20
103.688984
 30
0.0
 11
189.740562
 21
104.910834
 31
0.0
  0
LINE
  5
608
  8
0
 62
     0
 10
191.28061
 20
103.688984
 30
0.0
 11
190.907422
 21
104.062171
 31
0.0
  0
LINE
  5
609
  8
0
 62
     0
 10
190.834725
 20
104.134869
 30
0.0
 11
189.876933
 21
105.092661
 31
0.0
  0
LINE
  5
60A
  8
0
 62
     0
 10
191.598808
 20
103.688984
 30
0.0
 11
191.22562
 21
104.062171
 31
0.0
  0
LINE
  5
60B
  8
0
 62
     0
 10
190.971095
 20
104.316696
 30
0.0
 11
190.013303
 21
105.274489
 31
0.0
  0
LINE
  5
60C
  8
0
 62
     0
 10
192.397038
 20
103.208952
 30
0.0
 11
192.329041
 21
103.276949
 31
0.0
  0
LINE
  5
60D
  8
0
 62
     0
 10
191.107466
 20
104.498524
 30
0.0
 11
190.149674
 21
105.456316
 31
0.0
  0
LINE
  5
60E
  8
0
 62
     0
 10
191.917006
 20
103.688984
 30
0.0
 11
191.543818
 21
104.062171
 31
0.0
  0
LINE
  5
60F
  8
0
 62
     0
 10
192.715236
 20
103.208952
 30
0.0
 11
191.862016
 21
104.062171
 31
0.0
  0
LINE
  5
610
  8
0
 62
     0
 10
191.243837
 20
104.680351
 30
0.0
 11
190.286044
 21
105.638144
 31
0.0
  0
LINE
  5
611
  8
0
 62
     0
 10
193.033434
 20
103.208952
 30
0.0
 11
192.116909
 21
104.125477
 31
0.0
  0
LINE
  5
612
  8
0
 62
     0
 10
191.380207
 20
104.862179
 30
0.0
 11
190.548585
 21
105.693801
 31
0.0
  0
LINE
  5
613
  8
0
 62
     0
 10
193.351632
 20
103.208952
 30
0.0
 11
192.010843
 21
104.549741
 31
0.0
  0
LINE
  5
614
  8
0
 62
     0
 10
191.516578
 20
105.044006
 30
0.0
 11
190.866783
 21
105.693801
 31
0.0
  0
LINE
  5
615
  8
0
 62
     0
 10
193.66983
 20
103.208952
 30
0.0
 11
191.904777
 21
104.974005
 31
0.0
  0
LINE
  5
616
  8
0
 62
     0
 10
191.652948
 20
105.225834
 30
0.0
 11
191.184981
 21
105.693801
 31
0.0
  0
LINE
  5
617
  8
0
 62
     0
 10
193.875595
 20
103.321385
 30
0.0
 11
191.798711
 21
105.398269
 31
0.0
  0
LINE
  5
618
  8
0
 62
     0
 10
191.789319
 20
105.407661
 30
0.0
 11
191.503179
 21
105.693801
 31
0.0
  0
LINE
  5
619
  8
0
 62
     0
 10
193.769529
 20
103.745649
 30
0.0
 11
191.821377
 21
105.693801
 31
0.0
  0
LINE
  5
61A
  8
0
 62
     0
 10
193.663463
 20
104.169913
 30
0.0
 11
192.139576
 21
105.693801
 31
0.0
  0
LINE
  5
61B
  8
0
 62
     0
 10
194.732492
 20
103.419082
 30
0.0
 11
194.673972
 21
103.477602
 31
0.0
  0
LINE
  5
61C
  8
0
 62
     0
 10
193.557397
 20
104.594177
 30
0.0
 11
192.457774
 21
105.693801
 31
0.0
  0
LINE
  5
61D
  8
0
 62
     0
 10
195.149298
 20
103.320474
 30
0.0
 11
194.635225
 21
103.834548
 31
0.0
  0
LINE
  5
61E
  8
0
 62
     0
 10
193.451331
 20
105.018441
 30
0.0
 11
192.775972
 21
105.693801
 31
0.0
  0
LINE
  5
61F
  8
0
 62
     0
 10
195.509282
 20
103.278689
 30
0.0
 11
194.682922
 21
104.105049
 31
0.0
  0
LINE
  5
620
  8
0
 62
     0
 10
193.345265
 20
105.442705
 30
0.0
 11
193.09417
 21
105.693801
 31
0.0
  0
LINE
  5
621
  8
0
 62
     0
 10
195.858857
 20
103.247312
 30
0.0
 11
194.730618
 21
104.37555
 31
0.0
  0
LINE
  5
622
  8
0
 62
     0
 10
196.19894
 20
103.225426
 30
0.0
 11
194.778315
 21
104.646052
 31
0.0
  0
LINE
  5
623
  8
0
 62
     0
 10
196.530306
 20
103.212258
 30
0.0
 11
194.826012
 21
104.916553
 31
0.0
  0
LINE
  5
624
  8
0
 62
     0
 10
196.853616
 20
103.207147
 30
0.0
 11
194.873708
 21
105.187054
 31
0.0
  0
LINE
  5
625
  8
0
 62
     0
 10
197.169437
 20
103.209523
 30
0.0
 11
196.717543
 21
103.661418
 31
0.0
  0
LINE
  5
626
  8
0
 62
     0
 10
196.241642
 20
104.137319
 30
0.0
 11
194.970499
 21
105.408462
 31
0.0
  0
LINE
  5
627
  8
0
 62
     0
 10
197.478265
 20
103.218894
 30
0.0
 11
197.047649
 21
103.64951
 31
0.0
  0
LINE
  5
628
  8
0
 62
     0
 10
196.289339
 20
104.40782
 30
0.0
 11
195.193391
 21
105.503767
 31
0.0
  0
LINE
  5
629
  8
0
 62
     0
 10
197.78053
 20
103.234826
 30
0.0
 11
197.349867
 21
103.66549
 31
0.0
  0
LINE
  5
62A
  8
0
 62
     0
 10
196.337035
 20
104.678321
 30
0.0
 11
195.468172
 21
105.547185
 31
0.0
  0
LINE
  5
62B
  8
0
 62
     0
 10
198.124603
 20
103.208952
 30
0.0
 11
197.630009
 21
103.703546
 31
0.0
  0
LINE
  5
62C
  8
0
 62
     0
 10
196.384732
 20
104.948823
 30
0.0
 11
195.748005
 21
105.58555
 31
0.0
  0
LINE
  5
62D
  8
0
 62
     0
 10
198.442801
 20
103.208952
 30
0.0
 11
197.855526
 21
103.796227
 31
0.0
  0
LINE
  5
62E
  8
0
 62
     0
 10
196.502999
 20
105.148753
 30
0.0
 11
196.033135
 21
105.618617
 31
0.0
  0
LINE
  5
62F
  8
0
 62
     0
 10
197.573104
 20
104.078649
 30
0.0
 11
197.380196
 21
104.271557
 31
0.0
  0
LINE
  5
630
  8
0
 62
     0
 10
198.760999
 20
103.208952
 30
0.0
 11
197.955988
 21
104.013963
 31
0.0
  0
LINE
  5
631
  8
0
 62
     0
 10
196.745041
 20
105.22491
 30
0.0
 11
196.323833
 21
105.646118
 31
0.0
  0
LINE
  5
632
  8
0
 62
     0
 10
197.891302
 20
104.078649
 30
0.0
 11
197.668574
 21
104.301376
 31
0.0
  0
LINE
  5
633
  8
0
 62
     0
 10
199.079197
 20
103.208952
 30
0.0
 11
197.986772
 21
104.301376
 31
0.0
  0
LINE
  5
634
  8
0
 62
     0
 10
197.034275
 20
105.253874
 30
0.0
 11
196.620401
 21
105.667748
 31
0.0
  0
LINE
  5
635
  8
0
 62
     0
 10
199.371618
 20
103.234729
 30
0.0
 11
198.304971
 21
104.301376
 31
0.0
  0
LINE
  5
636
  8
0
 62
     0
 10
197.347781
 20
105.258566
 30
0.0
 11
196.923178
 21
105.683169
 31
0.0
  0
LINE
  5
637
  8
0
 62
     0
 10
199.419315
 20
103.50523
 30
0.0
 11
198.623169
 21
104.301376
 31
0.0
  0
LINE
  5
638
  8
0
 62
     0
 10
197.692832
 20
105.231713
 30
0.0
 11
197.232551
 21
105.691994
 31
0.0
  0
LINE
  5
639
  8
0
 62
     0
 10
199.467011
 20
103.775732
 30
0.0
 11
198.941367
 21
104.301376
 31
0.0
  0
LINE
  5
63A
  8
0
 62
     0
 10
198.27875
 20
104.963993
 30
0.0
 11
197.548954
 21
105.693789
 31
0.0
  0
LINE
  5
63B
  8
0
 62
     0
 10
199.514708
 20
104.046233
 30
0.0
 11
199.259565
 21
104.301376
 31
0.0
  0
LINE
  5
63C
  8
0
 62
     0
 10
198.596948
 20
104.963993
 30
0.0
 11
197.872889
 21
105.688052
 31
0.0
  0
LINE
  5
63D
  8
0
 62
     0
 10
198.915146
 20
104.963993
 30
0.0
 11
198.204929
 21
105.67421
 31
0.0
  0
LINE
  5
63E
  8
0
 62
     0
 10
199.233344
 20
104.963993
 30
0.0
 11
198.545745
 21
105.651593
 31
0.0
  0
LINE
  5
63F
  8
0
 62
     0
 10
199.551542
 20
104.963993
 30
0.0
 11
198.896119
 21
105.619416
 31
0.0
  0
LINE
  5
640
  8
0
 62
     0
 10
199.705495
 20
105.128239
 30
0.0
 11
199.256984
 21
105.57675
 31
0.0
  0
ENDBLK
  5
642
  8
0
  0
BLOCK
  8
0
  2
3
 70
     0
 10
74.0
 20
118.0
 30
0.0
  3
3
  1

  0
TEXT
  5
9D
  8
SCHRAFFIERT
 10
74.0
 20
117.0
 30
0.0
 40
2.5
  1
%%P0.1
 41
0.7
 51
15.0
  0
ENDBLK
  5
A0
  8
0
  0
BLOCK
  8
0
  2
*X3
 70
     1
 10
0.0
 20
0.0
 30
0.0
  3
*X3
  1

  0
LINE
  5
904
  8
0
 62
     0
 10
51.502223
 20
198.933987
 30
0.0
 11
51.856175
 21
199.287939
 31
0.0
  0
LINE
  5
905
  8
0
 62
     0
 10
56.093234
 20
203.524998
 30
0.0
 11
56.447187
 21
203.878951
 31
0.0
  0
LINE
  5
906
  8
0
 62
     0
 10
51.323989
 20
199.109306
 30
0.0
 11
51.677698
 21
199.463015
 31
0.0
  0
LINE
  5
907
  8
0
 62
     0
 10
55.918158
 20
203.703476
 30
0.0
 11
56.271868
 21
204.057185
 31
0.0
  0
LINE
  5
908
  8
0
 62
     0
 10
51.158412
 20
199.297283
 30
0.0
 11
51.514
 21
199.652871
 31
0.0
  0
LINE
  5
909
  8
0
 62
     0
 10
55.728303
 20
203.867173
 30
0.0
 11
56.083891
 21
204.222762
 31
0.0
  0
LINE
  5
90A
  8
0
 62
     0
 10
51.005667
 20
199.498091
 30
0.0
 11
51.365362
 21
199.857786
 31
0.0
  0
LINE
  5
90B
  8
0
 62
     0
 10
55.523388
 20
204.015812
 30
0.0
 11
55.883083
 21
204.375507
 31
0.0
  0
LINE
  5
90C
  8
0
 62
     0
 10
50.866139
 20
199.712117
 30
0.0
 11
51.232406
 21
200.078384
 31
0.0
  0
LINE
  5
90D
  8
0
 62
     0
 10
55.30279
 20
204.148767
 30
0.0
 11
55.669057
 21
204.515034
 31
0.0
  0
LINE
  5
90E
  8
0
 62
     0
 10
50.740457
 20
199.939987
 30
0.0
 11
51.116179
 21
200.315709
 31
0.0
  0
LINE
  5
90F
  8
0
 62
     0
 10
55.065464
 20
204.264995
 30
0.0
 11
55.441186
 21
204.640717
 31
0.0
  0
LINE
  5
910
  8
0
 62
     0
 10
50.629548
 20
200.182632
 30
0.0
 11
51.01828
 21
200.571364
 31
0.0
  0
LINE
  5
911
  8
0
 62
     0
 10
54.809809
 20
204.362894
 30
0.0
 11
55.198541
 21
204.751625
 31
0.0
  0
LINE
  5
912
  8
0
 62
     0
 10
50.534739
 20
200.441377
 30
0.0
 11
50.941124
 21
200.847762
 31
0.0
  0
LINE
  5
913
  8
0
 62
     0
 10
54.533412
 20
204.44005
 30
0.0
 11
54.939797
 21
204.846434
 31
0.0
  0
LINE
  5
914
  8
0
 62
     0
 10
50.457911
 20
200.718102
 30
0.0
 11
50.888414
 21
201.148605
 31
0.0
  0
LINE
  5
915
  8
0
 62
     0
 10
54.232569
 20
204.49276
 30
0.0
 11
54.663071
 21
204.923262
 31
0.0
  0
LINE
  5
916
  8
0
 62
     0
 10
50.401783
 20
201.015528
 30
0.0
 11
50.866134
 21
201.479878
 31
0.0
  0
LINE
  5
917
  8
0
 62
     0
 10
53.901296
 20
204.51504
 30
0.0
 11
54.365646
 21
204.97939
 31
0.0
  0
LINE
  5
918
  8
0
 62
     0
 10
50.37043
 20
201.337728
 30
0.0
 11
50.884908
 21
201.852206
 31
0.0
  0
LINE
  5
919
  8
0
 62
     0
 10
53.528967
 20
204.496265
 30
0.0
 11
54.043446
 21
205.010744
 31
0.0
  0
LINE
  5
91A
  8
0
 62
     0
 10
50.370351
 20
201.691202
 30
0.0
 11
50.96716
 21
202.288011
 31
0.0
  0
LINE
  5
91B
  8
0
 62
     0
 10
53.093162
 20
204.414014
 30
0.0
 11
53.689972
 21
205.010823
 31
0.0
  0
LINE
  5
91C
  8
0
 62
     0
 10
50.413009
 20
202.087414
 30
0.0
 11
51.182802
 21
202.857207
 31
0.0
  0
LINE
  5
91D
  8
0
 62
     0
 10
52.523967
 20
204.198372
 30
0.0
 11
53.29376
 21
204.968164
 31
0.0
  0
LINE
  5
91E
  8
0
 62
     0
 10
50.522532
 20
202.55049
 30
0.0
 11
52.830683
 21
204.858641
 31
0.0
  0
LINE
  5
91F
  8
0
 62
     0
 10
50.774159
 20
203.15567
 30
0.0
 11
52.225503
 21
204.607015
 31
0.0
  0
LINE
  5
920
  8
0
 62
     0
 10
51.693137
 20
198.771348
 30
0.0
 11
52.049469
 21
199.127679
 31
0.0
  0
LINE
  5
921
  8
0
 62
     0
 10
56.253494
 20
203.331705
 30
0.0
 11
56.609826
 21
203.688037
 31
0.0
  0
LINE
  5
922
  8
0
 62
     0
 10
51.896952
 20
198.62161
 30
0.0
 11
52.257933
 21
198.98259
 31
0.0
  0
LINE
  5
923
  8
0
 62
     0
 10
56.398584
 20
203.123241
 30
0.0
 11
56.759564
 21
203.484221
 31
0.0
  0
LINE
  5
924
  8
0
 62
     0
 10
52.114107
 20
198.48521
 30
0.0
 11
52.48228
 21
198.853384
 31
0.0
  0
LINE
  5
925
  8
0
 62
     0
 10
56.52779
 20
202.898894
 30
0.0
 11
56.895963
 21
203.267067
 31
0.0
  0
LINE
  5
926
  8
0
 62
     0
 10
52.345291
 20
198.362841
 30
0.0
 11
52.723667
 21
198.741218
 31
0.0
  0
LINE
  5
927
  8
0
 62
     0
 10
56.639956
 20
202.657506
 30
0.0
 11
57.018332
 21
203.035883
 31
0.0
  0
LINE
  5
928
  8
0
 62
     0
 10
52.591515
 20
198.255512
 30
0.0
 11
52.983857
 21
198.647853
 31
0.0
  0
LINE
  5
929
  8
0
 62
     0
 10
56.73332
 20
202.397317
 30
0.0
 11
57.125661
 21
202.789658
 31
0.0
  0
LINE
  5
92A
  8
0
 62
     0
 10
52.854216
 20
198.16466
 30
0.0
 11
53.265503
 21
198.575947
 31
0.0
  0
LINE
  5
92B
  8
0
 62
     0
 10
56.805227
 20
202.11567
 30
0.0
 11
57.216514
 21
202.526957
 31
0.0
  0
LINE
  5
92C
  8
0
 62
     0
 10
53.135438
 20
198.092328
 30
0.0
 11
53.572721
 21
198.529611
 31
0.0
  0
LINE
  5
92D
  8
0
 62
     0
 10
56.851563
 20
201.808453
 30
0.0
 11
57.288846
 21
202.245736
 31
0.0
  0
LINE
  5
92E
  8
0
 62
     0
 10
53.438152
 20
198.041488
 30
0.0
 11
53.91227
 21
198.515607
 31
0.0
  0
LINE
  5
92F
  8
0
 62
     0
 10
56.865567
 20
201.468904
 30
0.0
 11
57.339685
 21
201.943022
 31
0.0
  0
LINE
  5
930
  8
0
 62
     0
 10
53.766867
 20
198.016651
 30
0.0
 11
54.296529
 21
198.546313
 31
0.0
  0
LINE
  5
931
  8
0
 62
     0
 10
56.834861
 20
201.084644
 30
0.0
 11
57.364523
 21
201.614306
 31
0.0
  0
LINE
  5
932
  8
0
 62
     0
 10
54.128913
 20
198.025143
 30
0.0
 11
54.753244
 21
198.649474
 31
0.0
  0
LINE
  5
933
  8
0
 62
     0
 10
56.7317
 20
200.62793
 30
0.0
 11
57.356031
 21
201.252261
 31
0.0
  0
LINE
  5
934
  8
0
 62
     0
 10
54.537633
 20
198.080309
 30
0.0
 11
55.386461
 21
198.929138
 31
0.0
  0
LINE
  5
935
  8
0
 62
     0
 10
56.452036
 20
199.994713
 30
0.0
 11
57.300864
 21
200.843541
 31
0.0
  0
LINE
  5
936
  8
0
 62
     0
 10
55.022874
 20
198.211997
 30
0.0
 11
57.169176
 21
200.358299
 31
0.0
  0
LINE
  5
937
  8
0
 62
     0
 10
55.696657
 20
198.532226
 30
0.0
 11
56.848947
 21
199.684517
 31
0.0
  0
ENDBLK
  5
939
  8
0
  0
BLOCK
  8
0
  2
*X4
 70
     1
 10
0.0
 20
0.0
 30
0.0
  3
*X4
  1

  0
LINE
  5
943
  8
0
 62
     0
 10
51.910248
 20
200.402672
 30
0.0
 11
52.206011
 21
200.698435
 31
0.0
  0
LINE
  5
944
  8
0
 62
     0
 10
51.793402
 20
200.639379
 30
0.0
 11
52.104303
 21
200.950281
 31
0.0
  0
LINE
  5
945
  8
0
 62
     0
 10
52.950675
 20
201.796653
 30
0.0
 11
53.220111
 21
202.066088
 31
0.0
  0
LINE
  5
946
  8
0
 62
     0
 10
51.70141
 20
200.900941
 30
0.0
 11
52.037036
 21
201.236566
 31
0.0
  0
LINE
  5
947
  8
0
 62
     0
 10
52.723668
 20
201.923198
 30
0.0
 11
53.017697
 21
202.217227
 31
0.0
  0
LINE
  5
948
  8
0
 62
     0
 10
51.639222
 20
201.192306
 30
0.0
 11
52.01673
 21
201.569814
 31
0.0
  0
LINE
  5
949
  8
0
 62
     0
 10
52.496684
 20
202.049768
 30
0.0
 11
52.790713
 21
202.343797
 31
0.0
  0
LINE
  5
94A
  8
0
 62
     0
 10
51.615937
 20
201.522575
 30
0.0
 11
52.075918
 21
201.982556
 31
0.0
  0
LINE
  5
94B
  8
0
 62
     0
 10
52.269701
 20
202.176338
 30
0.0
 11
52.56373
 21
202.470367
 31
0.0
  0
LINE
  5
94C
  8
0
 62
     0
 10
51.651045
 20
201.911236
 30
0.0
 11
52.336746
 21
202.596937
 31
0.0
  0
LINE
  5
94D
  8
0
 62
     0
 10
51.805526
 20
202.41927
 30
0.0
 11
52.101173
 21
202.714917
 31
0.0
  0
LINE
  5
94E
  8
0
 62
     0
 10
52.049103
 20
200.187974
 30
0.0
 11
52.336108
 21
200.474979
 31
0.0
  0
LINE
  5
94F
  8
0
 62
     0
 10
52.286054
 20
200.071371
 30
0.0
 11
52.435021
 21
200.220339
 31
0.0
  0
ENDBLK
  5
951
  8
0
  0
BLOCK
  8
0
  2
NT
 70
     0
 10
0.0
 20
0.0
 30
0.0
  3
NT
  1

  0
POLYLINE
  5
657
  8
0
 66
     1
 10
0.0
 20
0.0
 30
0.0
  0
VERTEX
  5
AD1
  8
0
 10
0.288675
 20
-0.166667
 30
0.0
 42
0.291473
  0
VERTEX
  5
AD2
  8
0
 10
0.273051
 20
0.191192
 30
0.0
 42
1.0
  0
VERTEX
  5
AD3
  8
0
 10
0.204788
 20
0.143394
 30
0.0
 42
-0.246577
  0
VERTEX
  5
AD4
  8
0
 10
0.234311
 20
-0.087167
 30
0.0
  0
VERTEX
  5
AD5
  8
0
 10
0.147129
 20
-0.036832
 30
0.0
 42
1.0
  0
VERTEX
  5
AD6
  8
0
 10
0.105462
 20
-0.109001
 30
0.0
  0
VERTEX
  5
AD7
  8
0
 10
0.231757
 20
-0.181918
 30
0.0
 42
0.414214
  0
VERTEX
  5
AD8
  8
0
 10
0.288675
 20
-0.166667
 30
0.0
  0
SEQEND
  5
AD9
  8
0
  0
POLYLINE
  5
658
  8
0
 66
     1
 10
0.0
 20
0.0
 30
0.0
 70
     1
  0
VERTEX
  5
ADA
  8
0
 10
0.166667
 20
0.288675
 30
0.0
 42
0.291473
  0
VERTEX
  5
ADB
  8
0
 10
-0.191192
 20
0.273051
 30
0.0
 42
1.0
  0
VERTEX
  5
ADC
  8
0
 10
-0.143394
 20
0.204788
 30
0.0
 42
-0.111311
  0
VERTEX
  5
ADD
  8
0
 10
-0.041667
 20
0.246503
 30
0.0
  0
VERTEX
  5
ADE
  8
0
 10
-0.041667
 20
-0.291667
 30
0.0
 42
1.0
  0
VERTEX
  5
ADF
  8
0
 10
0.041667
 20
-0.291667
 30
0.0
  0
VERTEX
  5
AE0
  8
0
 10
0.041667
 20
0.246503
 30
0.0
 42
-0.089274
  0
VERTEX
  5
AE1
  8
0
 10
0.125
 20
0.216506
 30
0.0
 42
1.0
  0
SEQEND
  5
AE2
  8
0
  0
POLYLINE
  5
659
  8
0
 66
     1
 10
0.0
 20
0.0
 30
0.0
  0
VERTEX
  5
AE3
  8
0
 10
-0.288675
 20
0.166667
 30
0.0
 42
0.291473
  0
VERTEX
  5
AE4
  8
0
 10
-0.273051
 20
-0.191192
 30
0.0
 42
1.0
  0
VERTEX
  5
AE5
  8
0
 10
-0.204788
 20
-0.143394
 30
0.0
 42
-0.246577
  0
VERTEX
  5
AE6
  8
0
 10
-0.234311
 20
0.087167
 30
0.0
  0
VERTEX
  5
AE7
  8
0
 10
-0.147129
 20
0.036832
 30
0.0
 42
1.0
  0
VERTEX
  5
AE8
  8
0
 10
-0.105462
 20
0.109001
 30
0.0
  0
VERTEX
  5
AE9
  8
0
 10
-0.231757
 20
0.181918
 30
0.0
 42
0.414214
  0
VERTEX
  5
AEA
  8
0
 10
-0.288675
 20
0.166667
 30
0.0
  0
SEQEND
  5
AEB
  8
0
  0
CIRCLE
  5
65A
  8
0
 10
0.0
 20
0.0
 30
0.0
 40
0.416667
  0
CIRCLE
  5
65B
  8
0
 10
0.0
 20
0.0
 30
0.0
 40
0.5
  0
ENDBLK
  5
65D
  8
0
  0
ENDSEC
  0
SECTION
  2
ENTITIES
  0
LINE
  5
1E
  8
05
 10
221.096896
 20
241.535879
 30
0.0
 11
204.896896
 21
241.535879
 31
0.0
  0
LINE
  5
1F
  8
05
 10
215.096896
 20
245.107173
 30
0.0
 11
204.896896
 21
245.107173
 31
0.0
  0
LINE
  5
20
  8
05
 10
190.196896
 20
249.838315
 30
0.0
 11
215.696896
 21
249.838315
 31
0.0
  0
LINE
  5
21
  8
05
 10
190.196896
 20
248.292743
 30
0.0
 11
215.696896
 21
248.292743
 31
0.0
  0
LINE
  5
22
  8
05
 10
185.696896
 20
250.934377
 30
0.0
 11
215.696896
 21
250.934377
 31
0.0
  0
LINE
  5
23
  8
05
 10
204.896896
 20
244.371244
 30
0.0
 11
244.196896
 21
244.371244
 31
0.0
  0
LINE
  5
24
  8
05
 10
199.196896
 20
194.085893
 30
0.0
 11
221.096896
 21
194.085893
 31
0.0
  0
LINE
  5
25
  8
05
 10
199.196896
 20
197.385893
 30
0.0
 11
221.029754
 21
197.385893
 31
0.0
  0
ARC
  5
26
  8
035
 10
210.664584
 20
185.257887
 30
0.0
 40
1.519938
 50
114.652935
 51
137.933212
  0
ARC
  5
28
  8
035
 10
210.476897
 20
184.216174
 30
0.0
 40
1.533669
 50
107.830941
 51
127.831388
  0
LINE
  5
29
  8
05
 10
200.045425
 20
189.352093
 30
0.0
 11
221.096896
 21
189.352093
 31
0.0
  0
LINE
  5
2A
  8
035
 10
230.696896
 20
188.559911
 30
0.0
 11
209.096896
 21
188.559911
 31
0.0
  0
LINE
  5
2B
  8
05
 10
199.196896
 20
177.437408
 30
0.0
 11
230.096896
 21
177.437408
 31
0.0
  0
LINE
  5
2C
  8
BEM1
 10
189.196896
 20
270.019428
 30
0.0
 11
266.096896
 21
270.019428
 31
0.0
  0
LINE
  5
2E
  8
MITTE
 10
175.48503
 20
213.435893
 30
0.0
 11
268.004785
 21
213.435893
 31
0.0
  0
TEXT
  5
31
  8
0
 62
     3
 10
144.062761
 20
149.078213
 30
0.0
 40
3.5
  1
Frontplattenausschnitt (Rückseite)
  7
ARIAL
  0
CIRCLE
  5
33
  8
05
 10
205.231127
 20
121.333775
 30
0.0
 40
4.8
  0
LINE
  5
34
  8
MITTE
 10
197.925712
 20
121.333775
 30
0.0
 11
212.79117
 21
121.333775
 31
0.0
  0
LINE
  5
35
  8
BEM1
 10
154.19117
 20
61.933775
 30
0.0
 11
221.834815
 21
61.933775
 31
0.0
  0
POLYLINE
  5
36
  8
RAHMEN
 66
     1
 10
0.0
 20
0.0
 30
0.0
 70
     1
  0
VERTEX
  5
A03
  8
RAHMEN
 10
10.0
 20
10.0
 30
0.0
  0
VERTEX
  5
A04
  8
RAHMEN
 10
410.0
 20
10.0
 30
0.0
  0
VERTEX
  5
A05
  8
RAHMEN
 10
410.0
 20
287.0
 30
0.0
  0
VERTEX
  5
A06
  8
RAHMEN
 10
10.0
 20
287.0
 30
0.0
  0
SEQEND
  5
A07
  8
RAHMEN
  0
LINE
  5
38
  8
05
 10
99.114955
 20
52.998278
 30
0.0
 11
53.058368
 21
52.998276
 31
0.0
  0
POLYLINE
  5
39
  8
05
 66
     1
 10
0.0
 20
0.0
 30
0.0
  0
VERTEX
  5
A08
  8
05
 10
78.558365
 20
141.43736
 30
0.0
 42
-0.07259
  0
VERTEX
  5
A09
  8
05
 10
78.782402
 20
141.310086
 30
0.0
 42
-0.10547
  0
VERTEX
  5
A0A
  8
05
 10
79.362907
 20
140.619599
 30
0.0
 42
-0.068111
  0
VERTEX
  5
A0B
  8
05
 10
79.69865
 20
139.708063
 30
0.0
 42
-0.054277
  0
VERTEX
  5
A0C
  8
05
 10
79.830365
 20
138.498278
 30
0.0
 42
-0.054277
  0
SEQEND
  5
A0D
  8
05
  0
LINE
  5
3A
  8
05
 10
76.458365
 20
136.098278
 30
0.0
 11
83.358365
 21
136.098278
 31
0.0
  0
LINE
  5
3B
  8
05
 10
57.360465
 20
74.898278
 30
0.0
 11
92.556264
 21
74.898278
 31
0.0
  0
LINE
  5
3C
  8
05
 10
62.982365
 20
141.498278
 30
0.0
 11
86.934365
 21
141.498278
 31
0.0
  0
LINE
  5
3D
  8
05
 10
113.50685
 20
133.398278
 30
0.0
 11
37.45988
 21
133.398278
 31
0.0
  0
LINE
  5
3E
  8
05
 10
109.458364
 20
71.298278
 30
0.0
 11
41.958363
 21
71.298278
 31
0.0
  0
LINE
  5
3F
  8
05
 10
110.113136
 20
63.498278
 30
0.0
 11
50.658367
 21
63.498278
 31
0.0
  0
LINE
  5
40
  8
MITTE
 10
74.958365
 20
90.147524
 30
0.0
 11
74.958365
 21
49.706557
 31
0.0
  0
LINE
  5
41
  8
05
 10
50.658367
 20
68.598278
 30
0.0
 11
50.658367
 21
55.398276
 31
0.0
  0
ARC
  5
42
  8
05
 10
53.058367
 20
55.398276
 30
0.0
 40
2.4
 50
180.0
 51
270.000003
  0
LINE
  5
43
  8
05
 10
38.958365
 20
104.073278
 30
0.0
 11
38.958365
 21
101.763278
 31
0.0
  0
LINE
  5
44
  8
05
 10
41.958365
 20
133.398278
 30
0.0
 11
41.958365
 21
97.998278
 31
0.0
  0
LINE
  5
45
  8
05
 10
48.226782
 20
97.998278
 30
0.0
 11
48.226782
 21
128.898278
 31
0.0
  0
LINE
  5
46
  8
05
 10
65.958365
 20
128.898278
 30
0.0
 11
65.958365
 21
74.898278
 31
0.0
  0
LINE
  5
47
  8
05
 10
58.62523
 20
128.898278
 30
0.0
 11
58.62523
 21
74.898278
 31
0.0
  0
LINE
  5
48
  8
05
 10
57.360465
 20
128.898278
 30
0.0
 11
57.360465
 21
74.898278
 31
0.0
  0
LINE
  5
49
  8
MITTE
 10
74.958365
 20
145.390495
 30
0.0
 11
74.958365
 21
73.437499
 31
0.0
  0
LINE
  5
4A
  8
05
 10
41.958365
 20
97.998278
 30
0.0
 11
57.360465
 21
97.998278
 31
0.0
  0
LINE
  5
4B
  8
05
 10
40.458363
 20
89.448278
 30
0.0
 11
50.958365
 21
89.448278
 31
0.0
  0
LINE
  5
4C
  8
035
 10
45.728809
 20
95.152592
 30
0.0
 11
46.491309
 21
97.998278
 31
0.0
  0
LINE
  5
4D
  8
05
 10
40.458363
 20
72.798281
 30
0.0
 11
40.458363
 21
89.448278
 31
0.0
  0
ARC
  5
4E
  8
05
 10
41.958363
 20
72.798281
 30
0.0
 40
1.5
 50
180.0
 51
270.000003
  0
LINE
  5
4F
  8
035
 10
45.858365
 20
90.3473
 30
0.0
 11
45.858365
 21
94.416353
 31
0.0
  0
LINE
  5
50
  8
035
 10
41.958365
 20
89.448278
 30
0.0
 11
41.958365
 21
97.998278
 31
0.0
  0
LINE
  5
51
  8
035
 10
44.358365
 20
90.3473
 30
0.0
 11
44.358365
 21
94.416353
 31
0.0
  0
ARC
  5
52
  8
035
 10
45.108365
 20
90.3473
 30
0.0
 40
0.75
 50
180.0
 51
0.0
  0
LINE
  5
53
  8
035
 10
44.48792
 20
95.152592
 30
0.0
 11
43.725421
 21
97.998278
 31
0.0
  0
ARC
  5
54
  8
035
 10
46.308365
 20
94.9973
 30
0.0
 40
0.6
 50
165.0
 51
208.955024
  0
ARC
  5
55
  8
035
 10
44.958365
 20
94.416353
 30
0.0
 40
0.6
 50
151.044976
 51
180.0
  0
ARC
  5
56
  8
035
 10
43.908365
 20
94.9973
 30
0.0
 40
0.6
 50
331.044976
 51
15.0
  0
ARC
  5
57
  8
035
 10
45.258365
 20
94.416353
 30
0.0
 40
0.6
 50
0.0
 51
28.955024
  0
LINE
  5
58
  8
05
 10
39.708365
 20
101.013278
 30
0.0
 11
41.958365
 21
101.013278
 31
0.0
  0
LINE
  5
59
  8
05
 10
38.958365
 20
101.763278
 30
0.0
 11
39.708365
 21
101.013278
 31
0.0
  0
LINE
  5
5A
  8
MITTE
 10
74.958365
 20
90.147524
 30
0.0
 11
74.958365
 21
59.376486
 31
0.0
  0
LINE
  5
5B
  8
05
 10
53.658364
 20
68.598278
 30
0.0
 11
53.658364
 21
63.498278
 31
0.0
  0
LINE
  5
5C
  8
05
 10
55.458364
 20
65.598276
 30
0.0
 11
53.955472
 21
68.850003
 31
0.0
  0
LINE
  5
5D
  8
05
 10
55.458366
 20
70.698278
 30
0.0
 11
55.458366
 21
63.498278
 31
0.0
  0
LINE
  5
5E
  8
05
 10
61.550623
 20
63.498278
 30
0.0
 11
61.758365
 21
71.298281
 31
0.0
  0
LINE
  5
5F
  8
05
 10
53.808366
 20
63.798276
 30
0.0
 11
55.308366
 21
63.798276
 31
0.0
  0
LINE
  5
60
  8
05
 10
55.458366
 20
63.798276
 30
0.0
 11
53.808366
 21
63.798276
 31
0.0
  0
LINE
  5
61
  8
05
 10
55.458364
 20
63.798276
 30
0.0
 11
53.658364
 21
63.798276
 31
0.0
  0
LINE
  5
62
  8
05
 10
53.808363
 20
63.798277
 30
0.0
 11
53.808363
 21
63.498278
 31
0.0
  0
LINE
  5
63
  8
05
 10
55.458364
 20
65.598276
 30
0.0
 11
55.458364
 21
63.798276
 31
0.0
  0
ARC
  5
64
  8
05
 10
51.258367
 20
68.598278
 30
0.0
 40
0.6
 50
90.0
 51
180.0
  0
LINE
  5
65
  8
05
 10
53.41083
 20
69.198278
 30
0.0
 11
51.258367
 21
69.198278
 31
0.0
  0
ARC
  5
66
  8
05
 10
53.41083
 20
68.598278
 30
0.0
 40
0.6
 50
24.805574
 51
90.0
  0
ARC
  5
67
  8
05
 10
53.058364
 20
68.598278
 30
0.0
 40
0.6
 50
0.0
 51
90.0
  0
ARC
  5
68
  8
05
 10
54.858366
 20
70.698278
 30
0.0
 40
0.6
 50
0.0
 51
90.000003
  0
LINE
  5
69
  8
MITTE
 10
62.808365
 20
72.286804
 30
0.0
 11
62.808365
 21
60.969919
 31
0.0
  0
LINE
  5
6A
  8
05
 10
76.216107
 20
63.498278
 30
0.0
 11
76.008365
 21
71.298281
 31
0.0
  0
LINE
  5
6B
  8
05
 10
73.700623
 20
63.498278
 30
0.0
 11
73.908365
 21
71.298281
 31
0.0
  0
LINE
  5
6C
  8
05
 10
64.066107
 20
63.498278
 30
0.0
 11
63.858365
 21
71.298281
 31
0.0
  0
LINE
  5
6D
  8
05
 10
50.658365
 20
97.998278
 30
0.0
 11
50.658365
 21
89.448278
 31
0.0
  0
LINE
  5
6E
  8
05
 10
47.958365
 20
97.998278
 30
0.0
 11
47.958365
 21
89.448278
 31
0.0
  0
LINE
  5
6F
  8
05
 10
50.958365
 20
97.998278
 30
0.0
 11
50.958365
 21
78.993278
 31
0.0
  0
LINE
  5
70
  8
05
 10
57.360465
 20
78.993278
 30
0.0
 11
50.958365
 21
78.993278
 31
0.0
  0
LINE
  5
71
  8
VERDECKT
 10
74.958365
 20
80.898278
 30
0.0
 11
74.958365
 21
78.993278
 31
0.0
  0
LINE
  5
74
  8
05
 10
67.338365
 20
128.898278
 30
0.0
 11
41.958365
 21
128.898278
 31
0.0
  0
LINE
  5
75
  8
05
 10
62.982365
 20
141.498278
 30
0.0
 11
43.758365
 21
141.498278
 31
0.0
  0
LINE
  5
76
  8
05
 10
37.45988
 20
133.398278
 30
0.0
 11
37.45988
 21
118.698278
 31
0.0
  0
LINE
  5
77
  8
05
 10
39.708365
 20
114.303278
 30
0.0
 11
38.958365
 21
113.553278
 31
0.0
  0
LINE
  5
78
  8
MITTE
 10
45.131105
 20
112.398278
 30
0.0
 11
36.861333
 21
112.398278
 31
0.0
  0
LINE
  5
79
  8
MITTE
 10
45.131105
 20
102.918278
 30
0.0
 11
36.861333
 21
102.918278
 31
0.0
  0
LINE
  5
7A
  8
05
 10
41.958365
 20
104.823278
 30
0.0
 11
39.708365
 21
104.823278
 31
0.0
  0
LINE
  5
7B
  8
05
 10
39.708365
 20
104.823278
 30
0.0
 11
38.958365
 21
104.073278
 31
0.0
  0
LINE
  5
7C
  8
05
 10
39.708365
 20
110.493278
 30
0.0
 11
41.958365
 21
110.493278
 31
0.0
  0
LINE
  5
7D
  8
05
 10
38.958365
 20
113.553278
 30
0.0
 11
38.958365
 21
111.243278
 31
0.0
  0
LINE
  5
7E
  8
05
 10
38.958365
 20
111.243278
 30
0.0
 11
39.708365
 21
110.493278
 31
0.0
  0
LINE
  5
7F
  8
05
 10
37.45988
 20
118.698278
 30
0.0
 11
41.958365
 21
118.698278
 31
0.0
  0
LINE
  5
80
  8
05
 10
41.958365
 20
114.303278
 30
0.0
 11
39.708365
 21
114.303278
 31
0.0
  0
LINE
  5
81
  8
05
 10
42.258365
 20
139.998278
 30
0.0
 11
42.258365
 21
133.398278
 31
0.0
  0
ARC
  5
82
  8
05
 10
43.758365
 20
139.998278
 30
0.0
 40
1.5
 50
90.0
 51
180.0
  0
LINE
  5
83
  8
05
 10
58.608365
 20
139.998278
 30
0.0
 11
58.608365
 21
133.398278
 31
0.0
  0
LINE
  5
84
  8
05
 10
60.804365
 20
141.498278
 30
0.0
 11
60.804365
 21
133.398278
 31
0.0
  0
POLYLINE
  5
85
  8
05
 66
     1
 10
0.0
 20
0.0
 30
0.0
  0
VERTEX
  5
A0E
  8
05
 10
59.358365
 20
141.498278
 30
0.0
 42
0.174705
  0
VERTEX
  5
A0F
  8
05
 10
59.104297
 20
141.40671
 30
0.0
 42
0.104203
  0
VERTEX
  5
A10
  8
05
 10
58.828035
 20
141.058938
 30
0.0
 42
0.064948
  0
VERTEX
  5
A11
  8
05
 10
58.670526
 20
140.604924
 30
0.0
 42
0.051099
  0
VERTEX
  5
A12
  8
05
 10
58.608365
 20
139.998278
 30
0.0
 42
0.051099
  0
SEQEND
  5
A13
  8
05
  0
LINE
  5
86
  8
05
 10
70.086365
 20
138.498278
 30
0.0
 11
70.086365
 21
136.098278
 31
0.0
  0
LINE
  5
87
  8
05
 10
78.558365
 20
141.43736
 30
0.0
 11
78.558365
 21
136.098278
 31
0.0
  0
LINE
  5
88
  8
05
 10
71.358365
 20
141.43736
 30
0.0
 11
71.358365
 21
136.098278
 31
0.0
  0
LINE
  5
89
  8
05
 10
66.558365
 20
136.098278
 30
0.0
 11
73.458365
 21
136.098278
 31
0.0
  0
LINE
  5
8A
  8
05
 10
66.558365
 20
136.098278
 30
0.0
 11
66.558365
 21
133.398278
 31
0.0
  0
LINE
  5
8B
  8
05
 10
70.151547
 20
133.398278
 30
0.0
 11
70.458365
 21
136.098278
 31
0.0
  0
LINE
  5
8C
  8
05
 10
73.458365
 20
135.420278
 30
0.0
 11
76.458365
 21
135.420278
 31
0.0
  0
LINE
  5
8D
  8
05
 10
71.808365
 20
136.098278
 30
0.0
 11
71.808365
 21
133.398278
 31
0.0
  0
LINE
  5
8E
  8
05
 10
73.458365
 20
136.098278
 30
0.0
 11
73.458365
 21
133.398278
 31
0.0
  0
LINE
  5
8F
  8
05
 10
78.108365
 20
136.098278
 30
0.0
 11
78.108365
 21
133.398278
 31
0.0
  0
LINE
  5
90
  8
05
 10
76.458365
 20
136.098278
 30
0.0
 11
76.458365
 21
133.398278
 31
0.0
  0
POLYLINE
  5
91
  8
05
 66
     1
 10
0.0
 20
0.0
 30
0.0
  0
VERTEX
  5
A14
  8
05
 10
71.358365
 20
141.43736
 30
0.0
 42
0.07259
  0
VERTEX
  5
A15
  8
05
 10
71.134328
 20
141.310086
 30
0.0
 42
0.10547
  0
VERTEX
  5
A16
  8
05
 10
70.553822
 20
140.619599
 30
0.0
 42
0.068111
  0
VERTEX
  5
A17
  8
05
 10
70.21808
 20
139.708063
 30
0.0
 42
0.054277
  0
VERTEX
  5
A18
  8
05
 10
70.086365
 20
138.498278
 30
0.0
 42
0.054277
  0
SEQEND
  5
A19
  8
05
  0
LINE
  5
92
  8
05
 10
71.358365
 20
141.43736
 30
0.0
 11
78.558365
 21
141.43736
 31
0.0
  0
ARC
  5
93
  8
05
 10
99.114955
 20
63.498278
 30
0.0
 40
10.5
 50
270.000003
 51
352.236449
  0
LINE
  5
94
  8
BEM1
 10
205.231127
 20
60.698807
 30
0.0
 11
205.231127
 21
44.959908
 31
0.0
  0
LINE
  5
95
  8
MITTE
 10
145.831127
 20
54.611039
 30
0.0
 11
145.831127
 21
68.970322
 31
0.0
  0
TEXT
  5
96
  8
BEM1
 62
     3
 10
171.984497
 20
47.331774
 30
0.0
 40
3.5
  1
[0.780"   ]
 41
0.7
 51
15.0
  0
LINE
  5
97
  8
BEM1
 10
149.331127
 20
45.743386
 30
0.0
 11
201.731127
 21
45.743386
 31
0.0
  0
TEXT
  5
98
  8
BEM1
 62
     3
 10
155.361776
 20
47.595592
 30
0.0
 40
3.5
  1
19.80
 41
0.7
 51
15.0
  0
LINE
  5
99
  8
BEM1
 10
145.831127
 20
53.37876
 30
0.0
 11
145.831127
 21
44.959908
 31
0.0
  0
SOLID
  5
9A
  8
BEM1
 10
149.331127
 20
45.160053
 30
0.0
 11
149.331127
 21
46.32672
 31
0.0
 12
145.831127
 22
45.743386
 32
0.0
 13
145.831127
 23
45.743386
 33
0.0
  0
INSERT
  5
9B
  8
BEM1
  2
3
 10
165.068129
 20
49.22199
 30
0.0
  0
TEXT
  5
A1
  8
SCHRAFFIERT
 10
184.638074
 20
48.22199
 30
0.0
 40
2.5
  1
%%P0.004
 41
0.7
 51
15.0
  0
SOLID
  5
A2
  8
BEM1
 10
201.731127
 20
45.160053
 30
0.0
 11
201.731127
 21
46.32672
 31
0.0
 12
205.231127
 22
45.743386
 32
0.0
 13
205.231127
 23
45.743386
 33
0.0
  0
LINE
  5
A3
  8
MITTE
 10
138.525712
 20
58.739289
 30
0.0
 11
153.39117
 21
58.739289
 31
0.0
  0
CIRCLE
  5
A4
  8
05
 10
145.831127
 20
61.933775
 30
0.0
 40
4.8
  0
LINE
  5
A5
  8
MITTE
 10
141.411632
 20
91.633775
 30
0.0
 11
209.650621
 21
91.633775
 31
0.0
  0
CIRCLE
  5
A6
  8
05
 10
175.531127
 20
91.633775
 30
0.0
 40
33.0
  0
LINE
  5
A7
  8
05
 10
107.958365
 20
118.698278
 30
0.0
 11
107.958365
 21
97.203278
 31
0.0
  0
LINE
  5
A8
  8
05
 10
101.689947
 20
97.998278
 30
0.0
 11
101.689947
 21
118.698278
 31
0.0
  0
LINE
  5
A9
  8
05
 10
83.958365
 20
128.898278
 30
0.0
 11
83.958365
 21
74.898278
 31
0.0
  0
LINE
  5
AA
  8
05
 10
91.2915
 20
118.698278
 30
0.0
 11
91.2915
 21
74.898278
 31
0.0
  0
LINE
  5
AB
  8
05
 10
92.556264
 20
118.698278
 30
0.0
 11
92.556264
 21
74.898278
 31
0.0
  0
ARC
  5
AC
  8
05
 10
111.418446
 20
63.818553
 30
0.0
 40
1.639918
 50
234.355889
 51
127.387482
  0
ARC
  5
AD
  8
05
 10
111.418446
 20
63.818553
 30
0.0
 40
0.739918
 50
234.355889
 51
127.387482
  0
LINE
  5
AE
  8
MITTE
 10
105.116371
 20
99.108278
 30
0.0
 11
112.36083
 21
99.108278
 31
0.0
  0
LINE
  5
AF
  8
05
 10
109.458364
 20
65.596775
 30
0.0
 11
109.458364
 21
89.448278
 31
0.0
  0
LINE
  5
B0
  8
05
 10
101.287157
 20
69.198278
 30
0.0
 11
94.458364
 21
69.198278
 31
0.0
  0
LINE
  5
B1
  8
05
 10
94.608364
 20
63.798276
 30
0.0
 11
96.108364
 21
63.798276
 31
0.0
  0
LINE
  5
B2
  8
05
 10
96.108364
 20
63.798276
 30
0.0
 11
94.458364
 21
63.798276
 31
0.0
  0
LINE
  5
B3
  8
05
 10
94.458364
 20
63.798276
 30
0.0
 11
96.258364
 21
63.798276
 31
0.0
  0
LINE
  5
B4
  8
05
 10
94.458364
 20
65.598276
 30
0.0
 11
95.961257
 21
68.850003
 31
0.0
  0
LINE
  5
B5
  8
05
 10
94.458364
 20
70.698278
 30
0.0
 11
94.458364
 21
63.498278
 31
0.0
  0
LINE
  5
B6
  8
MITTE
 10
87.108365
 20
72.286804
 30
0.0
 11
87.108365
 21
60.969919
 31
0.0
  0
LINE
  5
B7
  8
05
 10
88.366107
 20
63.498278
 30
0.0
 11
88.158365
 21
71.298281
 31
0.0
  0
LINE
  5
B8
  8
05
 10
85.850623
 20
63.498278
 30
0.0
 11
86.058365
 21
71.298281
 31
0.0
  0
LINE
  5
B9
  8
05
 10
94.458364
 20
65.598276
 30
0.0
 11
94.458364
 21
63.798276
 31
0.0
  0
ARC
  5
BA
  8
05
 10
95.058364
 20
70.698278
 30
0.0
 40
0.6
 50
89.999997
 51
180.000001
  0
LINE
  5
BB
  8
05
 10
96.258364
 20
68.598278
 30
0.0
 11
96.258364
 21
63.498278
 31
0.0
  0
LINE
  5
BC
  8
05
 10
99.258361
 20
68.598278
 30
0.0
 11
99.258361
 21
63.498278
 31
0.0
  0
LINE
  5
BD
  8
05
 10
106.458363
 20
64.098274
 30
0.0
 11
99.157839
 21
71.298278
 31
0.0
  0
LINE
  5
BE
  8
05
 10
96.108361
 20
63.798277
 30
0.0
 11
96.108361
 21
63.498278
 31
0.0
  0
LINE
  5
BF
  8
05
 10
106.458363
 20
64.098274
 30
0.0
 11
110.058363
 21
64.098274
 31
0.0
  0
ARC
  5
C0
  8
05
 10
110.058363
 20
65.598274
 30
0.0
 40
0.6
 50
180.0
 51
307.387482
  0
ARC
  5
C1
  8
05
 10
110.058363
 20
65.598274
 30
0.0
 40
1.5
 50
270.0
 51
307.387482
  0
ARC
  5
C2
  8
05
 10
110.113136
 20
61.998278
 30
0.0
 40
1.5
 50
54.355889
 51
90.0
  0
ARC
  5
C3
  8
05
 10
110.113136
 20
61.998278
 30
0.0
 40
0.6
 50
54.355889
 51
172.284022
  0
ARC
  5
C4
  8
05
 10
98.658361
 20
68.598278
 30
0.0
 40
0.6
 50
360.0
 51
90.0
  0
ARC
  5
C5
  8
05
 10
96.505899
 20
68.598278
 30
0.0
 40
0.6
 50
90.0
 51
155.194426
  0
ARC
  5
C6
  8
05
 10
96.858364
 20
68.598278
 30
0.0
 40
0.6
 50
90.0
 51
180.0
  0
LINE
  5
C7
  8
05
 10
96.505899
 20
69.198278
 30
0.0
 11
98.658361
 21
69.198278
 31
0.0
  0
LINE
  5
C8
  8
05
 10
92.556264
 20
97.998278
 30
0.0
 11
107.958365
 21
97.998278
 31
0.0
  0
LINE
  5
C9
  8
05
 10
92.556264
 20
78.993278
 30
0.0
 11
98.958365
 21
78.993278
 31
0.0
  0
LINE
  5
CA
  8
035
 10
104.058365
 20
89.448278
 30
0.0
 11
104.058365
 21
93.510214
 31
0.0
  0
LINE
  5
CB
  8
035
 10
105.558365
 20
89.448278
 30
0.0
 11
105.558365
 21
93.510214
 31
0.0
  0
LINE
  5
CC
  8
05
 10
99.258365
 20
97.998278
 30
0.0
 11
99.258365
 21
89.448278
 31
0.0
  0
LINE
  5
CD
  8
05
 10
101.958365
 20
97.998278
 30
0.0
 11
101.958365
 21
89.448278
 31
0.0
  0
LINE
  5
CE
  8
035
 10
107.958365
 20
89.448278
 30
0.0
 11
107.958365
 21
97.091162
 31
0.0
  0
LINE
  5
CF
  8
05
 10
98.958365
 20
97.998278
 30
0.0
 11
98.958365
 21
78.993278
 31
0.0
  0
LINE
  5
D0
  8
05
 10
98.958365
 20
89.448278
 30
0.0
 11
109.458364
 21
89.448278
 31
0.0
  0
ARC
  5
D1
  8
035
 10
102.804517
 20
97.091162
 30
0.0
 40
0.6
 50
15.0
 51
90.0
  0
LINE
  5
D2
  8
035
 10
102.804517
 20
97.691162
 30
0.0
 11
101.958365
 21
97.691162
 31
0.0
  0
LINE
  5
D3
  8
035
 10
104.18792
 20
94.246453
 30
0.0
 11
103.384073
 21
97.246453
 31
0.0
  0
LINE
  5
D4
  8
035
 10
105.428809
 20
94.246453
 30
0.0
 11
106.232657
 21
97.246453
 31
0.0
  0
ARC
  5
D5
  8
035
 10
103.608365
 20
94.091162
 30
0.0
 40
0.6
 50
331.044976
 51
15.0
  0
ARC
  5
D6
  8
035
 10
106.008365
 20
94.091162
 30
0.0
 40
0.6
 50
165.0
 51
208.955024
  0
ARC
  5
D7
  8
035
 10
104.658365
 20
93.510214
 30
0.0
 40
0.6
 50
151.044976
 51
180.0
  0
ARC
  5
D8
  8
035
 10
104.958365
 20
93.510214
 30
0.0
 40
0.6
 50
0.0
 51
28.955024
  0
ARC
  5
D9
  8
035
 10
107.358365
 20
97.091162
 30
0.0
 40
0.6
 50
0.0
 51
90.0
  0
ARC
  5
DA
  8
035
 10
106.812212
 20
97.091162
 30
0.0
 40
0.6
 50
90.0
 51
165.0
  0
LINE
  5
DB
  8
035
 10
106.812212
 20
97.691162
 30
0.0
 11
107.358365
 21
97.691162
 31
0.0
  0
LINE
  5
DC
  8
05
 10
107.958365
 20
101.013278
 30
0.0
 11
110.208365
 21
101.013278
 31
0.0
  0
LINE
  5
DD
  8
05
 10
110.208365
 20
101.013278
 30
0.0
 11
110.958365
 21
100.263278
 31
0.0
  0
LINE
  5
DE
  8
05
 10
110.208365
 20
97.203278
 30
0.0
 11
107.958365
 21
97.203278
 31
0.0
  0
LINE
  5
DF
  8
05
 10
110.958365
 20
97.953278
 30
0.0
 11
110.208365
 21
97.203278
 31
0.0
  0
LINE
  5
E0
  8
05
 10
110.958365
 20
100.263278
 30
0.0
 11
110.958365
 21
97.953278
 31
0.0
  0
LINE
  5
E1
  8
05
 10
89.071676
 20
118.698278
 30
0.0
 11
113.50685
 21
118.698278
 31
0.0
  0
LINE
  5
E2
  8
MITTE
 10
105.116371
 20
108.607235
 30
0.0
 11
112.36083
 21
108.607235
 31
0.0
  0
LINE
  5
E3
  8
05
 10
110.958365
 20
109.743278
 30
0.0
 11
110.958365
 21
107.433278
 31
0.0
  0
LINE
  5
E4
  8
05
 10
110.208365
 20
106.683278
 30
0.0
 11
107.958365
 21
106.683278
 31
0.0
  0
LINE
  5
E5
  8
05
 10
110.958365
 20
107.433278
 30
0.0
 11
110.208365
 21
106.683278
 31
0.0
  0
LINE
  5
E6
  8
05
 10
107.958365
 20
110.493278
 30
0.0
 11
110.208365
 21
110.493278
 31
0.0
  0
LINE
  5
E7
  8
05
 10
110.208365
 20
110.493278
 30
0.0
 11
110.958365
 21
109.743278
 31
0.0
  0
LINE
  5
E8
  8
05
 10
101.051035
 20
128.898278
 30
0.0
 11
82.578365
 21
128.898278
 31
0.0
  0
LINE
  5
E9
  8
05
 10
106.158365
 20
141.498278
 30
0.0
 11
86.934365
 21
141.498278
 31
0.0
  0
LINE
  5
EA
  8
05
 10
91.308365
 20
139.998278
 30
0.0
 11
91.308365
 21
133.398278
 31
0.0
  0
LINE
  5
EB
  8
05
 10
79.830365
 20
138.498278
 30
0.0
 11
79.830365
 21
136.098278
 31
0.0
  0
LINE
  5
EC
  8
05
 10
89.112365
 20
141.498278
 30
0.0
 11
89.112365
 21
133.398278
 31
0.0
  0
LINE
  5
ED
  8
05
 10
79.458365
 20
136.098278
 30
0.0
 11
79.765183
 21
133.398278
 31
0.0
  0
LINE
  5
EE
  8
05
 10
83.358365
 20
136.098278
 30
0.0
 11
83.358365
 21
133.398278
 31
0.0
  0
POLYLINE
  5
EF
  8
05
 66
     1
 10
0.0
 20
0.0
 30
0.0
  0
VERTEX
  5
A1A
  8
05
 10
90.558365
 20
141.498278
 30
0.0
 42
-0.174705
  0
VERTEX
  5
A1B
  8
05
 10
90.812433
 20
141.40671
 30
0.0
 42
-0.104203
  0
VERTEX
  5
A1C
  8
05
 10
91.088695
 20
141.058938
 30
0.0
 42
-0.064948
  0
VERTEX
  5
A1D
  8
05
 10
91.246204
 20
140.604924
 30
0.0
 42
-0.051099
  0
VERTEX
  5
A1E
  8
05
 10
91.308365
 20
139.998278
 30
0.0
 42
-0.051099
  0
SEQEND
  5
A1F
  8
05
  0
LINE
  5
F0
  8
05
 10
107.658365
 20
139.998278
 30
0.0
 11
107.658365
 21
133.398278
 31
0.0
  0
LINE
  5
F1
  8
05
 10
107.658365
 20
133.398278
 30
0.0
 11
107.958365
 21
133.398278
 31
0.0
  0
ARC
  5
F2
  8
05
 10
106.158365
 20
139.998278
 30
0.0
 40
1.5
 50
360.0
 51
90.0
  0
LINE
  5
F3
  8
05
 10
113.50685
 20
133.398278
 30
0.0
 11
113.50685
 21
118.698278
 31
0.0
  0
LINE
  5
F4
  8
BEM1
 10
205.231127
 20
112.77876
 30
0.0
 11
205.231127
 21
63.048136
 31
0.0
  0
LINE
  5
F5
  8
MITTE
 10
175.531127
 20
125.613408
 30
0.0
 11
175.531127
 21
57.654141
 31
0.0
  0
LINE
  5
F6
  8
BEM1
 10
200.475886
 20
107.382075
 30
0.0
 11
171.381414
 21
89.013949
 31
0.0
  0
LINE
  5
F7
  8
BEM1
 10
150.586367
 20
75.885474
 30
0.0
 11
158.454436
 21
80.852799
 31
0.0
  0
SOLID
  5
F8
  8
BEM1
 10
150.897774
 20
75.392216
 30
0.0
 11
150.27496
 21
76.378732
 31
0.0
 12
147.626819
 22
74.017032
 32
0.0
 13
147.626819
 23
74.017032
 33
0.0
  0
TEXT
  5
F9
  8
BEM1
 62
     3
 10
158.912583
 20
83.183374
 30
0.0
 40
3.5
  1
%%c22.00
 41
0.7
 51
15.0
  0
LINE
  5
FA
  8
BEM1
 62
     3
 10
155.332666
 20
86.177817
 30
0.0
 11
158.106782
 21
84.61031
 31
0.0
  0
LINE
  5
FB
  8
BEM1
 62
     3
 10
158.106782
 20
84.61031
 30
0.0
 11
154.977011
 21
84.61031
 31
0.0
  0
LINE
  5
FC
  8
BEM1
 62
     3
 10
158.106782
 20
84.145186
 30
0.0
 11
154.977011
 21
84.145186
 31
0.0
  0
TEXT
  5
FD
  8
BEM1
 62
     3
 10
167.771319
 20
133.391321
 30
0.0
 40
3.5
  1
%%c3.20 [0.126"]
 50
359.936673
 41
0.7
 51
15.0
 72
     1
 11
180.839912
 21
135.126878
 31
0.0
 73
     2
  0
LINE
  5
FE
  8
BEM1
 10
194.35953
 20
131.611933
 30
0.0
 11
163.431869
 21
131.611933
 31
0.0
  0
TEXT
  5
FF
  8
035
 10
155.670312
 20
144.078213
 30
0.0
 40
3.0
  1
Panel cut out (rear side)
  7
ARIAL
  0
LINE
  5
100
  8
BEM1
 62
     3
 10
164.329397
 20
136.571577
 30
0.0
 11
167.103512
 21
135.00407
 31
0.0
  0
LINE
  5
101
  8
BEM1
 62
     3
 10
167.103512
 20
134.538946
 30
0.0
 11
163.973741
 21
134.538946
 31
0.0
  0
LINE
  5
102
  8
BEM1
 62
     3
 10
167.103512
 20
135.00407
 30
0.0
 11
163.973741
 21
135.00407
 31
0.0
  0
LINE
  5
103
  8
MITTE
 10
205.231127
 20
113.57876
 30
0.0
 11
205.231127
 21
127.938043
 31
0.0
  0
SOLID
  5
104
  8
BEM1
 10
198.97794
 20
126.822666
 30
0.0
 11
199.807149
 21
127.643351
 31
0.0
 12
201.854597
 22
124.74538
 32
0.0
 13
201.854597
 23
124.74538
 33
0.0
  0
SOLID
  5
105
  8
BEM1
 10
200.787293
 20
106.888817
 30
0.0
 11
200.164479
 21
107.875333
 31
0.0
 12
203.435434
 22
109.250517
 32
0.0
 13
203.435434
 23
109.250517
 33
0.0
  0
LINE
  5
106
  8
BEM1
 10
203.731127
 20
121.333775
 30
0.0
 11
206.731127
 21
121.333775
 31
0.0
  0
LINE
  5
107
  8
BEM1
 10
205.231127
 20
119.833775
 30
0.0
 11
205.231127
 21
122.833775
 31
0.0
  0
LINE
  5
108
  8
BEM1
 10
199.392544
 20
127.233008
 30
0.0
 11
194.35953
 21
131.611933
 31
0.0
  0
LINE
  5
109
  8
MITTE
 10
36.800572
 20
213.435893
 30
0.0
 11
116.972377
 21
213.435893
 31
0.0
  0
LINE
  5
10A
  8
05
 10
75.708365
 20
181.937408
 30
0.0
 11
83.808365
 21
181.937408
 31
0.0
  0
LINE
  5
10B
  8
05
 10
75.708365
 20
175.937408
 30
0.0
 11
86.358365
 21
175.937408
 31
0.0
  0
LINE
  5
10C
  8
05
 10
61.458365
 20
172.937408
 30
0.0
 11
88.458365
 21
172.937408
 31
0.0
  0
LINE
  5
10D
  8
05
 10
62.958365
 20
181.937408
 30
0.0
 11
86.958365
 21
181.937408
 31
0.0
  0
LINE
  5
10E
  8
05
 10
62.958365
 20
175.937408
 30
0.0
 11
86.958365
 21
175.937408
 31
0.0
  0
LINE
  5
10F
  8
05
 10
44.058365
 20
226.335893
 30
0.0
 11
105.858365
 21
226.335893
 31
0.0
  0
LINE
  5
110
  8
05
 10
53.058368
 20
191.760893
 30
0.0
 11
107.214956
 21
191.760893
 31
0.0
  0
LINE
  5
111
  8
05
 10
53.058368
 20
223.260893
 30
0.0
 11
107.214956
 21
223.260893
 31
0.0
  0
LINE
  5
112
  8
05
 10
65.958365
 20
177.437408
 30
0.0
 11
83.958365
 21
177.437408
 31
0.0
  0
TEXT
  5
113
  8
BEM1
 62
     3
 10
67.528377
 20
271.769428
 30
0.0
 40
3.5
  1
11.00   [0.433"   ]
 41
0.7
 51
15.0
 72
     1
 11
86.107544
 21
273.519428
 31
0.0
 73
     2
  0
LINE
  5
114
  8
BEM1
 10
74.958365
 20
270.019428
 30
0.0
 11
107.958365
 21
270.019428
 31
0.0
  0
ARC
  5
115
  8
05
 10
74.958365
 20
213.435893
 30
0.0
 40
33.0
 50
67.5
 51
86.090436
  0
LINE
  5
116
  8
05
 10
66.108365
 20
181.937408
 30
0.0
 11
83.808365
 21
181.937408
 31
0.0
  0
ARC
  5
117
  8
KONTAKT
 10
79.556459
 20
228.447779
 30
0.0
 40
1.598095
 50
93.51914
 51
266.48086
  0
ARC
  5
119
  8
KONTAKT
 10
79.556459
 20
228.137196
 30
0.0
 40
1.598095
 50
93.51914
 51
174.423606
  0
ARC
  5
11A
  8
05
 10
79.608365
 20
228.135893
 30
0.0
 40
1.5
 50
90.0
 51
201.864743
  0
LINE
  5
11B
  8
035
 10
79.458365
 20
233.492674
 30
0.0
 11
76.763524
 21
233.492674
 31
0.0
  0
LINE
  5
11C
  8
035
 10
77.958365
 20
242.871997
 30
0.0
 11
79.458365
 21
241.572959
 31
0.0
  0
LINE
  5
11D
  8
035
 10
77.958365
 20
243.471997
 30
0.0
 11
79.458365
 21
242.172959
 31
0.0
  0
ARC
  5
11E
  8
035
 10
74.958365
 20
213.320877
 30
0.0
 40
30.3
 50
68.075326
 51
111.924674
  0
ARC
  5
11F
  8
035
 10
74.958365
 20
213.320877
 30
0.0
 40
32.7
 50
67.577123
 51
112.422877
  0
ARC
  5
120
  8
035
 10
74.958365
 20
232.820877
 30
0.0
 40
30.0
 50
68.297234
 51
90.0
  0
LINE
  5
121
  8
05
 10
63.558365
 20
175.937408
 30
0.0
 11
86.358365
 21
175.937408
 31
0.0
  0
INSERT
  5
122
  8
BEM1
  2
3
 10
75.581623
 20
273.258513
 30
0.0
  0
LINE
  5
123
  8
BEM1
 10
40.95988
 20
161.153609
 30
0.0
 11
108.95685
 21
161.153609
 31
0.0
  0
TEXT
  5
124
  8
BEM1
 62
     3
 10
63.201045
 20
162.903609
 30
0.0
 40
3.5
  1
25.00 [0.984"]
 41
0.7
 51
15.0
  0
ARC
  5
125
  8
05
 10
74.958365
 20
213.435893
 30
0.0
 40
36.0
 50
62.471161
 51
117.528839
  0
ARC
  5
126
  8
05
 10
74.958365
 20
213.435893
 30
0.0
 40
37.498485
 50
71.323952
 51
90.0
  0
ARC
  5
127
  8
05
 10
65.958365
 20
240.829442
 30
0.0
 40
0.6
 50
0.0
 51
90.0
  0
ARC
  5
128
  8
05
 10
59.610465
 20
242.649622
 30
0.0
 40
2.25
 50
130.07829
 51
286.92171
  0
LINE
  5
129
  8
05
 10
52.316777
 20
240.254956
 30
0.0
 11
52.321229
 21
241.426087
 31
0.0
  0
LINE
  5
12A
  8
MITTE
 10
74.958365
 20
251.924718
 30
0.0
 11
74.958365
 21
214.185893
 31
0.0
  0
LINE
  5
12B
  8
KONTAKT
 10
70.458365
 20
242.172959
 30
0.0
 11
70.458365
 21
229.732278
 31
0.0
  0
LINE
  5
12C
  8
025
 10
73.616605
 20
242.463484
 30
0.0
 11
73.616605
 21
236.638565
 31
0.0
  0
LINE
  5
12E
  8
025
 10
76.300125
 20
242.463484
 30
0.0
 11
76.300125
 21
236.638565
 31
0.0
  0
ARC
  5
12F
  8
05
 10
74.958365
 20
213.435893
 30
0.0
 40
33.0
 50
121.623196
 51
150.294918
  0
ARC
  5
130
  8
05
 10
74.958365
 20
213.435893
 30
0.0
 40
35.998485
 50
128.964282
 51
151.035718
  0
ARC
  5
131
  8
05
 10
74.958365
 20
213.435893
 30
0.0
 40
37.498485
 50
90.0
 51
151.412194
  0
LINE
  5
132
  8
05
 10
52.321229
 20
241.426087
 30
0.0
 11
54.665535
 21
239.45898
 31
0.0
  0
LINE
  5
133
  8
05
 10
50.658368
 20
220.860893
 30
0.0
 11
50.658368
 21
194.160893
 31
0.0
  0
ARC
  5
134
  8
05
 10
74.958365
 20
213.435893
 30
0.0
 40
33.0
 50
210.088904
 51
225.911095
  0
ARC
  5
135
  8
05
 10
74.958364
 20
213.435893
 30
0.0
 40
31.5
 50
211.162859
 51
220.232796
  0
ARC
  5
136
  8
05
 10
74.958365
 20
213.435893
 30
0.0
 40
36.0
 50
196.738911
 51
244.771488
  0
LINE
  5
137
  8
05
 10
41.958365
 20
197.085893
 30
0.0
 11
41.958365
 21
194.085893
 31
0.0
  0
LINE
  5
138
  8
05
 10
38.958365
 20
197.085893
 30
0.0
 11
38.958365
 21
194.835893
 31
0.0
  0
LINE
  5
139
  8
05
 10
39.708365
 20
197.085893
 30
0.0
 11
39.708365
 21
194.085893
 31
0.0
  0
LINE
  5
13A
  8
MITTE
 10
74.958365
 20
212.685893
 30
0.0
 11
74.958365
 21
173.598808
 31
0.0
  0
LINE
  5
13B
  8
05
 10
45.25988
 20
175.937408
 30
0.0
 11
59.958365
 21
175.937408
 31
0.0
  0
ARC
  5
13C
  8
05
 10
45.25988
 20
183.737408
 30
0.0
 40
3.3
 50
46.186939
 51
313.813092
  0
LINE
  5
13D
  8
MITTE
 10
39.25988
 20
183.737408
 30
0.0
 11
51.25988
 21
183.737408
 31
0.0
  0
LINE
  5
13E
  8
BEM1
 10
37.45988
 20
182.937408
 30
0.0
 11
37.45988
 21
160.009232
 31
0.0
  0
SOLID
  5
13F
  8
BEM1
 10
40.95988
 20
160.570276
 30
0.0
 11
40.95988
 21
161.736943
 31
0.0
 12
37.45988
 22
161.153609
 32
0.0
 13
37.45988
 23
161.153609
 33
0.0
  0
LINE
  5
140
  8
MITTE
 10
45.25988
 20
189.737408
 30
0.0
 11
45.25988
 21
177.737408
 31
0.0
  0
ARC
  5
141
  8
05
 10
45.25988
 20
183.737408
 30
0.0
 40
7.8
 50
103.4719
 51
270.0
  0
ARC
  5
142
  8
05
 10
23.958365
 20
198.293693
 30
0.0
 40
18.0
 50
325.653444
 51
346.481064
  0
LINE
  5
143
  8
05
 10
44.60087
 20
194.085893
 30
0.0
 11
39.708365
 21
194.085893
 31
0.0
  0
LINE
  5
144
  8
05
 10
39.708365
 20
194.085893
 30
0.0
 11
38.958365
 21
194.835893
 31
0.0
  0
ARC
  5
145
  8
05
 10
42.743821
 20
194.240238
 30
0.0
 40
3.0
 50
283.4719
 51
332.794866
  0
LINE
  5
146
  8
05
 10
65.778365
 20
172.037408
 30
0.0
 11
65.178365
 21
171.437408
 31
0.0
  0
LINE
  5
147
  8
05
 10
61.878365
 20
171.437408
 30
0.0
 11
61.278365
 21
172.037408
 31
0.0
  0
LINE
  5
148
  8
MITTE
 10
63.528365
 20
178.842708
 30
0.0
 11
63.528365
 21
168.819983
 31
0.0
  0
LINE
  5
149
  8
05
 10
65.178365
 20
171.437408
 30
0.0
 11
61.878365
 21
171.437408
 31
0.0
  0
LINE
  5
14A
  8
05
 10
65.778365
 20
172.037408
 30
0.0
 11
61.278365
 21
172.037408
 31
0.0
  0
LINE
  5
14B
  8
05
 10
51.486754
 20
185.795426
 30
0.0
 11
51.486754
 21
183.139438
 31
0.0
  0
LINE
  5
14C
  8
KONTAKT
 10
50.05988
 20
183.604122
 30
0.0
 11
50.05988
 21
183.137408
 31
0.0
  0
ARC
  5
14D
  8
KONTAKT
 10
51.319396
 20
190.037408
 30
0.0
 40
6.9
 50
270.0
 51
296.672817
  0
LINE
  5
14E
  8
KONTAKT
 10
48.55988
 20
185.837408
 30
0.0
 11
48.55988
 21
178.637408
 31
0.0
  0
LINE
  5
14F
  8
KONTAKT
 10
57.071352
 20
178.637408
 30
0.0
 11
48.55988
 21
178.637408
 31
0.0
  0
LINE
  5
150
  8
05
 10
51.486754
 20
178.637408
 30
0.0
 11
51.486754
 21
175.937408
 31
0.0
  0
LINE
  5
151
  8
05
 10
47.05988
 20
175.937408
 30
0.0
 11
47.05988
 21
180.971544
 31
0.0
  0
LINE
  5
152
  8
05
 10
50.05988
 20
178.637408
 30
0.0
 11
50.05988
 21
175.937408
 31
0.0
  0
LINE
  5
153
  8
05
 10
48.55988
 20
180.923158
 30
0.0
 11
48.55988
 21
175.937408
 31
0.0
  0
LINE
  5
154
  8
KONTAKT
 10
51.319396
 20
183.137408
 30
0.0
 11
48.55988
 21
183.137408
 31
0.0
  0
LINE
  5
155
  8
05
 10
48.55988
 20
178.637408
 30
0.0
 11
50.05988
 21
178.637408
 31
0.0
  0
ARC
  5
156
  8
05
 10
47.95988
 20
180.923158
 30
0.0
 40
0.6
 50
0.0
 51
133.813061
  0
LINE
  5
157
  8
05
 10
59.958365
 20
174.437408
 30
0.0
 11
59.958365
 21
180.326981
 31
0.0
  0
LINE
  5
158
  8
05
 10
59.433365
 20
180.750893
 30
0.0
 11
59.433365
 21
177.437408
 31
0.0
  0
LINE
  5
159
  8
05
 10
56.05988
 20
178.637408
 30
0.0
 11
56.05988
 21
175.937408
 31
0.0
  0
ARC
  5
15A
  8
05
 10
61.458365
 20
174.437408
 30
0.0
 40
1.5
 50
180.0
 51
270.0
  0
LINE
  5
15B
  8
05
 10
61.278365
 20
172.948247
 30
0.0
 11
61.278365
 21
172.037408
 31
0.0
  0
LINE
  5
15C
  8
05
 10
59.433365
 20
177.437408
 30
0.0
 11
59.958365
 21
177.437408
 31
0.0
  0
LINE
  5
15D
  8
KONTAKT
 10
57.495616
 20
178.813144
 30
0.0
 11
59.544144
 21
180.861672
 31
0.0
  0
ARC
  5
15E
  8
KONTAKT
 10
57.071352
 20
179.237408
 30
0.0
 40
0.6
 50
270.0
 51
315.0
  0
ARC
  5
15F
  8
025
 62
     7
 10
59.358365
 20
180.326981
 30
0.0
 40
0.6
 50
0.0
 51
64.771488
  0
ARC
  5
160
  8
KONTAKT
 10
59.968408
 20
180.437408
 30
0.0
 40
0.6
 50
131.181183
 51
135.0
  0
LINE
  5
161
  8
05
 10
54.59306
 20
191.760893
 30
0.0
 11
51.997832
 21
189.733278
 31
0.0
  0
LINE
  5
162
  8
05
 10
47.05988
 20
190.337408
 30
0.0
 11
48.55988
 21
188.837408
 31
0.0
  0
LINE
  5
163
  8
05
 10
47.05988
 20
186.503271
 30
0.0
 11
47.05988
 21
190.337408
 31
0.0
  0
LINE
  5
164
  8
KONTAKT
 10
49.973145
 20
186.350588
 30
0.0
 11
51.096193
 21
185.356222
 31
0.0
  0
ARC
  5
165
  8
KONTAKT
 10
51.55988
 20
183.615267
 30
0.0
 40
1.5
 50
138.477764
 51
180.0
  0
LINE
  5
166
  8
KONTAKT
 10
50.537237
 20
186.985779
 30
0.0
 11
49.313785
 21
185.603999
 31
0.0
  0
LINE
  5
167
  8
05
 10
48.673111
 20
188.837408
 30
0.0
 11
48.55988
 21
188.837408
 31
0.0
  0
LINE
  5
168
  8
05
 10
48.55988
 20
188.837408
 30
0.0
 11
48.673111
 21
188.837408
 31
0.0
  0
ARC
  5
169
  8
05
 10
47.95988
 20
186.551657
 30
0.0
 40
0.6
 50
226.186939
 51
0.0
  0
ARC
  5
16A
  8
KONTAKT
 10
51.55988
 20
183.615267
 30
0.0
 40
3.0
 50
138.477764
 51
180.0
  0
LINE
  5
16B
  8
KONTAKT
 10
48.55988
 20
185.837408
 30
0.0
 11
48.55988
 21
188.837408
 31
0.0
  0
LINE
  5
16C
  8
05
 10
48.55988
 20
186.551657
 30
0.0
 11
48.55988
 21
188.837408
 31
0.0
  0
LINE
  5
16D
  8
KONTAKT
 10
50.05988
 20
183.615267
 30
0.0
 11
50.05988
 21
183.604122
 31
0.0
  0
LINE
  5
16E
  8
KONTAKT
 10
50.05988
 20
186.446647
 30
0.0
 11
50.05988
 21
187.434634
 31
0.0
  0
LINE
  5
16F
  8
KONTAKT
 10
51.660285
 20
185.991413
 30
0.0
 11
50.436832
 21
184.609633
 31
0.0
  0
LINE
  5
170
  8
05
 10
47.05988
 20
190.337408
 30
0.0
 11
47.345687
 21
190.337408
 31
0.0
  0
LINE
  5
171
  8
05
 10
52.293822
 20
189.96453
 30
0.0
 11
51.431187
 21
190.295628
 31
0.0
  0
LINE
  5
172
  8
05
 10
52.621279
 20
191.225431
 30
0.0
 11
51.431186
 21
190.295628
 31
0.0
  0
ARC
  5
173
  8
05
 10
74.958364
 20
213.435893
 30
0.0
 40
31.5
 50
222.471614
 51
224.837141
  0
ARC
  5
174
  8
05
 10
53.058368
 20
194.160893
 30
0.0
 40
2.4
 50
180.0
 51
270.0
  0
TEXT
  5
175
  8
035
 10
61.082848
 20
185.777456
 30
0.0
 40
4.5
  1
1
  7
HELV
  0
LINE
  5
177
  8
05
 10
66.108365
 20
181.937408
 30
0.0
 11
74.208365
 21
181.937408
 31
0.0
  0
LINE
  5
178
  8
05
 10
63.528365
 20
175.937408
 30
0.0
 11
74.208365
 21
175.937408
 31
0.0
  0
LINE
  5
179
  8
05
 10
62.958365
 20
175.937408
 30
0.0
 11
62.958365
 21
181.937408
 31
0.0
  0
LINE
  5
17A
  8
05
 10
66.108365
 20
181.937408
 30
0.0
 11
66.108365
 21
175.937408
 31
0.0
  0
LINE
  5
17B
  8
05
 10
64.908365
 20
177.437408
 30
0.0
 11
64.908365
 21
181.937408
 31
0.0
  0
LINE
  5
17C
  8
05
 10
64.908365
 20
177.437408
 30
0.0
 11
64.908365
 21
181.037408
 31
0.0
  0
LINE
  5
17D
  8
05
 10
64.908365
 20
177.437408
 30
0.0
 11
66.108365
 21
177.437408
 31
0.0
  0
LINE
  5
17E
  8
05
 10
65.958365
 20
175.937408
 30
0.0
 11
65.958365
 21
177.437408
 31
0.0
  0
LINE
  5
17F
  8
05
 10
65.778365
 20
172.937408
 30
0.0
 11
65.778365
 21
172.037408
 31
0.0
  0
LINE
  5
180
  8
05
 10
78.258365
 20
181.937408
 30
0.0
 11
78.258365
 21
177.437408
 31
0.0
  0
LINE
  5
181
  8
05
 10
71.658365
 20
181.937408
 30
0.0
 11
71.658365
 21
177.437408
 31
0.0
  0
LINE
  5
182
  8
05
 10
75.708365
 20
181.937408
 30
0.0
 11
75.708365
 21
175.937408
 31
0.0
  0
LINE
  5
183
  8
05
 10
74.208365
 20
181.937408
 30
0.0
 11
74.208365
 21
175.937408
 31
0.0
  0
LINE
  5
184
  8
05
 10
72.858365
 20
177.437408
 30
0.0
 11
72.858365
 21
181.937408
 31
0.0
  0
LINE
  5
185
  8
05
 10
77.058365
 20
177.437408
 30
0.0
 11
77.058365
 21
181.937408
 31
0.0
  0
LINE
  5
186
  8
05
 10
75.708365
 20
181.937408
 30
0.0
 11
75.708365
 21
175.937408
 31
0.0
  0
LINE
  5
187
  8
05
 10
74.208365
 20
181.937408
 30
0.0
 11
74.208365
 21
175.937408
 31
0.0
  0
LINE
  5
188
  8
05
 10
72.858365
 20
177.437408
 30
0.0
 11
72.858365
 21
181.937408
 31
0.0
  0
LINE
  5
189
  8
05
 10
77.058365
 20
177.437408
 30
0.0
 11
77.058365
 21
181.937408
 31
0.0
  0
LINE
  5
18A
  8
05
 10
71.658365
 20
181.937408
 30
0.0
 11
71.658365
 21
177.437408
 31
0.0
  0
LINE
  5
18B
  8
05
 10
78.258365
 20
181.937408
 30
0.0
 11
78.258365
 21
177.437408
 31
0.0
  0
LINE
  5
18C
  8
05
 10
71.658365
 20
177.437408
 30
0.0
 11
78.258365
 21
177.437408
 31
0.0
  0
LINE
  5
18D
  8
05
 10
71.658365
 20
177.437408
 30
0.0
 11
74.208365
 21
177.437408
 31
0.0
  0
LINE
  5
18E
  8
05
 10
75.708365
 20
177.437408
 30
0.0
 11
78.258365
 21
177.437408
 31
0.0
  0
TEXT
  5
18F
  8
035
 10
72.954157
 20
185.777456
 30
0.0
 40
4.5
  1
3
  7
HELV
  0
LINE
  5
190
  8
05
 10
50.958364
 20
226.935893
 30
0.0
 11
44.058363
 21
226.935893
 31
0.0
  0
LINE
  5
191
  8
05
 10
41.958365
 20
227.085893
 30
0.0
 11
46.458365
 21
227.085893
 31
0.0
  0
ARC
  5
192
  8
05
 10
47.208629
 20
229.56862
 30
0.0
 40
3.0
 50
106.912465
 51
149.827777
  0
LINE
  5
193
  8
05
 10
44.615073
 20
231.076422
 30
0.0
 11
46.248107
 21
229.706144
 31
0.0
  0
ARC
  5
194
  8
05
 10
45.773823
 20
230.085893
 30
0.0
 40
0.6
 50
270.0
 51
330.294918
  0
LINE
  5
195
  8
05
 10
44.615073
 20
231.076422
 30
0.0
 11
46.242298
 21
229.711018
 31
0.0
  0
ARC
  5
196
  8
05
 10
74.958365
 20
213.435893
 30
0.0
 40
35.098485
 50
130.172223
 51
149.827777
  0
LINE
  5
197
  8
05
 10
40.458365
 20
222.735893
 30
0.0
 11
40.458365
 21
203.240305
 31
0.0
  0
LINE
  5
198
  8
05
 10
42.885362
 20
197.085893
 30
0.0
 11
38.958365
 21
197.085893
 31
0.0
  0
ARC
  5
199
  8
05
 10
23.958365
 20
198.293693
 30
0.0
 40
18.0
 50
356.15256
 51
0.0
  0
LINE
  5
19A
  8
05
 10
41.958365
 20
198.293693
 30
0.0
 11
41.958365
 21
199.048398
 31
0.0
  0
LINE
  5
19B
  8
05
 10
41.958365
 20
226.259932
 30
0.0
 11
41.958365
 21
231.092002
 31
0.0
  0
LINE
  5
19C
  8
05
 10
42.172692
 20
229.992846
 30
0.0
 11
42.776856
 21
229.485893
 31
0.0
  0
LINE
  5
19D
  8
05
 10
43.462507
 20
230.868674
 30
0.0
 11
45.110441
 21
229.485893
 31
0.0
  0
ARC
  5
19E
  8
05
 10
44.058365
 20
222.735893
 30
0.0
 40
3.6
 50
90.0
 51
180.0
  0
ARC
  5
19F
  8
05
 10
44.058363
 20
223.335893
 30
0.0
 40
3.6
 50
90.0
 51
180.0
  0
LINE
  5
1A0
  8
05
 10
45.773823
 20
229.485893
 30
0.0
 11
41.958365
 21
229.485893
 31
0.0
  0
LINE
  5
1A1
  8
05
 10
41.958365
 20
226.485893
 30
0.0
 11
42.315521
 21
226.485893
 31
0.0
  0
LINE
  5
1A2
  8
05
 10
43.462507
 20
230.868674
 30
0.0
 11
44.615073
 21
231.076422
 31
0.0
  0
ARC
  5
1A3
  8
05
 10
42.558365
 20
231.092002
 30
0.0
 40
0.6
 50
151.412194
 51
180.0
  0
ARC
  5
1A4
  8
05
 10
42.558365
 20
230.452472
 30
0.0
 40
0.6
 50
180.0
 51
230.0
  0
TEXT
  5
1A5
  8
035
 10
59.952119
 20
209.894694
 30
0.0
 40
9.0
  1
1
  7
UNIV
  0
LINE
  5
1A7
  8
05
 10
57.006628
 20
212.256893
 30
0.0
 11
57.006628
 21
202.764893
 31
0.0
  0
LINE
  5
1A8
  8
05
 10
57.258365
 20
212.508893
 30
0.0
 11
57.258365
 21
202.512893
 31
0.0
  0
LINE
  5
1A9
  8
05
 10
53.808365
 20
211.860893
 30
0.0
 11
53.808365
 21
203.160893
 31
0.0
  0
LINE
  5
1AA
  8
05
 10
53.658365
 20
212.508893
 30
0.0
 11
53.658365
 21
202.512893
 31
0.0
  0
LINE
  5
1AB
  8
05
 10
55.458366
 20
203.160893
 30
0.0
 11
53.808365
 21
203.160893
 31
0.0
  0
LINE
  5
1AC
  8
05
 10
53.658365
 20
202.764893
 30
0.0
 11
57.006628
 21
202.764893
 31
0.0
  0
LINE
  5
1AD
  8
05
 10
53.658365
 20
202.512893
 30
0.0
 11
57.258365
 21
202.512893
 31
0.0
  0
LINE
  5
1AE
  8
05
 10
55.242365
 20
203.603674
 30
0.0
 11
53.808365
 21
203.328717
 31
0.0
  0
LINE
  5
1AF
  8
05
 10
50.658368
 20
200.214536
 30
0.0
 11
46.405163
 21
196.891568
 31
0.0
  0
LINE
  5
1B0
  8
05
 10
48.003818
 20
197.135511
 30
0.0
 11
46.813724
 21
196.205708
 31
0.0
  0
LINE
  5
1B1
  8
05
 10
46.701153
 20
197.12282
 30
0.0
 11
46.813726
 21
196.205708
 31
0.0
  0
LINE
  5
1B2
  8
05
 10
53.658365
 20
203.310893
 30
0.0
 11
53.808365
 21
203.310893
 31
0.0
  0
ARC
  5
1B3
  8
05
 10
55.633289
 20
200.906023
 30
0.0
 40
2.725828
 50
93.814075
 51
98.245478
  0
ARC
  5
1B4
  8
05
 10
55.472374
 20
203.583388
 30
0.0
 40
0.014008
 50
99.143206
 51
180.0
  0
ARC
  5
1B5
  8
05
 10
55.903289
 20
200.906023
 30
0.0
 40
2.725828
 50
93.814075
 51
99.143206
  0
ARC
  5
1B6
  8
05
 10
56.172848
 20
196.862639
 30
0.0
 40
6.778187
 50
91.581777
 51
93.814075
  0
ARC
  5
1B7
  8
05
 10
56.358366
 20
190.144446
 30
0.0
 40
13.498942
 50
90.0
 51
91.581777
  0
ARC
  5
1B8
  8
05
 10
55.902848
 20
196.862639
 30
0.0
 40
6.778187
 50
91.581777
 51
93.814075
  0
ARC
  5
1B9
  8
05
 10
56.088365
 20
190.144446
 30
0.0
 40
13.498942
 50
90.0
 51
91.581777
  0
LINE
  5
1BA
  8
05
 10
55.458366
 20
203.583388
 30
0.0
 11
55.458366
 21
202.764893
 31
0.0
  0
LINE
  5
1BB
  8
05
 10
57.006628
 20
202.764893
 30
0.0
 11
57.258365
 21
202.512893
 31
0.0
  0
LINE
  5
1BC
  8
05
 10
56.088365
 20
203.643388
 30
0.0
 11
56.358366
 21
203.643388
 31
0.0
  0
LINE
  5
1BD
  8
05
 10
55.458366
 20
211.860893
 30
0.0
 11
53.808365
 21
211.860893
 31
0.0
  0
LINE
  5
1BE
  8
05
 10
53.658365
 20
212.256893
 30
0.0
 11
57.006628
 21
212.256893
 31
0.0
  0
LINE
  5
1BF
  8
05
 10
53.658365
 20
212.508893
 30
0.0
 11
57.258365
 21
212.508893
 31
0.0
  0
LINE
  5
1C0
  8
05
 10
55.242365
 20
211.418112
 30
0.0
 11
53.808365
 21
211.693068
 31
0.0
  0
LINE
  5
1C1
  8
05
 10
53.658365
 20
211.710893
 30
0.0
 11
53.808365
 21
211.710893
 31
0.0
  0
LINE
  5
1C2
  8
05
 10
57.258365
 20
212.508893
 30
0.0
 11
57.006628
 21
212.256893
 31
0.0
  0
ARC
  5
1C3
  8
05
 10
55.633289
 20
214.115762
 30
0.0
 40
2.725828
 50
261.754522
 51
266.185925
  0
ARC
  5
1C4
  8
05
 10
55.902848
 20
218.159146
 30
0.0
 40
6.778187
 50
266.185925
 51
268.418223
  0
ARC
  5
1C5
  8
05
 10
56.088365
 20
224.877339
 30
0.0
 40
13.498942
 50
268.418223
 51
270.0
  0
ARC
  5
1C6
  8
05
 10
55.472374
 20
211.438398
 30
0.0
 40
0.014008
 50
180.0
 51
260.856794
  0
ARC
  5
1C7
  8
05
 10
55.903289
 20
214.115762
 30
0.0
 40
2.725828
 50
260.856794
 51
266.185925
  0
ARC
  5
1C8
  8
05
 10
56.172848
 20
218.159146
 30
0.0
 40
6.778187
 50
266.185925
 51
268.418223
  0
ARC
  5
1C9
  8
05
 10
56.358366
 20
224.877339
 30
0.0
 40
13.498942
 50
268.418223
 51
270.0
  0
LINE
  5
1CA
  8
05
 10
55.458366
 20
211.438398
 30
0.0
 11
55.458366
 21
212.256893
 31
0.0
  0
TEXT
  5
1CB
  8
035
 10
71.54809
 20
197.939631
 30
0.0
 40
9.0
  1
3
  7
UNIV
  0
LINE
  5
1CC
  8
05
 10
51.558365
 20
228.883263
 30
0.0
 11
62.958365
 21
228.883263
 31
0.0
  0
LINE
  5
1CD
  8
05
 10
62.958365
 20
238.429442
 30
0.0
 11
61.759428
 21
238.429442
 31
0.0
  0
LINE
  5
1CE
  8
05
 10
58.308365
 20
226.527112
 30
0.0
 11
50.958364
 21
226.527112
 31
0.0
  0
LINE
  5
1CF
  8
05
 10
50.958365
 20
227.085893
 30
0.0
 11
56.958365
 21
227.085893
 31
0.0
  0
LINE
  5
1D0
  8
05
 10
50.958365
 20
226.485893
 30
0.0
 11
56.958365
 21
226.485893
 31
0.0
  0
ARC
  5
1D1
  8
05
 10
53.058368
 20
220.860893
 30
0.0
 40
2.4
 50
90.0
 51
180.0
  0
LINE
  5
1D2
  8
05
 10
50.958365
 20
226.527112
 30
0.0
 11
50.958365
 21
227.235893
 31
0.0
  0
LINE
  5
1D3
  8
05
 10
50.958364
 20
226.935893
 30
0.0
 11
50.958364
 21
226.527112
 31
0.0
  0
ARC
  5
1D4
  8
05
 10
51.558365
 20
228.283263
 30
0.0
 40
0.6
 50
90.0
 51
180.0
  0
LINE
  5
1D5
  8
05
 10
50.958365
 20
226.335893
 30
0.0
 11
50.958365
 21
228.283263
 31
0.0
  0
LINE
  5
1D6
  8
05
 10
56.958365
 20
226.335893
 30
0.0
 11
56.958365
 21
228.883263
 31
0.0
  0
LINE
  5
1D7
  8
05
 10
59.208365
 20
226.479112
 30
0.0
 11
59.208365
 21
226.354166
 31
0.0
  0
LINE
  5
1D8
  8
05
 10
59.208365
 20
226.479112
 30
0.0
 11
58.308365
 21
226.527112
 31
0.0
  0
ARC
  5
1D9
  8
05
 10
44.289079
 20
239.170479
 30
0.0
 40
7.035909
 50
286.912465
 51
353.087535
  0
ARC
  5
1DA
  8
05
 10
54.252039
 20
237.962629
 30
0.0
 40
3.0
 50
130.172223
 51
173.087535
  0
LINE
  5
1DB
  8
05
 10
52.316777
 20
240.254956
 30
0.0
 11
53.949811
 21
238.884678
 31
0.0
  0
ARC
  5
1DC
  8
05
 10
61.759428
 20
239.029442
 30
0.0
 40
0.6
 50
202.5
 51
270.0
  0
LINE
  5
1DD
  8
05
 10
61.2051
 20
238.799832
 30
0.0
 11
60.471503
 21
240.570893
 31
0.0
  0
ARC
  5
1DE
  8
KONTAKT
 10
70.360271
 20
228.137196
 30
0.0
 40
1.598095
 50
5.576394
 51
86.48086
  0
LINE
  5
1DF
  8
05
 10
63.558365
 20
237.829442
 30
0.0
 11
63.558365
 21
226.335893
 31
0.0
  0
ARC
  5
1E0
  8
05
 10
70.308365
 20
228.135893
 30
0.0
 40
1.5
 50
338.135257
 51
90.0
  0
ARC
  5
1E1
  8
KONTAKT
 10
70.360271
 20
228.447779
 30
0.0
 40
1.598095
 50
273.51914
 51
86.48086
  0
LINE
  5
1E2
  8
05
 10
66.558365
 20
240.829442
 30
0.0
 11
66.558365
 21
226.335893
 31
0.0
  0
ARC
  5
1E3
  8
05
 10
70.308365
 20
228.135893
 30
0.0
 40
0.306
 50
270.0
 51
90.0
  0
LINE
  5
1E4
  8
05
 10
63.558365
 20
226.485893
 30
0.0
 11
66.558365
 21
226.485893
 31
0.0
  0
ARC
  5
1E5
  8
05
 10
62.958365
 20
229.497573
 30
0.0
 40
0.6
 50
270.0
 51
0.0
  0
LINE
  5
1E6
  8
05
 10
70.308365
 20
228.441893
 30
0.0
 11
69.708365
 21
228.441893
 31
0.0
  0
LINE
  5
1E7
  8
05
 10
69.708365
 20
229.635893
 30
0.0
 11
69.708365
 21
228.441893
 31
0.0
  0
LINE
  5
1E8
  8
05
 10
66.558365
 20
229.635893
 30
0.0
 11
70.308365
 21
229.635893
 31
0.0
  0
LINE
  5
1E9
  8
KONTAKT
 10
70.458365
 20
226.852698
 30
0.0
 11
70.458365
 21
226.335893
 31
0.0
  0
LINE
  5
1EA
  8
05
 10
69.708365
 20
227.829893
 30
0.0
 11
69.708365
 21
226.335893
 31
0.0
  0
LINE
  5
1EB
  8
05
 10
70.308365
 20
227.829893
 30
0.0
 11
69.708365
 21
227.829893
 31
0.0
  0
LINE
  5
1EC
  8
05
 10
69.708365
 20
226.635893
 30
0.0
 11
70.458365
 21
226.635893
 31
0.0
  0
LINE
  5
1ED
  8
035
 10
73.153206
 20
233.492674
 30
0.0
 11
70.458365
 21
233.492674
 31
0.0
  0
ARC
  5
1EE
  8
05
 10
68.355136
 20
232.737638
 30
0.0
 40
0.6
 50
30.0
 51
108.886088
  0
ARC
  5
1EF
  8
05
 10
69.972724
 20
232.335893
 30
0.0
 40
0.6
 50
210.0
 51
270.0
  0
LINE
  5
1F0
  8
05
 10
69.453109
 20
232.035893
 30
0.0
 11
68.874751
 21
233.037638
 31
0.0
  0
LINE
  5
1F1
  8
05
 10
69.972724
 20
231.735893
 30
0.0
 11
70.458365
 21
231.735893
 31
0.0
  0
ARC
  5
1F2
  8
05
 10
74.958365
 20
213.435893
 30
0.0
 40
21.0
 50
108.886088
 51
113.578178
  0
ARC
  5
1F3
  8
05
 10
62.958365
 20
237.829442
 30
0.0
 40
0.6
 50
0.0
 51
90.0
  0
LINE
  5
1F4
  8
05
 10
70.306752
 20
236.557343
 30
0.0
 11
70.458365
 21
236.294742
 31
0.0
  0
ARC
  5
1F5
  8
05
 10
69.787137
 20
236.257343
 30
0.0
 40
0.6
 50
30.0
 51
102.767342
  0
ARC
  5
1F6
  8
05
 10
74.958365
 20
213.435897
 30
0.0
 40
24.0
 50
102.767342
 51
110.487315
  0
LINE
  5
1F7
  8
025
 10
76.300125
 20
236.604103
 30
0.0
 11
76.300125
 21
233.472914
 31
0.0
  0
LINE
  5
1F8
  8
025
 10
73.616605
 20
236.604103
 30
0.0
 11
73.616605
 21
233.472914
 31
0.0
  0
ARC
  5
1F9
  8
035
 10
74.958365
 20
233.608101
 30
0.0
 40
1.34176
 50
201.619577
 51
338.380423
  0
ARC
  5
1FA
  8
035
 10
73.153206
 20
232.892674
 30
0.0
 40
0.6
 50
21.619577
 51
90.0
  0
ARC
  5
1FB
  8
035
 10
76.763524
 20
232.892674
 30
0.0
 40
0.6
 50
90.0
 51
158.380423
  0
POLYLINE
  5
1FC
  8
035
 66
     1
 10
0.0
 20
0.0
 30
0.0
  0
VERTEX
  5
A20
  8
035
 10
76.29633
 20
233.382111
 30
0.0
 42
0.020887
  0
VERTEX
  5
A21
  8
035
 10
76.300125
 20
233.472914
 30
0.0
 42
0.108334
  0
SEQEND
  5
A22
  8
035
  0
LINE
  5
1FD
  8
BEM1
 10
74.958365
 20
254.050487
 30
0.0
 11
74.958365
 21
270.819428
 31
0.0
  0
LINE
  5
1FE
  8
05
 10
63.363057
 20
241.429442
 30
0.0
 11
62.329812
 21
243.923917
 31
0.0
  0
ARC
  5
1FF
  8
035
 10
65.958365
 20
255.071488
 30
0.0
 40
6.0
 50
113.621418
 51
180.0
  0
ARC
  5
200
  8
05
 10
74.958365
 20
213.435893
 30
0.0
 40
33.0
 50
93.909564
 51
112.5
  0
LINE
  5
201
  8
035
 10
59.958365
 20
255.071488
 30
0.0
 11
59.958365
 21
252.51798
 31
0.0
  0
LINE
  5
202
  8
05
 10
52.723278
 20
243.046839
 30
0.0
 11
54.716948
 21
241.37395
 31
0.0
  0
ARC
  5
203
  8
05
 10
52.337605
 20
242.587212
 30
0.0
 40
0.6
 50
50.0
 51
127.810648
  0
ARC
  5
204
  8
05
 10
58.596661
 20
244.827845
 30
0.0
 40
0.6
 50
117.528839
 51
208.5
  0
ARC
  5
205
  8
05
 10
74.958365
 20
213.435893
 30
0.0
 40
34.5
 50
120.563955
 51
125.923725
  0
LINE
  5
206
  8
05
 10
58.069371
 20
244.54155
 30
0.0
 11
58.161839
 21
244.371244
 31
0.0
  0
ARC
  5
207
  8
035
 10
65.882106
 20
252.531244
 30
0.0
 40
5.923756
 50
180.128292
 51
223.352759
  0
LINE
  5
208
  8
035
 10
71.958365
 20
242.871997
 30
0.0
 11
70.458365
 21
241.572959
 31
0.0
  0
LINE
  5
209
  8
035
 10
71.958365
 20
243.471997
 30
0.0
 11
70.458365
 21
242.172959
 31
0.0
  0
LINE
  5
20A
  8
05
 10
63.363057
 20
241.429442
 30
0.0
 11
65.958365
 21
241.429442
 31
0.0
  0
LINE
  5
20B
  8
035
 10
64.267396
 20
244.223841
 30
0.0
 11
65.052054
 21
241.955734
 31
0.0
  0
LINE
  5
20C
  8
035
 10
62.808365
 20
243.679855
 30
0.0
 11
63.700108
 21
241.451673
 31
0.0
  0
LINE
  5
20D
  8
035
 10
67.758252
 20
245.64084
 30
0.0
 11
67.758252
 21
245.225821
 31
0.0
  0
LINE
  5
20E
  8
05
 10
65.958365
 20
249.838315
 30
0.0
 11
65.958365
 21
248.292743
 31
0.0
  0
LINE
  5
20F
  8
05
 10
77.958365
 20
246.842479
 30
0.0
 11
77.958365
 21
248.405932
 31
0.0
  0
LINE
  5
210
  8
035
 10
77.208365
 20
245.944084
 30
0.0
 11
77.208365
 21
248.012518
 31
0.0
  0
LINE
  5
211
  8
05
 10
71.958365
 20
246.842479
 30
0.0
 11
71.958365
 21
248.405932
 31
0.0
  0
LINE
  5
212
  8
035
 10
72.708365
 20
245.944084
 30
0.0
 11
72.708365
 21
248.012518
 31
0.0
  0
POLYLINE
  5
213
  8
035
 66
     1
 10
0.0
 20
0.0
 30
0.0
  0
VERTEX
  5
A23
  8
035
 10
75.402913
 20
242.999365
 30
0.0
 42
-0.011355
  0
VERTEX
  5
A24
  8
035
 10
75.382629
 20
242.974453
 30
0.0
 42
-0.103502
  0
VERTEX
  5
A25
  8
035
 10
75.183043
 20
242.820046
 30
0.0
 42
-0.113531
  0
VERTEX
  5
A26
  8
035
 10
74.958365
 20
242.768364
 30
0.0
 42
-0.113531
  0
VERTEX
  5
A27
  8
035
 10
74.733687
 20
242.820046
 30
0.0
 42
-0.103502
  0
VERTEX
  5
A28
  8
035
 10
74.534101
 20
242.974453
 30
0.0
 42
-0.014515
  0
VERTEX
  5
A29
  8
035
 10
74.508374
 20
243.00646
 30
0.0
 42
-0.085087
  0
SEQEND
  5
A2A
  8
035
  0
POLYLINE
  5
214
  8
035
 66
     1
 10
0.0
 20
0.0
 30
0.0
  0
VERTEX
  5
A2B
  8
035
 10
74.958365
 20
242.168364
 30
0.0
 42
-0.113531
  0
VERTEX
  5
A2C
  8
035
 10
74.509009
 20
242.271728
 30
0.0
 42
-0.103502
  0
VERTEX
  5
A2D
  8
035
 10
74.109837
 20
242.580543
 30
0.0
 42
-0.014391
  0
VERTEX
  5
A2E
  8
035
 10
74.058807
 20
242.643997
 30
0.0
 42
-0.085087
  0
SEQEND
  5
A2F
  8
035
  0
ARC
  5
215
  8
05
 10
71.358365
 20
246.842479
 30
0.0
 40
0.6
 50
276.15064
 51
0.0
  0
LINE
  5
216
  8
035
 10
73.616605
 20
242.871997
 30
0.0
 11
71.958365
 21
242.871997
 31
0.0
  0
LINE
  5
217
  8
035
 10
73.616541
 20
243.471997
 30
0.0
 11
71.958365
 21
243.471997
 31
0.0
  0
LINE
  5
218
  8
035
 10
71.958365
 20
242.871997
 30
0.0
 11
71.958365
 21
243.471997
 31
0.0
  0
POLYLINE
  5
219
  8
035
 66
     1
 10
0.0
 20
0.0
 30
0.0
  0
VERTEX
  5
A30
  8
035
 10
74.513817
 20
242.999365
 30
0.0
 42
0.013725
  0
VERTEX
  5
A31
  8
035
 10
74.465068
 20
243.059818
 30
0.0
 42
0.103502
  0
VERTEX
  5
A32
  8
035
 10
74.065896
 20
243.368633
 30
0.0
 42
0.113531
  0
VERTEX
  5
A33
  8
035
 10
73.61654
 20
243.471997
 30
0.0
 42
0.113531
  0
SEQEND
  5
A34
  8
035
  0
POLYLINE
  5
21A
  8
035
 66
     1
 10
0.0
 20
0.0
 30
0.0
  0
VERTEX
  5
A35
  8
035
 10
73.616605
 20
242.871997
 30
0.0
 42
-0.113531
  0
VERTEX
  5
A36
  8
035
 10
73.841282
 20
242.820315
 30
0.0
 42
-0.103502
  0
VERTEX
  5
A37
  8
035
 10
74.040869
 20
242.665908
 30
0.0
 42
-0.010008
  0
VERTEX
  5
A38
  8
035
 10
74.058807
 20
242.643997
 30
0.0
 42
-0.085087
  0
SEQEND
  5
A39
  8
035
  0
ARC
  5
21B
  8
05
 10
78.558365
 20
246.842479
 30
0.0
 40
0.6
 50
180.0
 51
263.84936
  0
LINE
  5
21C
  8
035
 10
77.958365
 20
242.871997
 30
0.0
 11
76.300125
 21
242.871997
 31
0.0
  0
LINE
  5
21D
  8
035
 10
76.30019
 20
243.471997
 30
0.0
 11
77.958365
 21
243.471997
 31
0.0
  0
POLYLINE
  5
21E
  8
035
 66
     1
 10
0.0
 20
0.0
 30
0.0
  0
VERTEX
  5
A3A
  8
035
 10
76.300125
 20
242.871997
 30
0.0
 42
0.113531
  0
VERTEX
  5
A3B
  8
035
 10
76.075447
 20
242.820315
 30
0.0
 42
0.103502
  0
VERTEX
  5
A3C
  8
035
 10
75.875861
 20
242.665908
 30
0.0
 42
0.010008
  0
VERTEX
  5
A3D
  8
035
 10
75.857923
 20
242.643997
 30
0.0
 42
0.085087
  0
SEQEND
  5
A3E
  8
035
  0
POLYLINE
  5
21F
  8
035
 66
     1
 10
0.0
 20
0.0
 30
0.0
  0
VERTEX
  5
A3F
  8
035
 10
75.402913
 20
242.999365
 30
0.0
 42
-0.013725
  0
VERTEX
  5
A40
  8
035
 10
75.451661
 20
243.059818
 30
0.0
 42
-0.103502
  0
VERTEX
  5
A41
  8
035
 10
75.850834
 20
243.368633
 30
0.0
 42
-0.113531
  0
VERTEX
  5
A42
  8
035
 10
76.30019
 20
243.471997
 30
0.0
 42
-0.113531
  0
SEQEND
  5
A43
  8
035
  0
POLYLINE
  5
220
  8
035
 66
     1
 10
0.0
 20
0.0
 30
0.0
  0
VERTEX
  5
A44
  8
035
 10
74.958365
 20
242.168364
 30
0.0
 42
0.113531
  0
VERTEX
  5
A45
  8
035
 10
75.40772
 20
242.271728
 30
0.0
 42
0.103502
  0
VERTEX
  5
A46
  8
035
 10
75.806893
 20
242.580543
 30
0.0
 42
0.014391
  0
VERTEX
  5
A47
  8
035
 10
75.857923
 20
242.643997
 30
0.0
 42
0.085087
  0
SEQEND
  5
A48
  8
035
  0
LINE
  5
221
  8
035
 10
77.958365
 20
242.871997
 30
0.0
 11
77.958365
 21
243.471997
 31
0.0
  0
ARC
  5
222
  8
05
 10
74.958365
 20
213.435893
 30
0.0
 40
35.098485
 50
85.096731
 51
94.903269
  0
LINE
  5
223
  8
035
 10
77.208365
 20
248.012518
 30
0.0
 11
72.708365
 21
248.012518
 31
0.0
  0
ARC
  5
224
  8
035
 10
74.958365
 20
232.820877
 30
0.0
 40
30.0
 50
90.0
 51
112.34225
  0
SOLID
  5
225
  8
BEM1
 10
78.458365
 20
270.602762
 30
0.0
 11
78.458365
 21
269.436095
 31
0.0
 12
74.958365
 22
270.019428
 32
0.0
 13
74.958365
 23
270.019428
 33
0.0
  0
LINE
  5
226
  8
05
 10
196.196896
 20
233.790628
 30
0.0
 11
196.196896
 21
243.818807
 31
0.0
  0
ARC
  5
227
  8
05
 10
187.896896
 20
240.316052
 30
0.0
 40
1.0
 50
97.134147
 51
180.0
  0
LINE
  5
228
  8
05
 10
185.696896
 20
250.934377
 30
0.0
 11
185.696896
 21
240.308034
 31
0.0
  0
LINE
  5
229
  8
05
 10
195.596896
 20
242.2876
 30
0.0
 11
187.772704
 21
241.30831
 31
0.0
  0
LINE
  5
22A
  8
035
 10
177.596896
 20
242.617471
 30
0.0
 11
177.596896
 21
240.514731
 31
0.0
  0
LINE
  5
22B
  8
035
 10
177.596896
 20
245.017471
 30
0.0
 11
177.596896
 21
240.514731
 31
0.0
  0
LINE
  5
22C
  8
05
 10
177.596896
 20
242.009929
 30
0.0
 11
177.596896
 21
234.435893
 31
0.0
  0
CIRCLE
  5
22D
  8
05
 10
104.65685
 20
243.134377
 30
0.0
 40
3.3
  0
ARC
  5
22E
  8
05
 10
90.306264
 20
242.649622
 30
0.0
 40
2.25
 50
253.07829
 51
49.92171
  0
ARC
  5
22F
  8
05
 10
83.958365
 20
240.829442
 30
0.0
 40
0.6
 50
90.0
 51
180.0
  0
LINE
  5
230
  8
BEM1
 10
118.466979
 20
227.135893
 30
0.0
 11
118.466979
 21
249.724552
 31
0.0
  0
LINE
  5
231
  8
BEM1
 10
107.958365
 20
232.140727
 30
0.0
 11
107.958365
 21
270.819428
 31
0.0
  0
LINE
  5
232
  8
KONTAKT
 10
79.458365
 20
242.172959
 30
0.0
 11
79.458365
 21
229.732278
 31
0.0
  0
LINE
  5
233
  8
MITTE
 10
104.65685
 20
250.934377
 30
0.0
 11
104.65685
 21
237.134377
 31
0.0
  0
LINE
  5
234
  8
BEM1
 10
112.45685
 20
242.334377
 30
0.0
 11
112.45685
 21
176.763091
 31
0.0
  0
LINE
  5
235
  8
BEM1
 10
125.456106
 20
247.434377
 30
0.0
 11
125.456106
 21
179.437408
 31
0.0
  0
ARC
  5
236
  8
05
 10
104.65685
 20
243.134377
 30
0.0
 40
7.8
 50
256.355622
 51
193.644378
  0
ARC
  5
237
  8
05
 10
74.958365
 20
213.435893
 30
0.0
 40
33.0
 50
29.705082
 51
58.376804
  0
ARC
  5
238
  8
05
 10
74.958365
 20
213.435893
 30
0.0
 40
34.5
 50
27.724292
 51
59.436045
  0
LINE
  5
239
  8
05
 10
110.058365
 20
194.385897
 30
0.0
 11
110.958365
 21
195.285897
 31
0.0
  0
LINE
  5
23A
  8
05
 10
110.058365
 20
194.385897
 30
0.0
 11
110.058365
 21
197.310893
 31
0.0
  0
LINE
  5
23B
  8
05
 10
109.614956
 20
194.160893
 30
0.0
 11
109.614956
 21
197.310893
 31
0.0
  0
LINE
  5
23C
  8
05
 10
110.208365
 20
197.085893
 30
0.0
 11
110.208365
 21
194.085893
 31
0.0
  0
LINE
  5
23D
  8
05
 10
110.958365
 20
197.085893
 30
0.0
 11
110.958365
 21
194.835893
 31
0.0
  0
SOLID
  5
23E
  8
BEM1
 10
108.95685
 20
160.570276
 30
0.0
 11
108.95685
 21
161.736943
 31
0.0
 12
112.45685
 22
161.153609
 32
0.0
 13
112.45685
 23
161.153609
 33
0.0
  0
LINE
  5
23F
  8
BEM1
 10
127.863907
 20
175.937408
 30
0.0
 11
91.748374
 21
175.937408
 31
0.0
  0
LINE
  5
240
  8
05
 10
88.638365
 20
172.037408
 30
0.0
 11
88.038365
 21
171.437408
 31
0.0
  0
LINE
  5
241
  8
05
 10
84.738365
 20
171.437408
 30
0.0
 11
84.138365
 21
172.037408
 31
0.0
  0
LINE
  5
242
  8
MITTE
 10
86.388365
 20
178.842708
 30
0.0
 11
86.388365
 21
168.819983
 31
0.0
  0
LINE
  5
243
  8
05
 10
88.038365
 20
171.437408
 30
0.0
 11
84.738365
 21
171.437408
 31
0.0
  0
ARC
  5
244
  8
05
 10
74.958365
 20
213.435893
 30
0.0
 40
36.0
 50
295.228512
 51
322.980748
  0
ARC
  5
245
  8
05
 10
74.958365
 20
213.435897
 30
0.0
 40
37.498485
 50
295.039639
 51
324.688357
  0
LINE
  5
246
  8
05
 10
88.638365
 20
172.037408
 30
0.0
 11
84.138365
 21
172.037408
 31
0.0
  0
LINE
  5
247
  8
05
 10
83.808365
 20
181.937408
 30
0.0
 11
83.808365
 21
177.437408
 31
0.0
  0
LINE
  5
248
  8
05
 10
86.358365
 20
181.937408
 30
0.0
 11
86.358365
 21
175.937408
 31
0.0
  0
LINE
  5
249
  8
05
 10
85.008365
 20
177.437408
 30
0.0
 11
85.008365
 21
181.937408
 31
0.0
  0
LINE
  5
24A
  8
05
 10
83.808365
 20
177.437408
 30
0.0
 11
86.358365
 21
177.437408
 31
0.0
  0
LINE
  5
24B
  8
05
 10
83.958365
 20
175.937408
 30
0.0
 11
83.958365
 21
177.437408
 31
0.0
  0
LINE
  5
24C
  8
05
 10
84.138365
 20
172.937408
 30
0.0
 11
84.138365
 21
172.037408
 31
0.0
  0
LINE
  5
24D
  8
05
 10
89.958365
 20
174.437408
 30
0.0
 11
89.958365
 21
180.326981
 31
0.0
  0
LINE
  5
24E
  8
05
 10
86.958365
 20
175.937408
 30
0.0
 11
86.958365
 21
181.937408
 31
0.0
  0
LINE
  5
24F
  8
05
 10
90.483365
 20
180.955524
 30
0.0
 11
90.483365
 21
175.937408
 31
0.0
  0
ARC
  5
250
  8
05
 10
88.458365
 20
174.437408
 30
0.0
 40
1.5
 50
270.0
 51
0.0
  0
LINE
  5
251
  8
05
 10
89.958365
 20
175.937408
 30
0.0
 11
90.483365
 21
175.937408
 31
0.0
  0
LINE
  5
252
  8
05
 10
88.638365
 20
172.948247
 30
0.0
 11
88.638365
 21
172.037408
 31
0.0
  0
LINE
  5
253
  8
05
 10
89.958365
 20
177.437408
 30
0.0
 11
90.483365
 21
177.437408
 31
0.0
  0
ARC
  5
254
  8
025
 62
     7
 10
90.558365
 20
180.326981
 30
0.0
 40
0.6
 50
115.228512
 51
180.0
  0
ARC
  5
255
  8
05
 10
91.083365
 20
178.918091
 30
0.0
 40
0.6
 50
115.039639
 51
180.0
  0
ARC
  5
256
  8
05
 10
92.278576
 20
180.855098
 30
0.0
 40
0.6
 50
225.0
 51
297.995466
  0
LINE
  5
257
  8
05
 10
91.854312
 20
180.430834
 30
0.0
 11
91.051772
 21
181.233373
 31
0.0
  0
TEXT
  5
258
  8
035
 10
85.480936
 20
185.777456
 30
0.0
 40
4.5
  1
2
  7
HELV
  0
ARC
  5
259
  8
05
 10
74.958365
 20
213.435893
 30
0.0
 40
33.0
 50
314.088904
 51
318.942342
  0
ARC
  5
25A
  8
05
 10
74.958364
 20
213.435893
 30
0.0
 40
31.5
 50
315.162859
 51
316.520481
  0
LINE
  5
25B
  8
05
 10
97.622907
 20
189.96453
 30
0.0
 11
98.485543
 21
190.295628
 31
0.0
  0
LINE
  5
25C
  8
05
 10
97.29545
 20
191.225431
 30
0.0
 11
98.485543
 21
190.295628
 31
0.0
  0
LINE
  5
25D
  8
05
 10
95.323668
 20
191.760893
 30
0.0
 11
97.918897
 21
189.733278
 31
0.0
  0
ARC
  5
25E
  8
05
 10
107.214956
 20
194.160893
 30
0.0
 40
2.4
 50
270.0
 51
360.0
  0
LINE
  5
25F
  8
05
 10
110.058365
 20
194.385897
 30
0.0
 11
109.614956
 21
194.385897
 31
0.0
  0
LINE
  5
260
  8
05
 10
110.208365
 20
194.085893
 30
0.0
 11
110.958365
 21
194.835893
 31
0.0
  0
LINE
  5
261
  8
BEM1
 10
112.45685
 20
174.933881
 30
0.0
 11
112.45685
 21
159.448696
 31
0.0
  0
SOLID
  5
262
  8
BEM1
 10
126.03944
 20
179.437408
 30
0.0
 11
124.872773
 21
179.437408
 31
0.0
 12
125.456106
 22
175.937408
 32
0.0
 13
125.456106
 23
175.937408
 33
0.0
  0
LINE
  5
263
  8
05
 10
109.518712
 20
217.710893
 30
0.0
 11
113.814956
 21
217.710893
 31
0.0
  0
LINE
  5
264
  8
05
 10
109.518712
 20
197.310893
 30
0.0
 11
113.814956
 21
197.310893
 31
0.0
  0
LINE
  5
265
  8
05
 10
109.614956
 20
220.860893
 30
0.0
 11
109.614956
 21
217.710893
 31
0.0
  0
TEXT
  5
266
  8
035
 10
83.447196
 20
209.788439
 30
0.0
 40
9.0
  1
2
  7
UNIV
  0
LINE
  5
267
  8
05
 10
96.258365
 20
202.512893
 30
0.0
 11
92.658365
 21
202.512893
 31
0.0
  0
LINE
  5
268
  8
05
 10
96.258365
 20
202.764893
 30
0.0
 11
92.910101
 21
202.764893
 31
0.0
  0
LINE
  5
269
  8
05
 10
94.458364
 20
203.160893
 30
0.0
 11
96.108364
 21
203.160893
 31
0.0
  0
LINE
  5
26A
  8
05
 10
94.674364
 20
203.603674
 30
0.0
 11
96.108364
 21
203.328717
 31
0.0
  0
LINE
  5
26B
  8
05
 10
94.674364
 20
211.418112
 30
0.0
 11
96.108364
 21
211.693068
 31
0.0
  0
LINE
  5
26C
  8
05
 10
96.258365
 20
212.256893
 30
0.0
 11
92.910101
 21
212.256893
 31
0.0
  0
LINE
  5
26D
  8
05
 10
94.458364
 20
211.860893
 30
0.0
 11
96.108364
 21
211.860893
 31
0.0
  0
LINE
  5
26E
  8
05
 10
96.258365
 20
212.508893
 30
0.0
 11
92.658365
 21
212.508893
 31
0.0
  0
LINE
  5
26F
  8
05
 10
92.658365
 20
212.508893
 30
0.0
 11
92.658365
 21
202.512893
 31
0.0
  0
LINE
  5
270
  8
05
 10
92.910101
 20
212.256893
 30
0.0
 11
92.910101
 21
202.764893
 31
0.0
  0
ARC
  5
271
  8
05
 10
94.283441
 20
200.906023
 30
0.0
 40
2.725828
 50
81.754522
 51
86.185925
  0
ARC
  5
272
  8
05
 10
94.013882
 20
196.862639
 30
0.0
 40
6.778187
 50
86.185925
 51
88.418223
  0
ARC
  5
273
  8
05
 10
93.828364
 20
190.144446
 30
0.0
 40
13.498942
 50
88.418223
 51
90.0
  0
ARC
  5
274
  8
05
 10
94.444356
 20
203.583388
 30
0.0
 40
0.014008
 50
0.0
 51
80.856794
  0
ARC
  5
275
  8
05
 10
94.01344
 20
200.906023
 30
0.0
 40
2.725828
 50
80.856794
 51
86.185925
  0
ARC
  5
276
  8
05
 10
93.743881
 20
196.862639
 30
0.0
 40
6.778187
 50
86.185925
 51
88.418223
  0
ARC
  5
277
  8
05
 10
93.558364
 20
190.144446
 30
0.0
 40
13.498942
 50
88.418223
 51
90.0
  0
LINE
  5
278
  8
05
 10
94.458364
 20
203.583388
 30
0.0
 11
94.458364
 21
202.764893
 31
0.0
  0
LINE
  5
279
  8
05
 10
93.828364
 20
203.643388
 30
0.0
 11
93.558364
 21
203.643388
 31
0.0
  0
LINE
  5
27A
  8
05
 10
92.910101
 20
202.764893
 30
0.0
 11
92.658365
 21
202.512893
 31
0.0
  0
LINE
  5
27B
  8
05
 10
92.658365
 20
212.508893
 30
0.0
 11
92.910101
 21
212.256893
 31
0.0
  0
ARC
  5
27C
  8
05
 10
94.444356
 20
211.438398
 30
0.0
 40
0.014008
 50
279.143206
 51
0.0
  0
ARC
  5
27D
  8
05
 10
94.01344
 20
214.115762
 30
0.0
 40
2.725828
 50
273.814075
 51
279.143206
  0
ARC
  5
27E
  8
05
 10
93.743881
 20
218.159146
 30
0.0
 40
6.778187
 50
271.581777
 51
273.814075
  0
ARC
  5
27F
  8
05
 10
93.558364
 20
224.877339
 30
0.0
 40
13.498942
 50
270.0
 51
271.581777
  0
ARC
  5
280
  8
05
 10
94.283441
 20
214.115762
 30
0.0
 40
2.725828
 50
273.814075
 51
278.245478
  0
ARC
  5
281
  8
05
 10
94.013882
 20
218.159146
 30
0.0
 40
6.778187
 50
271.581777
 51
273.814075
  0
ARC
  5
282
  8
05
 10
93.828364
 20
224.877339
 30
0.0
 40
13.498942
 50
270.0
 51
271.581777
  0
LINE
  5
283
  8
05
 10
94.458364
 20
211.438398
 30
0.0
 11
94.458364
 21
212.256893
 31
0.0
  0
LINE
  5
284
  8
05
 10
96.258365
 20
212.508893
 30
0.0
 11
96.258365
 21
202.512893
 31
0.0
  0
LINE
  5
285
  8
05
 10
96.108364
 20
211.860893
 30
0.0
 11
96.108364
 21
203.160893
 31
0.0
  0
LINE
  5
286
  8
05
 10
96.258365
 20
203.310893
 30
0.0
 11
96.108364
 21
203.310893
 31
0.0
  0
LINE
  5
287
  8
05
 10
110.958365
 20
197.310893
 30
0.0
 11
110.958365
 21
195.285897
 31
0.0
  0
LINE
  5
288
  8
05
 10
96.258365
 20
211.710893
 30
0.0
 11
96.108364
 21
211.710893
 31
0.0
  0
LINE
  5
289
  8
05
 10
98.958364
 20
226.527112
 30
0.0
 11
91.608364
 21
226.527112
 31
0.0
  0
LINE
  5
28A
  8
05
 10
98.958365
 20
226.485893
 30
0.0
 11
92.958365
 21
226.485893
 31
0.0
  0
LINE
  5
28B
  8
05
 10
98.958365
 20
227.085893
 30
0.0
 11
92.958365
 21
227.085893
 31
0.0
  0
LINE
  5
28C
  8
05
 10
98.358365
 20
228.885893
 30
0.0
 11
86.958365
 21
228.885893
 31
0.0
  0
LINE
  5
28D
  8
05
 10
86.358365
 20
237.829442
 30
0.0
 11
86.358365
 21
226.335893
 31
0.0
  0
LINE
  5
28E
  8
05
 10
83.358365
 20
240.829442
 30
0.0
 11
83.358365
 21
226.335893
 31
0.0
  0
ARC
  5
28F
  8
05
 10
86.958365
 20
229.500202
 30
0.0
 40
0.6
 50
180.0
 51
270.0
  0
LINE
  5
290
  8
05
 10
79.608365
 20
229.635893
 30
0.0
 11
83.358365
 21
229.635893
 31
0.0
  0
LINE
  5
291
  8
05
 10
80.208365
 20
228.441893
 30
0.0
 11
79.608365
 21
228.441893
 31
0.0
  0
LINE
  5
292
  8
05
 10
80.208365
 20
229.635893
 30
0.0
 11
80.208365
 21
228.441893
 31
0.0
  0
LINE
  5
293
  8
KONTAKT
 10
79.458365
 20
226.852698
 30
0.0
 11
79.458365
 21
226.335893
 31
0.0
  0
LINE
  5
294
  8
05
 10
80.208365
 20
227.829893
 30
0.0
 11
80.208365
 21
226.335893
 31
0.0
  0
LINE
  5
295
  8
05
 10
80.208365
 20
227.829893
 30
0.0
 11
79.608365
 21
227.829893
 31
0.0
  0
LINE
  5
296
  8
05
 10
79.458365
 20
226.635893
 30
0.0
 11
80.208365
 21
226.635893
 31
0.0
  0
ARC
  5
297
  8
05
 10
79.608365
 20
228.135893
 30
0.0
 40
0.306
 50
90.0
 51
270.0
  0
LINE
  5
298
  8
05
 10
86.358365
 20
226.485893
 30
0.0
 11
83.358365
 21
226.485893
 31
0.0
  0
LINE
  5
299
  8
05
 10
91.608364
 20
226.527112
 30
0.0
 11
90.708364
 21
226.479112
 31
0.0
  0
LINE
  5
29A
  8
05
 10
90.708364
 20
226.354166
 30
0.0
 11
90.708364
 21
226.479112
 31
0.0
  0
LINE
  5
29B
  8
05
 10
92.958365
 20
226.335893
 30
0.0
 11
92.958365
 21
228.885893
 31
0.0
  0
ARC
  5
29C
  8
05
 10
86.958365
 20
237.829442
 30
0.0
 40
0.6
 50
90.0
 51
180.0
  0
ARC
  5
29D
  8
05
 10
74.958365
 20
213.435893
 30
0.0
 40
21.0
 50
66.421822
 51
71.113912
  0
ARC
  5
29E
  8
05
 10
79.944005
 20
232.335893
 30
0.0
 40
0.6
 50
270.0
 51
330.0
  0
LINE
  5
29F
  8
05
 10
79.944005
 20
231.735893
 30
0.0
 11
79.458365
 21
231.735893
 31
0.0
  0
LINE
  5
2A0
  8
05
 10
80.463621
 20
232.035893
 30
0.0
 11
81.041979
 21
233.037638
 31
0.0
  0
ARC
  5
2A1
  8
05
 10
81.561594
 20
232.737638
 30
0.0
 40
0.6
 50
71.113912
 51
150.0
  0
ARC
  5
2A2
  8
05
 10
74.958365
 20
213.435897
 30
0.0
 40
24.0
 50
69.512685
 51
77.232658
  0
ARC
  5
2A3
  8
05
 10
80.129593
 20
236.257343
 30
0.0
 40
0.6
 50
77.232658
 51
150.0
  0
LINE
  5
2A4
  8
05
 10
79.609977
 20
236.557343
 30
0.0
 11
79.458365
 21
236.294742
 31
0.0
  0
ARC
  5
2A5
  8
05
 10
88.157302
 20
239.029442
 30
0.0
 40
0.6
 50
270.0
 51
337.5
  0
LINE
  5
2A6
  8
05
 10
86.958365
 20
238.429442
 30
0.0
 11
88.157302
 21
238.429442
 31
0.0
  0
LINE
  5
2A7
  8
05
 10
88.711629
 20
238.799832
 30
0.0
 11
89.445227
 21
240.570893
 31
0.0
  0
ARC
  5
2A8
  8
05
 10
104.142907
 20
230.085893
 30
0.0
 40
0.6
 50
209.705082
 51
270.0
  0
ARC
  5
2A9
  8
05
 10
125.958365
 20
228.578092
 30
0.0
 40
18.0
 50
145.653444
 51
180.0
  0
LINE
  5
2AA
  8
05
 10
105.858365
 20
226.935893
 30
0.0
 11
98.958364
 21
226.935893
 31
0.0
  0
LINE
  5
2AB
  8
05
 10
98.958365
 20
226.527112
 30
0.0
 11
98.958365
 21
227.235893
 31
0.0
  0
LINE
  5
2AC
  8
05
 10
98.958364
 20
226.527112
 30
0.0
 11
98.958364
 21
226.935893
 31
0.0
  0
ARC
  5
2AD
  8
05
 10
98.358365
 20
228.285893
 30
0.0
 40
0.6
 50
0.0
 51
90.0
  0
LINE
  5
2AE
  8
05
 10
98.958365
 20
226.335893
 30
0.0
 11
98.958365
 21
228.285893
 31
0.0
  0
ARC
  5
2AF
  8
05
 10
105.858365
 20
222.735893
 30
0.0
 40
3.6
 50
0.0
 51
90.0
  0
ARC
  5
2B0
  8
05
 10
105.858365
 20
223.335893
 30
0.0
 40
3.6
 50
355.219772
 51
90.0
  0
ARC
  5
2B1
  8
05
 10
107.214956
 20
220.860893
 30
0.0
 40
2.4
 50
0.0
 51
90.0
  0
LINE
  5
2B2
  8
05
 10
109.458365
 20
222.735893
 30
0.0
 11
109.458365
 21
221.713603
 31
0.0
  0
LINE
  5
2B3
  8
05
 10
104.142907
 20
229.485893
 30
0.0
 11
107.958365
 21
229.485893
 31
0.0
  0
LINE
  5
2B4
  8
05
 10
107.958365
 20
227.085893
 30
0.0
 11
103.458365
 21
227.085893
 31
0.0
  0
LINE
  5
2B5
  8
05
 10
103.458365
 20
227.085893
 30
0.0
 11
103.458365
 21
226.935893
 31
0.0
  0
LINE
  5
2B6
  8
05
 10
107.958365
 20
226.259931
 30
0.0
 11
107.958365
 21
226.335893
 31
0.0
  0
LINE
  5
2B7
  8
05
 10
107.958365
 20
226.485893
 30
0.0
 11
107.601208
 21
226.485893
 31
0.0
  0
LINE
  5
2B8
  8
05
 10
107.958365
 20
226.335893
 30
0.0
 11
107.958365
 21
228.578092
 31
0.0
  0
ARC
  5
2B9
  8
05
 10
102.675333
 20
234.971437
 30
0.0
 40
0.6
 50
76.355622
 51
217.846511
  0
ARC
  5
2BA
  8
05
 10
96.49391
 20
241.152861
 30
0.0
 40
0.6
 50
232.153489
 51
13.644378
  0
TEXT
  5
2BB
  8
BEM1
 62
     3
 10
123.706106
 20
200.786856
 30
0.0
 40
3.5
  1
25.00 [0.984"]
 50
90.0
 41
0.7
 51
15.0
  0
LINE
  5
2BC
  8
05
 10
113.814956
 20
197.310893
 30
0.0
 11
113.814956
 21
217.710893
 31
0.0
  0
LINE
  5
2BD
  8
05
 10
190.196896
 20
203.373587
 30
0.0
 11
190.196896
 21
188.138145
 31
0.0
  0
LINE
  5
2BE
  8
05
 10
185.696896
 20
233.790628
 30
0.0
 11
185.696896
 21
175.937408
 31
0.0
  0
ARC
  5
2BF
  8
05
 10
206.246896
 20
196.335893
 30
0.0
 40
1.95
 50
180.0
 51
0.0
  0
TEXT
  5
2C0
  8
BEM1
 62
     3
 10
164.390871
 20
180.79915
 30
0.0
 40
3.5
  1
14.00 [0.55"]
 50
90.0
 41
0.7
 51
15.0
 72
     1
 11
162.640871
 21
192.43665
 31
0.0
 73
     2
  0
LINE
  5
2C1
  8
BEM1
 10
166.140871
 20
209.935893
 30
0.0
 11
166.140871
 21
174.937408
 31
0.0
  0
LINE
  5
2C2
  8
05
 10
177.596896
 20
234.435893
 30
0.0
 11
177.596896
 21
182.235893
 31
0.0
  0
LINE
  5
2C3
  8
BEM1
 10
194.676896
 20
171.437408
 30
0.0
 11
165.340871
 21
171.437408
 31
0.0
  0
SOLID
  5
2C4
  8
BEM1
 10
165.557538
 20
174.937408
 30
0.0
 11
166.724204
 21
174.937408
 31
0.0
 12
166.140871
 22
171.437408
 32
0.0
 13
166.140871
 23
171.437408
 33
0.0
  0
LINE
  5
2C5
  8
05
 10
199.376896
 20
172.037408
 30
0.0
 11
198.776896
 21
171.437408
 31
0.0
  0
LINE
  5
2C6
  8
05
 10
195.476896
 20
171.437408
 30
0.0
 11
194.876896
 21
172.037408
 31
0.0
  0
LINE
  5
2C7
  8
MITTE
 10
197.126896
 20
178.842708
 30
0.0
 11
197.126896
 21
168.819983
 31
0.0
  0
LINE
  5
2C8
  8
05
 10
198.776896
 20
171.437408
 30
0.0
 11
195.476896
 21
171.437408
 31
0.0
  0
LINE
  5
2C9
  8
05
 10
190.196896
 20
191.537408
 30
0.0
 11
199.196896
 21
191.537408
 31
0.0
  0
LINE
  5
2CA
  8
05
 10
185.696896
 20
175.937408
 30
0.0
 11
199.196896
 21
175.937408
 31
0.0
  0
LINE
  5
2CB
  8
05
 10
179.096896
 20
180.735893
 30
0.0
 11
185.696896
 21
180.735893
 31
0.0
  0
ARC
  5
2CC
  8
05
 10
179.096896
 20
182.235893
 30
0.0
 40
1.5
 50
180.0
 51
270.0
  0
LINE
  5
2CD
  8
05
 10
199.196896
 20
194.682625
 30
0.0
 11
199.196896
 21
175.937408
 31
0.0
  0
LINE
  5
2CE
  8
035
 10
209.096896
 20
179.237408
 30
0.0
 11
209.096896
 21
185.101016
 31
0.0
  0
ARC
  5
2CF
  8
035
 10
204.595744
 20
183.737408
 30
0.0
 40
0.6
 50
180.0
 51
0.0
  0
ARC
  5
2D0
  8
035
 10
199.196896
 20
183.737408
 30
0.0
 40
1.5
 50
270.0
 51
90.0
  0
LINE
  5
2D1
  8
05
 10
199.196896
 20
194.085893
 30
0.0
 11
199.196896
 21
175.937408
 31
0.0
  0
LINE
  5
2D2
  8
035
 10
199.196896
 20
178.637408
 30
0.0
 11
208.496896
 21
178.637408
 31
0.0
  0
LINE
  5
2D3
  8
05
 10
199.376896
 20
172.037408
 30
0.0
 11
194.876896
 21
172.037408
 31
0.0
  0
LINE
  5
2D4
  8
05
 10
194.876896
 20
175.937408
 30
0.0
 11
194.876896
 21
172.037408
 31
0.0
  0
LINE
  5
2D5
  8
05
 10
199.376896
 20
177.437408
 30
0.0
 11
199.376896
 21
172.037408
 31
0.0
  0
ARC
  5
2D6
  8
035
 10
208.496896
 20
179.237408
 30
0.0
 40
0.6
 50
270.0
 51
0.0
  0
ARC
  5
2D7
  8
035
 10
199.196896
 20
183.737408
 30
0.0
 40
4.8
 50
359.58167
 51
74.440083
  0
LINE
  5
2D8
  8
035
 10
200.045425
 20
189.737408
 30
0.0
 11
200.045425
 21
188.9395
 31
0.0
  0
ARC
  5
2D9
  8
035
 10
200.645425
 20
188.9395
 30
0.0
 40
0.6
 50
180.0
 51
254.440083
  0
ARC
  5
2DA
  8
035
 10
199.445425
 20
189.737408
 30
0.0
 40
0.6
 50
0.0
 51
114.469801
  0
ARC
  5
2DB
  8
035
 10
208.221333
 20
185.190784
 30
0.0
 40
3.140413
 50
126.822143
 51
151.046666
  0
ARC
  5
2DC
  8
035
 10
207.409392
 20
185.639987
 30
0.0
 40
2.212496
 50
151.046666
 51
180.0
  0
LINE
  5
2DD
  8
035
 10
205.196896
 20
185.639987
 30
0.0
 11
205.195744
 21
183.737408
 31
0.0
  0
ARC
  5
2DE
  8
035
 10
208.750993
 20
184.483344
 30
0.0
 40
4.024162
 50
107.229765
 51
126.822143
  0
ARC
  5
2DF
  8
035
 10
209.096896
 20
183.367963
 30
0.0
 40
5.191948
 50
90.0
 51
107.229765
  0
ARC
  5
2E0
  8
035
 10
210.935103
 20
185.101016
 30
0.0
 40
1.838207
 50
159.502509
 51
180.0
  0
ARC
  5
2E1
  8
035
 10
210.77002
 20
185.16273
 30
0.0
 40
1.661965
 50
137.933212
 51
159.502509
  0
ARC
  5
2E2
  8
035
 10
210.010292
 20
184.603833
 30
0.0
 40
0.913395
 50
151.924662
 51
174.921996
  0
ARC
  5
2E3
  8
035
 10
210.292931
 20
184.453074
 30
0.0
 40
1.233728
 50
127.831388
 51
151.924662
  0
LINE
  5
2E4
  8
BEM1
 10
174.68503
 20
213.435893
 30
0.0
 11
165.340871
 21
213.435893
 31
0.0
  0
SOLID
  5
2E5
  8
BEM1
 10
165.557538
 20
209.935893
 30
0.0
 11
166.724204
 21
209.935893
 31
0.0
 12
166.140871
 22
213.435893
 32
0.0
 13
166.140871
 23
213.435893
 33
0.0
  0
ARC
  5
2E6
  8
05
 10
165.107807
 20
213.435893
 30
0.0
 40
34.18509
 50
344.73566
 51
15.26434
  0
LINE
  5
2E7
  8
05
 10
201.043953
 20
222.435893
 30
0.0
 11
201.043953
 21
204.435893
 31
0.0
  0
LINE
  5
2E8
  8
05
 10
190.196896
 20
203.373587
 30
0.0
 11
204.896896
 21
203.373587
 31
0.0
  0
ARC
  5
2E9
  8
05
 10
165.107807
 20
213.435893
 30
0.0
 40
35.99109
 50
345.518825
 51
356.833683
  0
LINE
  5
2EA
  8
05
 10
198.086896
 20
204.435893
 30
0.0
 11
204.896896
 21
204.435893
 31
0.0
  0
ARC
  5
2EB
  8
05
 10
206.246896
 20
196.335893
 30
0.0
 40
1.05
 50
180.0
 51
0.0
  0
LINE
  5
2EC
  8
05
 10
204.296896
 20
197.385893
 30
0.0
 11
204.296896
 21
196.335893
 31
0.0
  0
LINE
  5
2ED
  8
05
 10
205.196896
 20
197.385893
 30
0.0
 11
205.196896
 21
196.335893
 31
0.0
  0
LINE
  5
2EE
  8
05
 10
207.296896
 20
197.385893
 30
0.0
 11
207.296896
 21
196.335893
 31
0.0
  0
LINE
  5
2EF
  8
05
 10
208.196896
 20
197.385893
 30
0.0
 11
208.196896
 21
196.335893
 31
0.0
  0
LINE
  5
2F0
  8
05
 10
200.670578
 20
207.899845
 30
0.0
 11
201.043953
 21
207.899845
 31
0.0
  0
LINE
  5
2F1
  8
05
 10
190.196896
 20
223.498199
 30
0.0
 11
204.896896
 21
223.498199
 31
0.0
  0
LINE
  5
2F2
  8
05
 10
204.896896
 20
229.455689
 30
0.0
 11
190.196896
 21
229.455689
 31
0.0
  0
LINE
  5
2F3
  8
05
 10
204.896896
 20
232.062238
 30
0.0
 11
185.696896
 21
232.062238
 31
0.0
  0
LINE
  5
2F4
  8
05
 10
185.696896
 20
233.790628
 30
0.0
 11
196.196896
 21
233.790628
 31
0.0
  0
LINE
  5
2F5
  8
05
 10
190.196896
 20
232.062238
 30
0.0
 11
190.196896
 21
223.498199
 31
0.0
  0
LINE
  5
2F6
  8
05
 10
186.896896
 20
240.316052
 30
0.0
 11
186.896896
 21
233.790628
 31
0.0
  0
LINE
  5
2F7
  8
05
 10
185.696896
 20
240.308034
 30
0.0
 11
186.896896
 21
240.308034
 31
0.0
  0
LINE
  5
2F8
  8
05
 10
198.086896
 20
222.435893
 30
0.0
 11
204.896896
 21
222.435893
 31
0.0
  0
LINE
  5
2F9
  8
BEM1
 10
107.958365
 20
270.019428
 30
0.0
 11
125.466979
 21
270.019428
 31
0.0
  0
TEXT
  5
2FA
  8
BEM1
 62
     3
 10
110.606857
 20
271.769428
 30
0.0
 40
3.5
  1
3.50 [0.138"]
 41
0.7
 51
15.0
 72
     1
 11
122.448523
 21
273.519428
 31
0.0
 73
     2
  0
LINE
  5
2FB
  8
BEM1
 10
128.391091
 20
250.934377
 30
0.0
 11
107.875651
 21
250.934377
 31
0.0
  0
ARC
  5
2FC
  8
05
 10
92.729923
 20
266.012061
 30
0.0
 40
18.0
 50
251.323951
 51
297.534586
  0
LINE
  5
2FD
  8
035
 10
89.958365
 20
255.071488
 30
0.0
 11
89.958365
 21
252.51798
 31
0.0
  0
LINE
  5
2FE
  8
035
 10
87.108365
 20
243.679855
 30
0.0
 11
86.216622
 21
241.451673
 31
0.0
  0
LINE
  5
2FF
  8
05
 10
86.553673
 20
241.429442
 30
0.0
 11
87.586918
 21
243.923917
 31
0.0
  0
LINE
  5
300
  8
035
 10
82.158478
 20
245.64084
 30
0.0
 11
82.158478
 21
245.225821
 31
0.0
  0
LINE
  5
301
  8
05
 10
83.958365
 20
241.429442
 30
0.0
 11
86.553673
 21
241.429442
 31
0.0
  0
LINE
  5
302
  8
035
 10
85.649334
 20
244.223841
 30
0.0
 11
84.864675
 21
241.955734
 31
0.0
  0
LINE
  5
303
  8
05
 10
83.958365
 20
249.838315
 30
0.0
 11
83.958365
 21
248.292743
 31
0.0
  0
LINE
  5
304
  8
05
 10
91.847359
 20
244.54155
 30
0.0
 11
91.75489
 21
244.371244
 31
0.0
  0
ARC
  5
305
  8
05
 10
91.320068
 20
244.827845
 30
0.0
 40
0.6
 50
331.5
 51
62.471161
  0
ARC
  5
306
  8
035
 10
84.034623
 20
252.531244
 30
0.0
 40
5.923756
 50
317.616327
 51
359.871708
  0
ARC
  5
307
  8
035
 10
83.958365
 20
255.071488
 30
0.0
 40
6.0
 50
0.0
 51
69.576402
  0
LINE
  5
308
  8
MITTE
 10
98.65685
 20
243.134377
 30
0.0
 11
110.65685
 21
243.134377
 31
0.0
  0
TEXT
  5
309
  8
SCHRAFFIERT
 10
96.152988
 20
272.258513
 30
0.0
 40
2.5
  1
%%P0.004
 41
0.7
 51
15.0
  0
SOLID
  5
30A
  8
BEM1
 10
104.458365
 20
270.602762
 30
0.0
 11
104.458365
 21
269.436095
 31
0.0
 12
107.958365
 22
270.019428
 32
0.0
 13
107.958365
 23
270.019428
 33
0.0
  0
LINE
  5
30B
  8
BEM1
 10
118.466979
 20
251.957753
 30
0.0
 11
118.466979
 21
270.819428
 31
0.0
  0
SOLID
  5
30C
  8
BEM1
 10
126.03944
 20
247.434377
 30
0.0
 11
124.872773
 21
247.434377
 31
0.0
 12
125.456106
 22
250.934377
 32
0.0
 13
125.456106
 23
250.934377
 33
0.0
  0
LINE
  5
30D
  8
BEM1
 10
125.466979
 20
270.019428
 30
0.0
 11
134.774853
 21
270.019428
 31
0.0
  0
SOLID
  5
30E
  8
BEM1
 10
121.966979
 20
270.602762
 30
0.0
 11
121.966979
 21
269.436095
 31
0.0
 12
118.466979
 22
270.019428
 32
0.0
 13
118.466979
 23
270.019428
 33
0.0
  0
POLYLINE
  5
30F
  8
035
 66
     1
 10
0.0
 20
0.0
 30
0.0
  0
VERTEX
  5
A49
  8
035
 10
177.596896
 20
242.617471
 30
0.0
 42
0.309752
  0
VERTEX
  5
A4A
  8
035
 10
177.571044
 20
242.655197
 30
0.0
 42
0.052628
  0
VERTEX
  5
A4B
  8
035
 10
177.333293
 20
242.719495
 30
0.0
 42
0.023168
  0
VERTEX
  5
A4C
  8
035
 10
177.068706
 20
242.749423
 30
0.0
 42
0.016578
  0
VERTEX
  5
A4D
  8
035
 10
176.696896
 20
242.761754
 30
0.0
 42
0.016578
  0
SEQEND
  5
A4E
  8
035
  0
POLYLINE
  5
310
  8
035
 66
     1
 10
0.0
 20
0.0
 30
0.0
  0
VERTEX
  5
A4F
  8
035
 10
177.596896
 20
242.617471
 30
0.0
 42
0.309752
  0
VERTEX
  5
A50
  8
035
 10
177.571044
 20
242.655197
 30
0.0
 42
0.052628
  0
VERTEX
  5
A51
  8
035
 10
177.333293
 20
242.719495
 30
0.0
 42
0.023168
  0
VERTEX
  5
A52
  8
035
 10
177.068706
 20
242.749423
 30
0.0
 42
0.016578
  0
VERTEX
  5
A53
  8
035
 10
176.696896
 20
242.761754
 30
0.0
 42
0.016578
  0
SEQEND
  5
A54
  8
035
  0
POLYLINE
  5
311
  8
035
 66
     1
 10
0.0
 20
0.0
 30
0.0
  0
VERTEX
  5
A55
  8
035
 10
177.596896
 20
245.017471
 30
0.0
 42
0.309752
  0
VERTEX
  5
A56
  8
035
 10
177.571044
 20
245.055197
 30
0.0
 42
0.052628
  0
VERTEX
  5
A57
  8
035
 10
177.333293
 20
245.119495
 30
0.0
 42
0.023168
  0
VERTEX
  5
A58
  8
035
 10
177.068706
 20
245.149423
 30
0.0
 42
0.016578
  0
VERTEX
  5
A59
  8
035
 10
176.696896
 20
245.161754
 30
0.0
 42
0.016578
  0
SEQEND
  5
A5A
  8
035
  0
LINE
  5
312
  8
035
 10
168.896896
 20
246.020873
 30
0.0
 11
185.696896
 21
246.020873
 31
0.0
  0
SOLID
  5
313
  8
BEM1
 10
174.096896
 20
269.436095
 30
0.0
 11
174.096896
 21
270.602762
 31
0.0
 12
177.596896
 22
270.019428
 32
0.0
 13
177.596896
 23
270.019428
 33
0.0
  0
LINE
  5
314
  8
BEM1
 10
159.90973
 20
270.019428
 30
0.0
 11
185.696896
 21
270.019428
 31
0.0
  0
TEXT
  5
315
  8
BEM1
 62
     3
 10
160.766349
 20
271.769428
 30
0.0
 40
3.5
  1
2.70 [0.106"]
 41
0.7
 51
15.0
  0
LINE
  5
316
  8
035
 10
165.296896
 20
262.820873
 30
0.0
 11
165.296896
 21
246.361754
 31
0.0
  0
LINE
  5
317
  8
035
 10
167.696896
 20
262.820873
 30
0.0
 11
167.696896
 21
246.361754
 31
0.0
  0
LINE
  5
318
  8
035
 10
176.696896
 20
245.161754
 30
0.0
 11
168.896896
 21
245.161754
 31
0.0
  0
LINE
  5
319
  8
035
 10
176.696897
 20
242.761754
 30
0.0
 11
168.896896
 21
242.761754
 31
0.0
  0
ARC
  5
31A
  8
035
 10
168.896896
 20
247.220873
 30
0.0
 40
1.2
 50
180.0
 51
270.0
  0
ARC
  5
31B
  8
035
 10
168.896896
 20
246.361754
 30
0.0
 40
3.6
 50
180.0
 51
270.0
  0
LINE
  5
31C
  8
035
 10
165.296896
 20
246.607974
 30
0.0
 11
167.696896
 21
246.607974
 31
0.0
  0
ARC
  5
31D
  8
035
 10
168.896896
 20
246.361754
 30
0.0
 40
1.2
 50
180.0
 51
270.0
  0
LINE
  5
31E
  8
035
 10
167.696896
 20
262.820873
 30
0.0
 11
165.296896
 21
262.820873
 31
0.0
  0
LINE
  5
31F
  8
BEM1
 10
177.596896
 20
247.849822
 30
0.0
 11
177.596896
 21
270.826038
 31
0.0
  0
LINE
  5
320
  8
BEM1
 10
185.696896
 20
253.346034
 30
0.0
 11
185.696896
 21
270.826038
 31
0.0
  0
LINE
  5
321
  8
BEM1
 10
185.696896
 20
253.346034
 30
0.0
 11
185.696896
 21
270.826038
 31
0.0
  0
LINE
  5
322
  8
05
 10
185.696896
 20
243.818807
 30
0.0
 11
196.196896
 21
243.818807
 31
0.0
  0
LINE
  5
323
  8
05
 10
204.896896
 20
245.179949
 30
0.0
 11
190.196896
 21
245.179949
 31
0.0
  0
LINE
  5
324
  8
05
 10
178.704279
 20
243.457634
 30
0.0
 11
185.696896
 21
243.457634
 31
0.0
  0
ARC
  5
325
  8
05
 10
179.096896
 20
242.009929
 30
0.0
 40
1.5
 50
105.173624
 51
180.0
  0
LINE
  5
326
  8
05
 10
190.196896
 20
249.838315
 30
0.0
 11
190.196896
 21
245.179949
 31
0.0
  0
LINE
  5
327
  8
05
 10
185.696896
 20
246.435893
 30
0.0
 11
185.696896
 21
246.285893
 31
0.0
  0
LINE
  5
328
  8
05
 10
196.196896
 20
242.2876
 30
0.0
 11
195.596896
 21
242.2876
 31
0.0
  0
SOLID
  5
329
  8
BEM1
 10
189.196896
 20
269.436095
 30
0.0
 11
189.196896
 21
270.602762
 31
0.0
 12
185.696896
 22
270.019428
 32
0.0
 13
185.696896
 23
270.019428
 33
0.0
  0
TEXT
  5
32A
  8
035
 10
321.763017
 20
149.270486
 30
0.0
 40
3.5
  1
min. Einbauabstand
  7
ARIAL
  0
ARC
  5
32B
  8
035
 10
332.142703
 20
103.223574
 30
0.0
 40
11.8
 50
30.25675
 51
49.74325
  0
ARC
  5
32C
  8
035
 10
342.042198
 20
93.324079
 30
0.0
 40
1.1
 50
226.186908
 51
133.813061
  0
ARC
  5
32D
  8
035
 10
341.142198
 20
94.262162
 30
0.0
 40
0.2
 50
180.0
 51
313.813061
  0
ARC
  5
32E
  8
035
 10
341.142198
 20
92.385996
 30
0.0
 40
0.2
 50
46.186939
 51
180.0
  0
ARC
  5
32F
  8
035
 10
342.042198
 20
93.324079
 30
0.0
 40
1.6
 50
226.567463
 51
133.432537
  0
LINE
  5
330
  8
035
 10
342.042198
 20
90.724079
 30
0.0
 11
326.942703
 21
90.724079
 31
0.0
  0
TEXT
  5
331
  8
BEM1
 62
     3
 10
330.107125
 20
127.682588
 30
0.0
 40
3.5
  1
23.00 [0.906"]
 41
0.7
 51
15.0
  0
LINE
  5
332
  8
BEM1
 10
335.642703
 20
125.914086
 30
0.0
 11
351.642703
 21
125.914086
 31
0.0
  0
ARC
  5
333
  8
035
 10
332.142703
 20
103.223574
 30
0.0
 40
12.499495
 50
28.707238
 51
69.08932
  0
LINE
  5
334
  8
MITTE
 10
344.500405
 20
103.223574
 30
0.0
 11
319.720348
 21
103.223574
 31
0.0
  0
ARC
  5
335
  8
035
 10
332.142703
 20
103.223574
 30
0.0
 40
9.75
 50
113.651752
 51
66.348248
  0
ARC
  5
336
  8
035
 10
332.142703
 20
103.223574
 30
0.0
 40
10.9
 50
121.071011
 51
58.928989
  0
TEXT
  5
337
  8
035
 10
321.763017
 20
144.270486
 30
0.0
 40
3.0
  1
min assembling distance
  7
ARIAL
  0
INSERT
  5
338
  8
05
 66
     1
  2
ZKOPF
 10
410.0
 20
10.0
 30
0.0
  0
ATTRIB
  5
339
  8
0
 62
     4
 10
396.142857
 20
47.0
 30
0.0
 40
2.5
  1
Alinjak
  7
SCRIPTS
 72
     1
 11
401.5
 21
47.0
 31
0.0
  2
NAME
 70
     0
  0
ATTRIB
  5
33B
  8
0
 62
     4
 10
380.395833
 20
47.0
 30
0.0
 40
2.5
  1
18.02.98
 41
0.7
 51
15.0
 72
     1
 11
385.5
 21
47.0
 31
0.0
  2
DATE
 70
     0
  0
ATTRIB
  5
33C
  8
0
 62
     4
 10
329.5
 20
46.0
 30
0.0
 40
2.5
  1

 41
0.7
 51
15.0
 72
     1
 11
329.5
 21
46.0
 31
0.0
  2
WERKSTOFF
 70
     0
  0
ATTRIB
  5
33D
  8
0
 62
     2
 10
308.083333
 20
22.5
 30
0.0
 40
5.0
  1
NC3FBY
 41
0.7
 51
15.0
 72
     1
 11
318.0
 21
22.5
 31
0.0
  2
BENENNUNG
 70
     0
  0
ATTRIB
  5
33E
  8
0
 62
     3
 10
320.959543
 20
31.082191
 30
0.0
 40
3.5
  1

 41
0.7
 51
15.0
 72
     1
 11
320.959543
 21
31.082191
 31
0.0
  2
TEIL
 70
     0
  0
ATTRIB
  5
33F
  8
0
 62
     3
 10
374.953948
 20
11.976541
 30
0.0
 40
3.5
  1
3102 St 18 49
 41
0.7
 51
15.0
 72
     1
 11
389.449781
 21
11.976541
 31
0.0
  2
NUMMER
 70
     0
  0
ATTRIB
  5
340
  8
0
 62
     2
 10
346.517328
 20
44.656056
 30
0.0
 40
5.0
  1
3:1
 41
0.7
 51
15.0
 72
     1
 11
349.433995
 21
44.656056
 31
0.0
  2
MASS
 70
     0
  0
ATTRIB
  5
341
  8
0
 62
     3
 10
347.885966
 20
38.210451
 30
0.0
 40
3.5
  1
1:1
 41
0.7
 51
15.0
 72
     1
 11
349.519299
 21
38.210451
 31
0.0
  2
MASS2
 70
     0
  0
ATTRIB
  5
342
  8
0
 62
     4
 10
329.0
 20
39.0
 30
0.0
 40
2.5
  1

 41
0.7
 51
15.0
 72
     1
 11
329.0
 21
39.0
 31
0.0
  2
TEIL
 70
     0
  0
ATTRIB
  5
343
  8
0
 62
     3
 10
302.288548
 20
69.004319
 30
0.0
 40
3.5
  1

 41
0.7
 51
15.0
  2
TOL
 70
     0
  0
ATTRIB
  5
344
  8
0
 62
     3
 10
302.288548
 20
64.004319
 30
0.0
 40
3.5
  1

 41
0.7
 51
15.0
  2
RADIEN
 70
     0
  0
ATTRIB
  5
345
  8
0
 62
     3
 10
302.288548
 20
59.004319
 30
0.0
 40
3.5
  1

 41
0.7
 51
15.0
  2
FACETTE
 70
     0
  0
ATTRIB
  5
346
  8
0
 62
     4
 10
212.813733
 20
17.0
 30
0.0
 40
2.5
  1

 41
0.7
 51
15.0
  2
INDEX1
 70
     0
  0
ATTRIB
  5
347
  8
0
 62
     4
 10
219.651257
 20
17.0
 30
0.0
 40
2.5
  1

 41
0.7
 51
15.0
  2
A1
 70
     0
  0
ATTRIB
  5
348
  8
0
 62
     4
 10
252.651257
 20
17.0
 30
0.0
 40
2.5
  1

 41
0.7
 51
15.0
  2
DATUM1
 70
     0
  0
ATTRIB
  5
349
  8
0
 62
     4
 10
265.53501
 20
17.0
 30
0.0
 40
2.5
  1

 41
0.7
 51
15.0
  2
NAME1
 70
     0
  0
ATTRIB
  5
34A
  8
0
 62
     4
 10
212.813733
 20
22.0
 30
0.0
 40
2.5
  1

 41
0.7
 51
15.0
  2
INDEX2
 70
     0
  0
ATTRIB
  5
34B
  8
0
 62
     4
 10
219.651257
 20
22.0
 30
0.0
 40
2.5
  1

 41
0.7
 51
15.0
  2
A2
 70
     0
  0
ATTRIB
  5
34C
  8
0
 62
     4
 10
252.651257
 20
22.0
 30
0.0
 40
2.5
  1

 41
0.7
 51
15.0
  2
DATUM2
 70
     0
  0
ATTRIB
  5
34D
  8
0
 62
     4
 10
265.53501
 20
22.0
 30
0.0
 40
2.5
  1

 41
0.7
 51
15.0
  2
NAME2
 70
     0
  0
ATTRIB
  5
34E
  8
0
 62
     4
 10
212.813733
 20
27.0
 30
0.0
 40
2.5
  1

 41
0.7
 51
15.0
  2
INDEX3
 70
     0
  0
ATTRIB
  5
34F
  8
0
 62
     4
 10
219.651257
 20
27.0
 30
0.0
 40
2.5
  1

 41
0.7
 51
15.0
  2
A3
 70
     0
  0
ATTRIB
  5
350
  8
0
 62
     4
 10
252.651257
 20
27.0
 30
0.0
 40
2.5
  1

 41
0.7
 51
15.0
  2
DATUM3
 70
     0
  0
ATTRIB
  5
351
  8
0
 62
     4
 10
265.53501
 20
27.0
 30
0.0
 40
2.5
  1

 41
0.7
 51
15.0
  2
NAME3
 70
     0
  0
ATTRIB
  5
352
  8
0
 62
     4
 10
212.813733
 20
32.0
 30
0.0
 40
2.5
  1

 41
0.7
 51
15.0
  2
INDEX4
 70
     0
  0
ATTRIB
  5
353
  8
0
 62
     4
 10
219.651257
 20
32.0
 30
0.0
 40
2.5
  1

 41
0.7
 51
15.0
  2
A4
 70
     0
  0
ATTRIB
  5
354
  8
0
 62
     4
 10
252.651257
 20
32.0
 30
0.0
 40
2.5
  1

 41
0.7
 51
15.0
  2
DATUM4
 70
     0
  0
ATTRIB
  5
355
  8
0
 62
     4
 10
265.53501
 20
32.0
 30
0.0
 40
2.5
  1

 41
0.7
 51
15.0
  2
NAME4
 70
     0
  0
ATTRIB
  5
356
  8
0
 62
     4
 10
212.813733
 20
37.0
 30
0.0
 40
2.5
  1

 41
0.7
 51
15.0
  2
INDEX5
 70
     0
  0
ATTRIB
  5
357
  8
0
 62
     4
 10
219.651257
 20
37.0
 30
0.0
 40
2.5
  1

 41
0.7
 51
15.0
  2
A5
 70
     0
  0
ATTRIB
  5
358
  8
0
 62
     4
 10
252.651257
 20
37.0
 30
0.0
 40
2.5
  1

 41
0.7
 51
15.0
  2
DATUM5
 70
     0
  0
ATTRIB
  5
359
  8
0
 62
     4
 10
265.53501
 20
37.0
 30
0.0
 40
2.5
  1

 41
0.7
 51
15.0
  2
NAME5
 70
     0
  0
ATTRIB
  5
35A
  8
0
 62
     4
 10
212.813733
 20
42.0
 30
0.0
 40
2.5
  1

 41
0.7
 51
15.0
  2
INDEX6
 70
     0
  0
ATTRIB
  5
35B
  8
0
 62
     4
 10
219.651257
 20
42.0
 30
0.0
 40
2.5
  1

 41
0.7
 51
15.0
  2
A6
 70
     0
  0
ATTRIB
  5
35C
  8
0
 62
     4
 10
252.651257
 20
42.0
 30
0.0
 40
2.5
  1

 41
0.7
 51
15.0
  2
DATUM6
 70
     0
  0
ATTRIB
  5
35D
  8
0
 62
     4
 10
265.53501
 20
42.0
 30
0.0
 40
2.5
  1

 41
0.7
 51
15.0
  2
NAME6
 70
     0
  0
ATTRIB
  5
35E
  8
0
 62
     4
 10
212.813733
 20
47.0
 30
0.0
 40
2.5
  1

 41
0.7
 51
15.0
  2
INDEX7
 70
     0
  0
ATTRIB
  5
35F
  8
0
 62
     4
 10
219.651257
 20
47.0
 30
0.0
 40
2.5
  1

 41
0.7
 51
15.0
  2
A7
 70
     0
  0
ATTRIB
  5
360
  8
0
 62
     4
 10
252.651257
 20
47.0
 30
0.0
 40
2.5
  1

 41
0.7
 51
15.0
  2
DATUM7
 70
     0
  0
ATTRIB
  5
361
  8
0
 62
     4
 10
265.53501
 20
47.0
 30
0.0
 40
2.5
  1

 41
0.7
 51
15.0
  2
NAME7
 70
     0
  0
ATTRIB
  5
362
  8
0
 62
     4
 10
212.813733
 20
52.0
 30
0.0
 40
2.5
  1

 41
0.7
 51
15.0
  2
INDEX8
 70
     0
  0
ATTRIB
  5
363
  8
0
 62
     4
 10
219.651257
 20
52.0
 30
0.0
 40
2.5
  1

 41
0.7
 51
15.0
  2
A8
 70
     0
  0
ATTRIB
  5
364
  8
0
 62
     4
 10
252.651257
 20
52.0
 30
0.0
 40
2.5
  1

 41
0.7
 51
15.0
  2
DATUM8
 70
     0
  0
ATTRIB
  5
365
  8
0
 62
     4
 10
265.53501
 20
52.0
 30
0.0
 40
2.5
  1

 41
0.7
 51
15.0
  2
NAME8
 70
     0
  0
SEQEND
  5
645
  8
05
  0
TEXT
  5
646
  8
025
 10
320.837173
 20
47.756305
 30
0.0
 40
2.5
  1
Plastic:
 41
0.7
 51
15.0
  0
TEXT
  5
647
  8
025
 10
320.837173
 20
43.589638
 30
0.0
 40
2.5
  1
Zytel FR 51
 41
0.7
 51
15.0
  0
TEXT
  5
648
  8
025
 10
320.837173
 20
39.422971
 30
0.0
 40
2.5
  1
- UL94V-0
 41
0.7
 51
15.0
  0
LINE
  5
649
  8
BEM1
 10
220.882258
 20
65.433775
 30
0.0
 11
220.882258
 21
117.833775
 31
0.0
  0
TEXT
  5
64A
  8
BEM1
 62
     3
 10
218.912263
 20
89.605509
 30
0.0
 40
3.5
  1
[0.780"   ]
 50
90.0
 41
0.7
 51
15.0
  0
TEXT
  5
64B
  8
SCHRAFFIERT
 10
217.944448
 20
101.975036
 30
0.0
 40
2.5
  1
%%p0.004
 50
90.0
 41
0.7
 51
15.0
  0
TEXT
  5
64C
  8
BEM1
 62
     3
 10
219.339732
 20
72.15423
 30
0.0
 40
3.5
  1
19.80
 50
90.0
 41
0.7
 51
15.0
  0
SOLID
  5
64D
  8
BEM1
 10
221.465592
 20
65.433775
 30
0.0
 11
220.298925
 21
65.433775
 31
0.0
 12
220.882258
 22
61.933775
 32
0.0
 13
220.882258
 23
61.933775
 33
0.0
  0
INSERT
  5
64E
  8
BEM1
  2
3
 10
216.944448
 20
81.860583
 30
0.0
 50
90.0
  0
LINE
  5
64F
  8
BEM1
 10
213.59117
 20
121.333775
 30
0.0
 11
221.834815
 21
121.333775
 31
0.0
  0
SOLID
  5
650
  8
BEM1
 10
221.465592
 20
117.833775
 30
0.0
 11
220.298925
 21
117.833775
 31
0.0
 12
220.882258
 22
121.333775
 32
0.0
 13
220.882258
 23
121.333775
 33
0.0
  0
LINE
  5
651
  8
MITTE
 10
336.192703
 20
104.523574
 30
0.0
 11
336.192703
 21
101.923574
 31
0.0
  0
CIRCLE
  5
652
  8
035
 10
336.192703
 20
103.223574
 30
0.0
 40
1.3
  0
LINE
  5
653
  8
MITTE
 10
328.092703
 20
104.523574
 30
0.0
 11
328.092703
 21
101.923574
 31
0.0
  0
CIRCLE
  5
654
  8
035
 10
328.092703
 20
103.223574
 30
0.0
 40
1.3
  0
INSERT
  5
655
  8
025
  2
NT
 10
332.142703
 20
103.223574
 30
0.0
 41
3.0
 42
3.0
 43
3.0
  0
LINE
  5
65E
  8
035
 10
321.142703
 20
97.338206
 30
0.0
 11
321.142703
 21
108.270974
 31
0.0
  0
LINE
  5
65F
  8
MITTE
 10
332.142703
 20
117.598063
 30
0.0
 11
332.142703
 21
88.84308
 31
0.0
  0
ARC
  5
660
  8
035
 10
332.142703
 20
103.223574
 30
0.0
 40
8.0
 50
140.415958
 51
77.232658
  0
ARC
  5
661
  8
035
 10
332.142703
 20
103.223574
 30
0.0
 40
12.499495
 50
208.707238
 51
245.54259
  0
ARC
  5
662
  8
035
 10
332.142703
 20
103.223574
 30
0.0
 40
11.8
 50
210.286897
 51
239.713104
  0
LINE
  5
663
  8
035
 10
321.435936
 20
96.773574
 30
0.0
 11
320.392703
 21
96.773574
 31
0.0
  0
LINE
  5
664
  8
035
 10
320.142703
 20
97.773574
 30
0.0
 11
321.142703
 21
97.773574
 31
0.0
  0
LINE
  5
665
  8
035
 10
320.392703
 20
97.773574
 30
0.0
 11
320.392703
 21
96.773574
 31
0.0
  0
LINE
  5
666
  8
035
 10
320.142703
 20
97.773574
 30
0.0
 11
320.142703
 21
97.023574
 31
0.0
  0
LINE
  5
667
  8
035
 10
320.392703
 20
96.773574
 30
0.0
 11
320.142703
 21
97.023574
 31
0.0
  0
LINE
  5
668
  8
035
 10
321.142703
 20
97.773574
 30
0.0
 11
321.142703
 21
96.773574
 31
0.0
  0
ARC
  5
669
  8
035
 10
321.342703
 20
97.338206
 30
0.0
 40
0.2
 50
180.0
 51
208.587806
  0
LINE
  5
66A
  8
035
 10
321.442871
 20
96.762076
 30
0.0
 11
322.613129
 21
97.932334
 31
0.0
  0
ARC
  5
66B
  8
035
 10
321.442703
 20
97.363738
 30
0.0
 40
0.3
 50
180.0
 51
208.707238
  0
LINE
  5
66C
  8
035
 10
335.202703
 20
90.724079
 30
0.0
 11
335.202703
 21
89.424079
 31
0.0
  0
LINE
  5
66D
  8
035
 10
336.702703
 20
90.724079
 30
0.0
 11
336.702703
 21
89.424079
 31
0.0
  0
LINE
  5
66E
  8
035
 10
327.582703
 20
90.724079
 30
0.0
 11
327.582703
 21
89.424079
 31
0.0
  0
LINE
  5
66F
  8
035
 10
329.082703
 20
90.724079
 30
0.0
 11
329.082703
 21
89.424079
 31
0.0
  0
LINE
  5
670
  8
MITTE
 10
328.332703
 20
91.692513
 30
0.0
 11
328.332703
 21
89.224079
 31
0.0
  0
LINE
  5
671
  8
MITTE
 10
335.952703
 20
91.692513
 30
0.0
 11
335.952703
 21
89.224079
 31
0.0
  0
LINE
  5
672
  8
035
 10
329.082703
 20
89.424079
 30
0.0
 11
327.582703
 21
89.424079
 31
0.0
  0
LINE
  5
673
  8
035
 10
329.082703
 20
89.424079
 30
0.0
 11
328.882703
 21
89.224079
 31
0.0
  0
LINE
  5
674
  8
035
 10
328.882703
 20
89.224079
 30
0.0
 11
327.782703
 21
89.224079
 31
0.0
  0
LINE
  5
675
  8
035
 10
327.782703
 20
89.224079
 30
0.0
 11
327.582703
 21
89.424079
 31
0.0
  0
LINE
  5
676
  8
035
 10
336.702703
 20
89.424079
 30
0.0
 11
335.202703
 21
89.424079
 31
0.0
  0
LINE
  5
677
  8
035
 10
336.502703
 20
89.224079
 30
0.0
 11
335.402703
 21
89.224079
 31
0.0
  0
LINE
  5
678
  8
035
 10
335.402703
 20
89.224079
 30
0.0
 11
335.202703
 21
89.424079
 31
0.0
  0
LINE
  5
679
  8
035
 10
336.702703
 20
89.424079
 30
0.0
 11
336.502703
 21
89.224079
 31
0.0
  0
CIRCLE
  5
67A
  8
035
 10
332.142703
 20
99.273574
 30
0.0
 40
1.3
  0
LINE
  5
67B
  8
MITTE
 10
333.442703
 20
99.273574
 30
0.0
 11
330.842703
 21
99.273574
 31
0.0
  0
TEXT
  5
67C
  8
035
 10
331.517799
 20
96.19719
 30
0.0
 40
1.5
  1
3
  7
HELV
  0
LINE
  5
67D
  8
035
 10
326.967703
 20
91.845668
 30
0.0
 11
326.967703
 21
90.724079
 31
0.0
  0
LINE
  5
67E
  8
035
 10
325.681205
 20
92.523743
 30
0.0
 11
326.851462
 21
93.694
 31
0.0
  0
TEXT
  5
67F
  8
035
 10
327.430082
 20
100.094966
 30
0.0
 40
1.5
  1
2
  7
HELV
  0
LINE
  5
680
  8
035
 10
340.942198
 20
94.262162
 30
0.0
 11
340.942198
 21
95.024079
 31
0.0
  0
LINE
  5
681
  8
035
 10
340.942198
 20
95.024079
 30
0.0
 11
340.442198
 21
95.024079
 31
0.0
  0
LINE
  5
682
  8
035
 10
340.442198
 20
95.024079
 30
0.0
 11
340.442198
 21
91.624079
 31
0.0
  0
LINE
  5
683
  8
035
 10
340.942198
 20
92.385996
 30
0.0
 11
340.942198
 21
91.624079
 31
0.0
  0
LINE
  5
684
  8
035
 10
340.942198
 20
91.624079
 30
0.0
 11
340.442198
 21
91.624079
 31
0.0
  0
LINE
  5
685
  8
035
 10
340.942198
 20
94.262162
 30
0.0
 11
340.942198
 21
92.358047
 31
0.0
  0
LINE
  5
686
  8
035
 10
340.942198
 20
93.824079
 30
0.0
 11
340.442198
 21
93.824079
 31
0.0
  0
LINE
  5
687
  8
035
 10
340.942198
 20
92.824079
 30
0.0
 11
340.442198
 21
92.824079
 31
0.0
  0
LINE
  5
688
  8
035
 10
340.942198
 20
94.524079
 30
0.0
 11
340.442198
 21
94.524079
 31
0.0
  0
LINE
  5
689
  8
035
 10
340.942198
 20
92.124079
 30
0.0
 11
340.442198
 21
92.124079
 31
0.0
  0
TEXT
  5
68A
  8
035
 10
335.689848
 20
100.05063
 30
0.0
 40
1.5
  1
1
  7
HELV
  0
LINE
  5
68B
  8
BEM1
 10
332.142703
 20
118.398063
 30
0.0
 11
332.142703
 21
126.714086
 31
0.0
  0
ARC
  5
68C
  8
035
 10
326.21885
 20
120.748964
 30
0.0
 40
6.0
 50
242.465414
 51
283.885663
  0
ARC
  5
68D
  8
035
 10
322.243208
 20
113.123069
 30
0.0
 40
2.6
 50
62.465414
 51
214.346556
  0
CIRCLE
  5
68E
  8
035
 10
322.243208
 20
113.123069
 30
0.0
 40
1.1
  0
CIRCLE
  5
68F
  8
035
 10
322.243208
 20
113.123069
 30
0.0
 40
1.6
  0
CIRCLE
  5
690
  8
035
 10
322.243208
 20
113.123069
 30
0.0
 40
1.1
  0
ARC
  5
691
  8
035
 10
315.142703
 20
108.270974
 30
0.0
 40
6.0
 50
360.0
 51
34.346556
  0
LINE
  5
692
  8
035
 10
334.626952
 20
113.798363
 30
0.0
 11
334.444622
 21
113.019418
 31
0.0
  0
LINE
  5
693
  8
035
 10
334.542703
 20
113.880935
 30
0.0
 11
334.542703
 21
113.438439
 31
0.0
  0
ARC
  5
694
  8
035
 10
332.142703
 20
103.223574
 30
0.0
 40
11.0
 50
60.0
 51
77.358845
  0
ARC
  5
695
  8
035
 10
332.142703
 20
103.185234
 30
0.0
 40
10.9
 50
61.15
 51
77.28019
  0
ARC
  5
696
  8
035
 10
332.142703
 20
103.185234
 30
0.0
 40
10.9
 50
102.71981
 51
118.85
  0
LINE
  5
697
  8
035
 10
329.658454
 20
113.798363
 30
0.0
 11
329.840784
 21
113.019418
 31
0.0
  0
LINE
  5
698
  8
035
 10
329.742703
 20
113.880935
 30
0.0
 11
329.742703
 21
113.438439
 31
0.0
  0
ARC
  5
699
  8
035
 10
332.142703
 20
103.223574
 30
0.0
 40
11.0
 50
102.641154
 51
120.0
  0
LINE
  5
69A
  8
035
 10
333.227233
 20
110.323574
 30
0.0
 11
331.058173
 21
110.323574
 31
0.0
  0
LINE
  5
69B
  8
035
 10
331.819426
 20
106.523339
 30
0.0
 11
333.393965
 21
106.523339
 31
0.0
  0
LINE
  5
69C
  8
035
 10
332.824793
 20
106.323398
 30
0.0
 11
333.349639
 21
106.323398
 31
0.0
  0
ARC
  5
69D
  8
035
 10
332.142703
 20
103.185234
 30
0.0
 40
10.1
 50
61.15
 51
118.85
  0
ARC
  5
69E
  8
035
 10
326.697981
 20
108.668296
 30
0.0
 40
0.8
 50
42.022256
 51
227.977744
  0
LINE
  5
69F
  8
035
 10
328.635127
 20
105.913518
 30
0.0
 11
329.584848
 21
105.913518
 31
0.0
  0
LINE
  5
6A0
  8
035
 10
328.728211
 20
106.333395
 30
0.0
 11
329.677933
 21
106.333395
 31
0.0
  0
LINE
  5
6A1
  8
035
 10
328.043179
 20
105.723574
 30
0.0
 11
329.542739
 21
105.723574
 31
0.0
  0
LINE
  5
6A2
  8
035
 10
328.220482
 20
106.523339
 30
0.0
 11
329.720042
 21
106.523339
 31
0.0
  0
LINE
  5
6A3
  8
035
 10
328.702724
 20
106.218429
 30
0.0
 11
329.577467
 21
106.218429
 31
0.0
  0
LINE
  5
6A4
  8
035
 10
328.660614
 20
106.028485
 30
0.0
 11
329.535358
 21
106.028485
 31
0.0
  0
LINE
  5
6A5
  8
035
 10
327.768259
 20
105.723574
 30
0.0
 11
327.945563
 21
106.523339
 31
0.0
  0
LINE
  5
6A6
  8
035
 10
327.318154
 20
106.173442
 30
0.0
 11
327.395724
 21
106.523339
 31
0.0
  0
LINE
  5
6A7
  8
035
 10
327.395724
 20
106.523339
 30
0.0
 11
327.945563
 21
106.523339
 31
0.0
  0
LINE
  5
6A8
  8
035
 10
327.143443
 20
105.723574
 30
0.0
 11
327.768259
 21
105.723574
 31
0.0
  0
LINE
  5
6A9
  8
035
 10
328.043179
 20
105.723574
 30
0.0
 11
328.220482
 21
106.523339
 31
0.0
  0
LINE
  5
6AA
  8
035
 10
328.635127
 20
105.913518
 30
0.0
 11
328.660614
 21
106.028485
 31
0.0
  0
LINE
  5
6AB
  8
035
 10
328.702724
 20
106.218429
 30
0.0
 11
328.728211
 21
106.333395
 31
0.0
  0
LINE
  5
6AC
  8
035
 10
325.99378
 20
105.723574
 30
0.0
 11
326.543618
 21
105.723574
 31
0.0
  0
LINE
  5
6AD
  8
035
 10
326.171083
 20
106.523339
 30
0.0
 11
326.820893
 21
106.523339
 31
0.0
  0
LINE
  5
6AE
  8
035
 10
325.99378
 20
105.723574
 30
0.0
 11
326.171083
 21
106.523339
 31
0.0
  0
LINE
  5
6AF
  8
035
 10
326.543618
 20
105.723574
 30
0.0
 11
326.643352
 21
106.173442
 31
0.0
  0
LINE
  5
6B0
  8
035
 10
326.643352
 20
106.173442
 30
0.0
 11
327.143443
 21
105.723574
 31
0.0
  0
LINE
  5
6B1
  8
035
 10
326.820893
 20
106.523339
 30
0.0
 11
327.318154
 21
106.173442
 31
0.0
  0
LINE
  5
6B2
  8
035
 10
331.011824
 20
106.010734
 30
0.0
 11
331.125466
 21
106.523339
 31
0.0
  0
LINE
  5
6B3
  8
035
 10
331.54216
 20
105.929026
 30
0.0
 11
331.673916
 21
106.523339
 31
0.0
  0
LINE
  5
6B4
  8
035
 10
331.125466
 20
106.523339
 30
0.0
 11
331.673916
 21
106.523339
 31
0.0
  0
LINE
  5
6B5
  8
035
 10
331.775101
 20
106.323398
 30
0.0
 11
331.819426
 21
106.523339
 31
0.0
  0
LINE
  5
6B6
  8
035
 10
332.141976
 20
105.723574
 30
0.0
 11
332.274954
 21
106.323398
 31
0.0
  0
LINE
  5
6B7
  8
035
 10
332.691815
 20
105.723574
 30
0.0
 11
332.824793
 21
106.323398
 31
0.0
  0
LINE
  5
6B8
  8
035
 10
331.775101
 20
106.323398
 30
0.0
 11
332.274954
 21
106.323398
 31
0.0
  0
LINE
  5
6B9
  8
035
 10
332.141976
 20
105.723574
 30
0.0
 11
332.691815
 21
105.723574
 31
0.0
  0
LINE
  5
6BA
  8
035
 10
329.535358
 20
106.028485
 30
0.0
 11
329.577467
 21
106.218429
 31
0.0
  0
LINE
  5
6BB
  8
035
 10
329.542739
 20
105.723574
 30
0.0
 11
329.584848
 21
105.913518
 31
0.0
  0
LINE
  5
6BC
  8
035
 10
329.677933
 20
106.333395
 30
0.0
 11
329.720042
 21
106.523339
 31
0.0
  0
LINE
  5
6BD
  8
035
 10
329.846824
 20
105.967869
 30
0.0
 11
329.969969
 21
106.523339
 31
0.0
  0
LINE
  5
6BE
  8
035
 10
330.41053
 20
106.036665
 30
0.0
 11
330.518423
 21
106.523339
 31
0.0
  0
LINE
  5
6BF
  8
035
 10
329.969969
 20
106.523339
 30
0.0
 11
330.518423
 21
106.523339
 31
0.0
  0
POLYLINE
  5
6C0
  8
035
 66
     1
 10
0.0
 20
0.0
 30
0.0
  0
VERTEX
  5
AEC
  8
035
 10
329.846824
 20
105.967869
 30
0.0
 42
0.053304
  0
VERTEX
  5
AED
  8
035
 10
329.844754
 20
105.948508
 30
0.0
 42
0.242955
  0
SEQEND
  5
AEE
  8
035
  0
POLYLINE
  5
6C1
  8
035
 66
     1
 10
0.0
 20
0.0
 30
0.0
  0
VERTEX
  5
AEF
  8
035
 10
330.41053
 20
106.036665
 30
0.0
 42
0.058115
  0
VERTEX
  5
AF0
  8
035
 10
330.408993
 20
106.023486
 30
0.0
 42
0.199105
  0
SEQEND
  5
AF1
  8
035
  0
POLYLINE
  5
6C2
  8
035
 66
     1
 10
0.0
 20
0.0
 30
0.0
  0
VERTEX
  5
AF2
  8
035
 10
329.844754
 20
105.948508
 30
0.0
 42
0.242955
  0
VERTEX
  5
AF3
  8
035
 10
329.883314
 20
105.873837
 30
0.0
 42
0.083039
  0
VERTEX
  5
AF4
  8
035
 10
330.09364
 20
105.771783
 30
0.0
 42
0.041229
  0
VERTEX
  5
AF5
  8
035
 10
330.345576
 20
105.719758
 30
0.0
 42
0.030317
  0
VERTEX
  5
AF6
  8
035
 10
330.694505
 20
105.698581
 30
0.0
 42
0.030317
  0
VERTEX
  5
AF7
  8
035
 10
331.043434
 20
105.719758
 30
0.0
 42
0.041229
  0
VERTEX
  5
AF8
  8
035
 10
331.295369
 20
105.771783
 30
0.0
 42
0.083039
  0
VERTEX
  5
AF9
  8
035
 10
331.505696
 20
105.873837
 30
0.0
 42
0.186877
  0
VERTEX
  5
AFA
  8
035
 10
331.54216
 20
105.929026
 30
0.0
 42
0.242955
  0
SEQEND
  5
AFB
  8
035
  0
POLYLINE
  5
6C3
  8
035
 66
     1
 10
0.0
 20
0.0
 30
0.0
  0
VERTEX
  5
AFC
  8
035
 10
330.408993
 20
106.023486
 30
0.0
 42
0.199105
  0
VERTEX
  5
AFD
  8
035
 10
330.425797
 20
105.982959
 30
0.0
 42
0.098437
  0
VERTEX
  5
AFE
  8
035
 10
330.497486
 20
105.935124
 30
0.0
 42
0.055684
  0
VERTEX
  5
AFF
  8
035
 10
330.588058
 20
105.908989
 30
0.0
 42
0.042444
  0
VERTEX
  5
B00
  8
035
 10
330.711127
 20
105.898523
 30
0.0
 42
0.042444
  0
VERTEX
  5
B01
  8
035
 10
330.834197
 20
105.908989
 30
0.0
 42
0.055684
  0
VERTEX
  5
B02
  8
035
 10
330.924769
 20
105.935124
 30
0.0
 42
0.098437
  0
VERTEX
  5
B03
  8
035
 10
330.996458
 20
105.982959
 30
0.0
 42
0.141327
  0
VERTEX
  5
B04
  8
035
 10
331.011824
 20
106.010734
 30
0.0
 42
0.199105
  0
SEQEND
  5
B05
  8
035
  0
LINE
  5
6C4
  8
035
 10
329.142703
 20
112.554757
 30
0.0
 11
328.371491
 21
112.554757
 31
0.0
  0
ARC
  5
6C5
  8
035
 10
332.142703
 20
103.223574
 30
0.0
 40
8.0
 50
102.767342
 51
129.584042
  0
LINE
  5
6C6
  8
035
 10
327.985013
 20
113.261127
 30
0.0
 11
327.933185
 21
113.386249
 31
0.0
  0
ARC
  5
6C7
  8
035
 10
326.620433
 20
112.388427
 30
0.0
 40
0.2
 50
30.0
 51
121.071011
  0
ARC
  5
6C8
  8
035
 10
326.995503
 20
111.738786
 30
0.0
 40
0.2
 50
301.151751
 51
30.0
  0
ARC
  5
6C9
  8
035
 10
328.150996
 20
112.337782
 30
0.0
 40
0.2
 50
293.651752
 51
22.5
  0
LINE
  5
6CA
  8
035
 10
328.335772
 20
112.414318
 30
0.0
 11
328.29116
 21
112.522023
 31
0.0
  0
LINE
  5
6CB
  8
035
 10
326.642703
 20
112.749854
 30
0.0
 11
327.168708
 21
111.838786
 31
0.0
  0
LINE
  5
6CC
  8
035
 10
326.883254
 20
112.732391
 30
0.0
 11
327.269269
 21
112.031682
 31
0.0
  0
ARC
  5
6CD
  8
035
 10
330.41896
 20
110.830723
 30
0.0
 40
0.2
 50
30.0
 51
102.767342
  0
LINE
  5
6CE
  8
035
 10
330.884968
 20
110.423574
 30
0.0
 11
330.592166
 21
110.930723
 31
0.0
  0
LINE
  5
6CF
  8
035
 10
329.342703
 20
112.354757
 30
0.0
 11
329.342703
 21
110.717572
 31
0.0
  0
ARC
  5
6D0
  8
035
 10
331.058173
 20
110.523574
 30
0.0
 40
0.2
 50
210.0
 51
270.0
  0
ARC
  5
6D1
  8
035
 10
329.142703
 20
112.354757
 30
0.0
 40
0.2
 50
0.0
 51
90.0
  0
LINE
  5
6D2
  8
035
 10
330.642703
 20
113.173227
 30
0.0
 11
330.642703
 21
110.843189
 31
0.0
  0
LINE
  5
6D3
  8
035
 10
336.85796
 20
106.252831
 30
0.0
 11
337.492762
 21
106.523339
 31
0.0
  0
LINE
  5
6D4
  8
035
 10
337.019554
 20
106.023486
 30
0.0
 11
337.315458
 21
105.723574
 31
0.0
  0
LINE
  5
6D5
  8
035
 10
335.071971
 20
105.807269
 30
0.0
 11
335.084994
 21
105.993515
 31
0.0
  0
ARC
  5
6D6
  8
035
 10
335.19663
 20
105.798552
 30
0.0
 40
0.124963
 50
176.0
 51
216.869898
  0
POLYLINE
  5
6D7
  8
035
 66
     1
 10
0.0
 20
0.0
 30
0.0
  0
VERTEX
  5
B06
  8
035
 10
335.084994
 20
105.993515
 30
0.0
 42
0.084831
  0
VERTEX
  5
B07
  8
035
 10
335.082139
 20
106.024286
 30
0.0
 42
0.153048
  0
VERTEX
  5
B08
  8
035
 10
335.052735
 20
106.070613
 30
0.0
 42
0.025315
  0
VERTEX
  5
B09
  8
035
 10
335.03795
 20
106.081874
 30
0.0
 42
0.067948
  0
SEQEND
  5
B0A
  8
035
  0
LINE
  5
6D8
  8
035
 10
335.341038
 20
105.723574
 30
0.0
 11
335.518341
 21
106.523339
 31
0.0
  0
LINE
  5
6D9
  8
035
 10
335.890876
 20
105.723574
 30
0.0
 11
336.06818
 21
106.523339
 31
0.0
  0
LINE
  5
6DA
  8
035
 10
335.341038
 20
105.723574
 30
0.0
 11
335.890876
 21
105.723574
 31
0.0
  0
LINE
  5
6DB
  8
035
 10
335.518341
 20
106.523339
 30
0.0
 11
336.06818
 21
106.523339
 31
0.0
  0
LINE
  5
6DC
  8
035
 10
336.215781
 20
105.723574
 30
0.0
 11
336.393085
 21
106.523339
 31
0.0
  0
LINE
  5
6DD
  8
035
 10
336.740627
 20
105.723574
 30
0.0
 11
336.784953
 21
105.923515
 31
0.0
  0
LINE
  5
6DE
  8
035
 10
336.393085
 20
106.523339
 30
0.0
 11
336.917931
 21
106.523339
 31
0.0
  0
LINE
  5
6DF
  8
035
 10
336.215781
 20
105.723574
 30
0.0
 11
336.740627
 21
105.723574
 31
0.0
  0
LINE
  5
6E0
  8
035
 10
336.784953
 20
105.923515
 30
0.0
 11
337.019554
 21
106.023486
 31
0.0
  0
LINE
  5
6E1
  8
035
 10
336.85796
 20
106.252831
 30
0.0
 11
336.917931
 21
106.523339
 31
0.0
  0
LINE
  5
6E2
  8
035
 10
333.349639
 20
106.323398
 30
0.0
 11
333.393965
 21
106.523339
 31
0.0
  0
LINE
  5
6E3
  8
035
 10
333.391609
 20
105.723574
 30
0.0
 11
333.568913
 21
106.523339
 31
0.0
  0
LINE
  5
6E4
  8
035
 10
333.941448
 20
105.723574
 30
0.0
 11
333.996856
 21
105.973501
 31
0.0
  0
LINE
  5
6E5
  8
035
 10
333.391609
 20
105.723574
 30
0.0
 11
333.941448
 21
105.723574
 31
0.0
  0
LINE
  5
6E6
  8
035
 10
333.568913
 20
106.523339
 30
0.0
 11
334.972098
 21
106.523339
 31
0.0
  0
LINE
  5
6E7
  8
035
 10
334.520735
 20
105.787293
 30
0.0
 11
334.530801
 21
105.933798
 31
0.0
  0
LINE
  5
6E8
  8
035
 10
333.996856
 20
105.973501
 30
0.0
 11
334.474032
 21
105.973501
 31
0.0
  0
LINE
  5
6E9
  8
035
 10
334.038965
 20
106.163445
 30
0.0
 11
334.466217
 21
106.163445
 31
0.0
  0
LINE
  5
6EA
  8
035
 10
334.038965
 20
106.163445
 30
0.0
 11
334.076642
 21
106.333395
 31
0.0
  0
LINE
  5
6EB
  8
035
 10
334.076642
 20
106.333395
 30
0.0
 11
334.540192
 21
106.333395
 31
0.0
  0
ARC
  5
6EC
  8
035
 10
334.641077
 20
105.788915
 30
0.0
 40
0.120353
 50
180.772005
 51
212.881875
  0
POLYLINE
  5
6ED
  8
035
 66
     1
 10
0.0
 20
0.0
 30
0.0
  0
VERTEX
  5
B0B
  8
035
 10
334.466217
 20
106.163445
 30
0.0
 42
0.065514
  0
VERTEX
  5
B0C
  8
035
 10
334.524312
 20
106.171295
 30
0.0
 42
0.060566
  0
VERTEX
  5
B0D
  8
035
 10
334.574572
 20
106.191532
 30
0.0
 42
0.073981
  0
VERTEX
  5
B0E
  8
035
 10
334.609907
 20
106.218475
 30
0.0
 42
0.106894
  0
VERTEX
  5
B0F
  8
035
 10
334.632004
 20
106.253825
 30
0.0
 42
0.153048
  0
VERTEX
  5
B10
  8
035
 10
334.633239
 20
106.283261
 30
0.0
 42
0.153048
  0
VERTEX
  5
B11
  8
035
 10
334.617452
 20
106.308135
 30
0.0
 42
0.106894
  0
VERTEX
  5
B12
  8
035
 10
334.580641
 20
106.327701
 30
0.0
 42
0.067948
  0
VERTEX
  5
B13
  8
035
 10
334.540192
 20
106.333395
 30
0.0
 42
0.060506
  0
SEQEND
  5
B14
  8
035
  0
POLYLINE
  5
6EE
  8
035
 66
     1
 10
0.0
 20
0.0
 30
0.0
  0
VERTEX
  5
B15
  8
035
 10
334.530801
 20
105.933798
 30
0.0
 42
0.082344
  0
VERTEX
  5
B16
  8
035
 10
334.52986
 20
105.94342
 30
0.0
 42
0.153048
  0
VERTEX
  5
B17
  8
035
 10
334.520388
 20
105.958345
 30
0.0
 42
0.106894
  0
VERTEX
  5
B18
  8
035
 10
334.498301
 20
105.970084
 30
0.0
 42
0.067948
  0
VERTEX
  5
B19
  8
035
 10
334.474032
 20
105.973501
 30
0.0
 42
0.060506
  0
SEQEND
  5
B1A
  8
035
  0
LINE
  5
6EF
  8
035
 10
334.540006
 20
105.723574
 30
0.0
 11
335.096659
 21
105.723574
 31
0.0
  0
POLYLINE
  5
6F0
  8
035
 66
     1
 10
0.0
 20
0.0
 30
0.0
  0
VERTEX
  5
B1B
  8
035
 10
335.03795
 20
106.081874
 30
0.0
 42
0.015369
  0
VERTEX
  5
B1C
  8
035
 10
335.074545
 20
106.100602
 30
0.0
 42
0.073981
  0
VERTEX
  5
B1D
  8
035
 10
335.179841
 20
106.180892
 30
0.0
 42
0.106894
  0
VERTEX
  5
B1E
  8
035
 10
335.245686
 20
106.28623
 30
0.0
 42
0.153048
  0
VERTEX
  5
B1F
  8
035
 10
335.249367
 20
106.373945
 30
0.0
 42
0.153048
  0
VERTEX
  5
B20
  8
035
 10
335.202322
 20
106.448067
 30
0.0
 42
0.106894
  0
VERTEX
  5
B21
  8
035
 10
335.092629
 20
106.50637
 30
0.0
 42
0.067948
  0
VERTEX
  5
B22
  8
035
 10
334.972098
 20
106.523339
 30
0.0
 42
0.060566
  0
SEQEND
  5
B23
  8
035
  0
LINE
  5
6F1
  8
035
 10
337.492762
 20
106.523339
 30
0.0
 11
338.192557
 21
106.523339
 31
0.0
  0
LINE
  5
6F2
  8
035
 10
337.547405
 20
106.24842
 30
0.0
 11
338.065238
 21
105.723574
 31
0.0
  0
LINE
  5
6F3
  8
035
 10
337.547405
 20
106.24842
 30
0.0
 11
338.192557
 21
106.523339
 31
0.0
  0
LINE
  5
6F4
  8
035
 10
337.315458
 20
105.723574
 30
0.0
 11
338.065238
 21
105.723574
 31
0.0
  0
ARC
  5
6F5
  8
035
 10
337.289903
 20
111.738786
 30
0.0
 40
0.2
 50
150.0
 51
238.848249
  0
LINE
  5
6F6
  8
035
 10
337.642703
 20
112.749854
 30
0.0
 11
337.116698
 21
111.838786
 31
0.0
  0
LINE
  5
6F7
  8
035
 10
337.402152
 20
112.732391
 30
0.0
 11
337.016137
 21
112.031682
 31
0.0
  0
LINE
  5
6F8
  8
035
 10
336.300393
 20
113.261127
 30
0.0
 11
336.352221
 21
113.386249
 31
0.0
  0
LINE
  5
6F9
  8
035
 10
335.913915
 20
112.554757
 30
0.0
 11
335.142703
 21
112.554757
 31
0.0
  0
ARC
  5
6FA
  8
035
 10
336.13441
 20
112.337782
 30
0.0
 40
0.2
 50
157.5
 51
246.348248
  0
ARC
  5
6FB
  8
035
 10
333.866446
 20
110.830723
 30
0.0
 40
0.2
 50
77.232658
 51
150.0
  0
ARC
  5
6FC
  8
035
 10
333.227233
 20
110.523574
 30
0.0
 40
0.2
 50
270.0
 51
330.0
  0
LINE
  5
6FD
  8
035
 10
333.400438
 20
110.423574
 30
0.0
 11
333.69324
 21
110.930723
 31
0.0
  0
LINE
  5
6FE
  8
035
 10
334.942703
 20
112.354757
 30
0.0
 11
334.942703
 21
110.717572
 31
0.0
  0
LINE
  5
6FF
  8
035
 10
335.949634
 20
112.414318
 30
0.0
 11
335.994246
 21
112.522023
 31
0.0
  0
ARC
  5
700
  8
035
 10
335.142703
 20
112.354757
 30
0.0
 40
0.2
 50
90.0
 51
180.0
  0
LINE
  5
701
  8
035
 10
333.642703
 20
113.173227
 30
0.0
 11
333.642703
 21
110.843189
 31
0.0
  0
ARC
  5
702
  8
035
 10
337.664973
 20
112.388427
 30
0.0
 40
0.2
 50
58.928989
 51
150.0
  0
LINE
  5
703
  8
035
 10
340.311265
 20
112.68465
 30
0.0
 11
339.067643
 21
111.641127
 31
0.0
  0
ARC
  5
704
  8
035
 10
332.142703
 20
109.685234
 30
0.0
 40
10.0
 50
67.65775
 51
90.0
  0
ARC
  5
705
  8
035
 10
332.142703
 20
109.685234
 30
0.0
 40
10.0
 50
90.0
 51
112.34225
  0
ARC
  5
706
  8
035
 10
329.117284
 20
116.255356
 30
0.0
 40
1.974585
 50
180.128292
 51
270.737625
  0
LINE
  5
707
  8
035
 10
327.142703
 20
117.102105
 30
0.0
 11
327.142703
 21
116.250935
 31
0.0
  0
ARC
  5
708
  8
035
 10
329.142703
 20
117.102105
 30
0.0
 40
2.0
 50
113.621418
 51
180.0
  0
ARC
  5
709
  8
035
 10
329.342703
 20
113.880935
 30
0.0
 40
0.4
 50
0.0
 51
90.0
  0
LINE
  5
70A
  8
035
 10
329.142704
 20
114.280935
 30
0.0
 11
329.342703
 21
114.280935
 31
0.0
  0
ARC
  5
70B
  8
035
 10
335.168122
 20
116.255356
 30
0.0
 40
1.974585
 50
269.262375
 51
359.871708
  0
ARC
  5
70C
  8
035
 10
335.142703
 20
117.102105
 30
0.0
 40
2.0
 50
0.0
 51
66.378582
  0
LINE
  5
70D
  8
035
 10
337.142703
 20
117.102105
 30
0.0
 11
337.142703
 21
116.250935
 31
0.0
  0
ARC
  5
70E
  8
035
 10
334.942703
 20
113.880935
 30
0.0
 40
0.4
 50
90.0
 51
180.0
  0
LINE
  5
70F
  8
035
 10
334.942703
 20
114.280935
 30
0.0
 11
335.142703
 21
114.280935
 31
0.0
  0
SOLID
  5
710
  8
BEM1
 10
335.642703
 20
125.330753
 30
0.0
 11
335.642703
 21
126.497419
 31
0.0
 12
332.142703
 22
125.914086
 32
0.0
 13
332.142703
 23
125.914086
 33
0.0
  0
LINE
  5
711
  8
MITTE
 10
359.192703
 20
104.523574
 30
0.0
 11
359.192703
 21
101.923574
 31
0.0
  0
CIRCLE
  5
712
  8
035
 10
359.192703
 20
103.223574
 30
0.0
 40
1.3
  0
LINE
  5
713
  8
MITTE
 10
351.092703
 20
104.523574
 30
0.0
 11
351.092703
 21
101.923574
 31
0.0
  0
CIRCLE
  5
714
  8
035
 10
351.092703
 20
103.223574
 30
0.0
 40
1.3
  0
INSERT
  5
715
  8
025
  2
NT
 10
355.142703
 20
103.223574
 30
0.0
 41
3.0
 42
3.0
 43
3.0
  0
LINE
  5
716
  8
035
 10
343.142703
 20
98.176174
 30
0.0
 11
343.142703
 21
109.108944
 31
0.0
  0
LINE
  5
717
  8
MITTE
 10
355.142703
 20
117.598063
 30
0.0
 11
355.142703
 21
88.84308
 31
0.0
  0
ARC
  5
718
  8
035
 10
355.142703
 20
103.223574
 30
0.0
 40
10.9
 50
121.071011
 51
58.928989
  0
ARC
  5
719
  8
035
 10
355.142703
 20
103.223574
 30
0.0
 40
8.0
 50
140.415958
 51
77.232658
  0
ARC
  5
71A
  8
035
 10
355.142703
 20
103.223574
 30
0.0
 40
9.75
 50
113.651752
 51
66.348248
  0
LINE
  5
71B
  8
035
 10
344.142703
 20
97.338206
 30
0.0
 11
344.142703
 21
108.270974
 31
0.0
  0
LINE
  5
71C
  8
035
 10
366.142703
 20
98.176174
 30
0.0
 11
366.142703
 21
109.108944
 31
0.0
  0
LINE
  5
71D
  8
035
 10
365.042198
 20
90.724079
 30
0.0
 11
349.942703
 21
90.724079
 31
0.0
  0
LINE
  5
71E
  8
035
 10
352.082703
 20
90.724079
 30
0.0
 11
352.082703
 21
89.424079
 31
0.0
  0
LINE
  5
71F
  8
035
 10
350.582703
 20
90.724079
 30
0.0
 11
350.582703
 21
89.424079
 31
0.0
  0
ARC
  5
720
  8
035
 10
342.042198
 20
93.324079
 30
0.0
 40
2.6
 50
270.0
 51
34.346556
  0
LINE
  5
721
  8
MITTE
 10
351.332703
 20
91.692513
 30
0.0
 11
351.332703
 21
89.224079
 31
0.0
  0
LINE
  5
722
  8
035
 10
352.082703
 20
89.424079
 30
0.0
 11
350.582703
 21
89.424079
 31
0.0
  0
LINE
  5
723
  8
035
 10
351.882703
 20
89.224079
 30
0.0
 11
350.782703
 21
89.224079
 31
0.0
  0
LINE
  5
724
  8
035
 10
352.082703
 20
89.424079
 30
0.0
 11
351.882703
 21
89.224079
 31
0.0
  0
LINE
  5
725
  8
035
 10
350.782703
 20
89.224079
 30
0.0
 11
350.582703
 21
89.424079
 31
0.0
  0
LINE
  5
726
  8
035
 10
348.681205
 20
92.523743
 30
0.0
 11
349.851462
 21
93.694
 31
0.0
  0
ARC
  5
727
  8
035
 10
355.142703
 20
103.223574
 30
0.0
 40
12.499495
 50
208.707238
 51
245.54259
  0
ARC
  5
728
  8
035
 10
349.142703
 20
98.176174
 30
0.0
 40
6.0
 50
180.0
 51
214.346556
  0
ARC
  5
729
  8
035
 10
355.142703
 20
103.223574
 30
0.0
 40
11.8
 50
210.286897
 51
239.713104
  0
LINE
  5
72A
  8
035
 10
344.442871
 20
96.762076
 30
0.0
 11
345.613129
 21
97.932334
 31
0.0
  0
LINE
  5
72B
  8
035
 10
343.308947
 20
96.773574
 30
0.0
 11
343.892703
 21
96.773574
 31
0.0
  0
LINE
  5
72C
  8
035
 10
343.892703
 20
96.773574
 30
0.0
 11
344.142703
 21
97.023574
 31
0.0
  0
LINE
  5
72D
  8
035
 10
344.142703
 20
97.773574
 30
0.0
 11
344.142703
 21
97.023574
 31
0.0
  0
LINE
  5
72E
  8
035
 10
343.892703
 20
97.773574
 30
0.0
 11
343.892703
 21
96.773574
 31
0.0
  0
ARC
  5
72F
  8
035
 10
344.442703
 20
97.363738
 30
0.0
 40
0.3
 50
180.0
 51
208.707238
  0
LINE
  5
730
  8
035
 10
344.142703
 20
97.773574
 30
0.0
 11
344.142703
 21
97.363738
 31
0.0
  0
ARC
  5
731
  8
035
 10
344.342703
 20
97.338206
 30
0.0
 40
0.2
 50
180.0
 51
208.587806
  0
LINE
  5
732
  8
035
 10
344.435936
 20
96.773574
 30
0.0
 11
343.392703
 21
96.773574
 31
0.0
  0
ARC
  5
733
  8
035
 10
344.442703
 20
97.363738
 30
0.0
 40
0.3
 50
180.0
 51
208.707238
  0
LINE
  5
734
  8
035
 10
344.142703
 20
97.773574
 30
0.0
 11
343.156225
 21
97.773574
 31
0.0
  0
TEXT
  5
735
  8
035
 10
354.517799
 20
96.19719
 30
0.0
 40
1.5
  1
3
  7
HELV
  0
LINE
  5
736
  8
035
 10
349.967703
 20
91.845668
 30
0.0
 11
349.967703
 21
90.724079
 31
0.0
  0
TEXT
  5
737
  8
035
 10
350.430082
 20
100.094966
 30
0.0
 40
1.5
  1
2
  7
HELV
  0
LINE
  5
738
  8
MITTE
 10
356.442703
 20
99.273574
 30
0.0
 11
353.842703
 21
99.273574
 31
0.0
  0
CIRCLE
  5
739
  8
035
 10
355.142703
 20
99.273574
 30
0.0
 40
1.3
  0
ARC
  5
73A
  8
035
 10
365.042198
 20
93.324079
 30
0.0
 40
2.6
 50
270.0
 51
34.346556
  0
LINE
  5
73B
  8
035
 10
359.702703
 20
90.724079
 30
0.0
 11
359.702703
 21
89.424079
 31
0.0
  0
LINE
  5
73C
  8
035
 10
358.202703
 20
90.724079
 30
0.0
 11
358.202703
 21
89.424079
 31
0.0
  0
LINE
  5
73D
  8
MITTE
 10
358.952703
 20
91.692513
 30
0.0
 11
358.952703
 21
89.224079
 31
0.0
  0
LINE
  5
73E
  8
035
 10
359.702703
 20
89.424079
 30
0.0
 11
358.202703
 21
89.424079
 31
0.0
  0
LINE
  5
73F
  8
035
 10
359.502703
 20
89.224079
 30
0.0
 11
358.402703
 21
89.224079
 31
0.0
  0
LINE
  5
740
  8
035
 10
359.702703
 20
89.424079
 30
0.0
 11
359.502703
 21
89.224079
 31
0.0
  0
LINE
  5
741
  8
035
 10
358.402703
 20
89.224079
 30
0.0
 11
358.202703
 21
89.424079
 31
0.0
  0
ARC
  5
742
  8
035
 10
365.042198
 20
93.324079
 30
0.0
 40
1.1
 50
226.186908
 51
133.813061
  0
ARC
  5
743
  8
035
 10
365.042198
 20
93.324079
 30
0.0
 40
1.6
 50
226.567463
 51
133.432537
  0
LINE
  5
744
  8
035
 10
363.942198
 20
94.262162
 30
0.0
 11
363.942198
 21
92.358047
 31
0.0
  0
LINE
  5
745
  8
035
 10
363.942198
 20
92.385996
 30
0.0
 11
363.942198
 21
91.624079
 31
0.0
  0
ARC
  5
746
  8
035
 10
364.142198
 20
92.385996
 30
0.0
 40
0.2
 50
46.186939
 51
180.0
  0
LINE
  5
747
  8
035
 10
363.942198
 20
94.262162
 30
0.0
 11
363.942198
 21
95.024079
 31
0.0
  0
ARC
  5
748
  8
035
 10
364.142198
 20
94.262162
 30
0.0
 40
0.2
 50
180.0
 51
313.813061
  0
LINE
  5
749
  8
035
 10
363.442198
 20
95.024079
 30
0.0
 11
363.442198
 21
91.624079
 31
0.0
  0
LINE
  5
74A
  8
035
 10
363.942198
 20
92.124079
 30
0.0
 11
363.442198
 21
92.124079
 31
0.0
  0
LINE
  5
74B
  8
035
 10
363.942198
 20
94.524079
 30
0.0
 11
363.442198
 21
94.524079
 31
0.0
  0
LINE
  5
74C
  8
035
 10
363.942198
 20
92.824079
 30
0.0
 11
363.442198
 21
92.824079
 31
0.0
  0
LINE
  5
74D
  8
035
 10
363.942198
 20
93.824079
 30
0.0
 11
363.442198
 21
93.824079
 31
0.0
  0
LINE
  5
74E
  8
035
 10
363.942198
 20
91.624079
 30
0.0
 11
363.442198
 21
91.624079
 31
0.0
  0
LINE
  5
74F
  8
035
 10
363.942198
 20
95.024079
 30
0.0
 11
363.442198
 21
95.024079
 31
0.0
  0
TEXT
  5
750
  8
035
 10
358.689848
 20
100.05063
 30
0.0
 40
1.5
  1
1
  7
HELV
  0
ARC
  5
751
  8
035
 10
372.142703
 20
98.176174
 30
0.0
 40
6.0
 50
180.0
 51
214.346556
  0
LINE
  5
752
  8
035
 10
366.308947
 20
96.773574
 30
0.0
 11
366.892703
 21
96.773574
 31
0.0
  0
LINE
  5
753
  8
035
 10
366.892703
 20
96.773574
 30
0.0
 11
367.142703
 21
97.023574
 31
0.0
  0
LINE
  5
754
  8
035
 10
367.142703
 20
97.773574
 30
0.0
 11
367.142703
 21
97.023574
 31
0.0
  0
LINE
  5
755
  8
035
 10
366.892703
 20
97.773574
 30
0.0
 11
366.892703
 21
96.773574
 31
0.0
  0
LINE
  5
756
  8
035
 10
367.142703
 20
97.773574
 30
0.0
 11
366.156225
 21
97.773574
 31
0.0
  0
ARC
  5
757
  8
035
 10
367.442703
 20
97.363738
 30
0.0
 40
0.3
 50
180.0
 51
208.707238
  0
LINE
  5
758
  8
BEM1
 10
355.142703
 20
118.398063
 30
0.0
 11
355.142703
 21
126.714086
 31
0.0
  0
ARC
  5
759
  8
035
 10
357.942703
 20
113.880935
 30
0.0
 40
0.4
 50
90.0
 51
180.0
  0
ARC
  5
75A
  8
035
 10
355.142703
 20
103.223574
 30
0.0
 40
11.0
 50
60.0
 51
77.358845
  0
ARC
  5
75B
  8
035
 10
355.142703
 20
103.185234
 30
0.0
 40
10.9
 50
61.15
 51
77.28019
  0
LINE
  5
75C
  8
035
 10
357.540006
 20
105.723574
 30
0.0
 11
358.096659
 21
105.723574
 31
0.0
  0
LINE
  5
75D
  8
035
 10
356.568913
 20
106.523339
 30
0.0
 11
357.972098
 21
106.523339
 31
0.0
  0
LINE
  5
75E
  8
MITTE
 10
367.500405
 20
103.223574
 30
0.0
 11
342.720348
 21
103.223574
 31
0.0
  0
ARC
  5
75F
  8
035
 10
355.142703
 20
109.685234
 30
0.0
 40
10.0
 50
67.65775
 51
90.0
  0
ARC
  5
760
  8
035
 10
355.142703
 20
103.185234
 30
0.0
 40
10.1
 50
61.15
 51
118.85
  0
LINE
  5
761
  8
035
 10
357.542703
 20
113.880935
 30
0.0
 11
357.542703
 21
113.438439
 31
0.0
  0
LINE
  5
762
  8
035
 10
357.626952
 20
113.798363
 30
0.0
 11
357.444622
 21
113.019418
 31
0.0
  0
LINE
  5
763
  8
035
 10
352.742703
 20
113.880935
 30
0.0
 11
352.742703
 21
113.438439
 31
0.0
  0
LINE
  5
764
  8
035
 10
352.658454
 20
113.798363
 30
0.0
 11
352.840784
 21
113.019418
 31
0.0
  0
ARC
  5
765
  8
035
 10
355.142703
 20
103.185234
 30
0.0
 40
10.9
 50
102.71981
 51
118.85
  0
ARC
  5
766
  8
035
 10
355.142703
 20
103.223574
 30
0.0
 40
11.0
 50
102.641154
 51
120.0
  0
CIRCLE
  5
767
  8
035
 10
345.243208
 20
113.123069
 30
0.0
 40
1.1
  0
CIRCLE
  5
768
  8
035
 10
345.243208
 20
113.123069
 30
0.0
 40
1.6
  0
CIRCLE
  5
769
  8
035
 10
345.243208
 20
113.123069
 30
0.0
 40
1.1
  0
ARC
  5
76A
  8
035
 10
345.243208
 20
113.123069
 30
0.0
 40
2.6
 50
62.465414
 51
214.346556
  0
ARC
  5
76B
  8
035
 10
349.697981
 20
108.668296
 30
0.0
 40
0.8
 50
42.022256
 51
227.977744
  0
LINE
  5
76C
  8
035
 10
349.171083
 20
106.523339
 30
0.0
 11
349.820893
 21
106.523339
 31
0.0
  0
LINE
  5
76D
  8
035
 10
348.99378
 20
105.723574
 30
0.0
 11
349.543618
 21
105.723574
 31
0.0
  0
LINE
  5
76E
  8
035
 10
348.99378
 20
105.723574
 30
0.0
 11
349.171083
 21
106.523339
 31
0.0
  0
LINE
  5
76F
  8
035
 10
342.8785
 20
109.625139
 30
0.0
 11
341.634878
 21
108.581616
 31
0.0
  0
ARC
  5
770
  8
035
 10
342.842703
 20
109.08341
 30
0.0
 40
0.3
 50
0.0
 51
28.707238
  0
ARC
  5
771
  8
035
 10
338.142703
 20
108.270974
 30
0.0
 40
6.0
 50
360.0
 51
34.346556
  0
POLYLINE
  5
772
  8
035
 66
     1
 10
0.0
 20
0.0
 30
0.0
  0
VERTEX
  5
B24
  8
035
 10
353.408993
 20
106.023486
 30
0.0
 42
0.199105
  0
VERTEX
  5
B25
  8
035
 10
353.425797
 20
105.982959
 30
0.0
 42
0.098437
  0
VERTEX
  5
B26
  8
035
 10
353.497486
 20
105.935124
 30
0.0
 42
0.055684
  0
VERTEX
  5
B27
  8
035
 10
353.588058
 20
105.908989
 30
0.0
 42
0.042444
  0
VERTEX
  5
B28
  8
035
 10
353.711127
 20
105.898523
 30
0.0
 42
0.042444
  0
VERTEX
  5
B29
  8
035
 10
353.834197
 20
105.908989
 30
0.0
 42
0.055684
  0
VERTEX
  5
B2A
  8
035
 10
353.924769
 20
105.935124
 30
0.0
 42
0.098437
  0
VERTEX
  5
B2B
  8
035
 10
353.996458
 20
105.982959
 30
0.0
 42
0.141327
  0
VERTEX
  5
B2C
  8
035
 10
354.011824
 20
106.010734
 30
0.0
 42
0.199105
  0
SEQEND
  5
B2D
  8
035
  0
POLYLINE
  5
773
  8
035
 66
     1
 10
0.0
 20
0.0
 30
0.0
  0
VERTEX
  5
B2E
  8
035
 10
352.844754
 20
105.948508
 30
0.0
 42
0.242955
  0
VERTEX
  5
B2F
  8
035
 10
352.883314
 20
105.873837
 30
0.0
 42
0.083039
  0
VERTEX
  5
B30
  8
035
 10
353.09364
 20
105.771783
 30
0.0
 42
0.041229
  0
VERTEX
  5
B31
  8
035
 10
353.345576
 20
105.719758
 30
0.0
 42
0.030317
  0
VERTEX
  5
B32
  8
035
 10
353.694505
 20
105.698581
 30
0.0
 42
0.030317
  0
VERTEX
  5
B33
  8
035
 10
354.043434
 20
105.719758
 30
0.0
 42
0.041229
  0
VERTEX
  5
B34
  8
035
 10
354.295369
 20
105.771783
 30
0.0
 42
0.083039
  0
VERTEX
  5
B35
  8
035
 10
354.505696
 20
105.873837
 30
0.0
 42
0.186877
  0
VERTEX
  5
B36
  8
035
 10
354.54216
 20
105.929026
 30
0.0
 42
0.242955
  0
SEQEND
  5
B37
  8
035
  0
POLYLINE
  5
774
  8
035
 66
     1
 10
0.0
 20
0.0
 30
0.0
  0
VERTEX
  5
B38
  8
035
 10
353.41053
 20
106.036665
 30
0.0
 42
0.058115
  0
VERTEX
  5
B39
  8
035
 10
353.408993
 20
106.023486
 30
0.0
 42
0.199105
  0
SEQEND
  5
B3A
  8
035
  0
POLYLINE
  5
775
  8
035
 66
     1
 10
0.0
 20
0.0
 30
0.0
  0
VERTEX
  5
B3B
  8
035
 10
352.846824
 20
105.967869
 30
0.0
 42
0.053304
  0
VERTEX
  5
B3C
  8
035
 10
352.844754
 20
105.948508
 30
0.0
 42
0.242955
  0
SEQEND
  5
B3D
  8
035
  0
LINE
  5
776
  8
035
 10
352.969969
 20
106.523339
 30
0.0
 11
353.518423
 21
106.523339
 31
0.0
  0
LINE
  5
777
  8
035
 10
353.41053
 20
106.036665
 30
0.0
 11
353.518423
 21
106.523339
 31
0.0
  0
LINE
  5
778
  8
035
 10
352.846824
 20
105.967869
 30
0.0
 11
352.969969
 21
106.523339
 31
0.0
  0
LINE
  5
779
  8
035
 10
352.677933
 20
106.333395
 30
0.0
 11
352.720042
 21
106.523339
 31
0.0
  0
LINE
  5
77A
  8
035
 10
351.702724
 20
106.218429
 30
0.0
 11
351.728211
 21
106.333395
 31
0.0
  0
LINE
  5
77B
  8
035
 10
351.660614
 20
106.028485
 30
0.0
 11
352.535358
 21
106.028485
 31
0.0
  0
LINE
  5
77C
  8
035
 10
351.702724
 20
106.218429
 30
0.0
 11
352.577467
 21
106.218429
 31
0.0
  0
LINE
  5
77D
  8
035
 10
351.728211
 20
106.333395
 30
0.0
 11
352.677933
 21
106.333395
 31
0.0
  0
LINE
  5
77E
  8
035
 10
351.635127
 20
105.913518
 30
0.0
 11
352.584848
 21
105.913518
 31
0.0
  0
LINE
  5
77F
  8
035
 10
352.542739
 20
105.723574
 30
0.0
 11
352.584848
 21
105.913518
 31
0.0
  0
LINE
  5
780
  8
035
 10
352.535358
 20
106.028485
 30
0.0
 11
352.577467
 21
106.218429
 31
0.0
  0
LINE
  5
781
  8
035
 10
351.635127
 20
105.913518
 30
0.0
 11
351.660614
 21
106.028485
 31
0.0
  0
LINE
  5
782
  8
035
 10
351.043179
 20
105.723574
 30
0.0
 11
351.220482
 21
106.523339
 31
0.0
  0
LINE
  5
783
  8
035
 10
350.143443
 20
105.723574
 30
0.0
 11
350.768259
 21
105.723574
 31
0.0
  0
LINE
  5
784
  8
035
 10
350.395724
 20
106.523339
 30
0.0
 11
350.945563
 21
106.523339
 31
0.0
  0
LINE
  5
785
  8
035
 10
349.820893
 20
106.523339
 30
0.0
 11
350.318154
 21
106.173442
 31
0.0
  0
LINE
  5
786
  8
035
 10
349.643352
 20
106.173442
 30
0.0
 11
350.143443
 21
105.723574
 31
0.0
  0
LINE
  5
787
  8
035
 10
350.318154
 20
106.173442
 30
0.0
 11
350.395724
 21
106.523339
 31
0.0
  0
LINE
  5
788
  8
035
 10
350.768259
 20
105.723574
 30
0.0
 11
350.945563
 21
106.523339
 31
0.0
  0
LINE
  5
789
  8
035
 10
349.543618
 20
105.723574
 30
0.0
 11
349.643352
 21
106.173442
 31
0.0
  0
LINE
  5
78A
  8
035
 10
351.220482
 20
106.523339
 30
0.0
 11
352.720042
 21
106.523339
 31
0.0
  0
LINE
  5
78B
  8
035
 10
351.043179
 20
105.723574
 30
0.0
 11
352.542739
 21
105.723574
 31
0.0
  0
POLYLINE
  5
78C
  8
035
 66
     1
 10
0.0
 20
0.0
 30
0.0
  0
VERTEX
  5
B3E
  8
035
 10
357.530801
 20
105.933798
 30
0.0
 42
0.082344
  0
VERTEX
  5
B3F
  8
035
 10
357.52986
 20
105.94342
 30
0.0
 42
0.153048
  0
VERTEX
  5
B40
  8
035
 10
357.520388
 20
105.958345
 30
0.0
 42
0.106894
  0
VERTEX
  5
B41
  8
035
 10
357.498301
 20
105.970084
 30
0.0
 42
0.067948
  0
VERTEX
  5
B42
  8
035
 10
357.474032
 20
105.973501
 30
0.0
 42
0.060506
  0
SEQEND
  5
B43
  8
035
  0
POLYLINE
  5
78D
  8
035
 66
     1
 10
0.0
 20
0.0
 30
0.0
  0
VERTEX
  5
B44
  8
035
 10
357.466217
 20
106.163445
 30
0.0
 42
0.065514
  0
VERTEX
  5
B45
  8
035
 10
357.524312
 20
106.171295
 30
0.0
 42
0.060566
  0
VERTEX
  5
B46
  8
035
 10
357.574572
 20
106.191532
 30
0.0
 42
0.073981
  0
VERTEX
  5
B47
  8
035
 10
357.609907
 20
106.218475
 30
0.0
 42
0.106894
  0
VERTEX
  5
B48
  8
035
 10
357.632004
 20
106.253825
 30
0.0
 42
0.153048
  0
VERTEX
  5
B49
  8
035
 10
357.633239
 20
106.283261
 30
0.0
 42
0.153048
  0
VERTEX
  5
B4A
  8
035
 10
357.617452
 20
106.308135
 30
0.0
 42
0.106894
  0
VERTEX
  5
B4B
  8
035
 10
357.580641
 20
106.327701
 30
0.0
 42
0.067948
  0
VERTEX
  5
B4C
  8
035
 10
357.540192
 20
106.333395
 30
0.0
 42
0.060506
  0
SEQEND
  5
B4D
  8
035
  0
ARC
  5
78E
  8
035
 10
357.641077
 20
105.788915
 30
0.0
 40
0.120353
 50
180.772005
 51
212.881875
  0
LINE
  5
78F
  8
035
 10
357.076642
 20
106.333395
 30
0.0
 11
357.540192
 21
106.333395
 31
0.0
  0
LINE
  5
790
  8
035
 10
357.038965
 20
106.163445
 30
0.0
 11
357.076642
 21
106.333395
 31
0.0
  0
LINE
  5
791
  8
035
 10
357.038965
 20
106.163445
 30
0.0
 11
357.466217
 21
106.163445
 31
0.0
  0
LINE
  5
792
  8
035
 10
356.996856
 20
105.973501
 30
0.0
 11
357.474032
 21
105.973501
 31
0.0
  0
LINE
  5
793
  8
035
 10
357.520735
 20
105.787293
 30
0.0
 11
357.530801
 21
105.933798
 31
0.0
  0
LINE
  5
794
  8
035
 10
356.391609
 20
105.723574
 30
0.0
 11
356.941448
 21
105.723574
 31
0.0
  0
LINE
  5
795
  8
035
 10
356.941448
 20
105.723574
 30
0.0
 11
356.996856
 21
105.973501
 31
0.0
  0
LINE
  5
796
  8
035
 10
356.391609
 20
105.723574
 30
0.0
 11
356.568913
 21
106.523339
 31
0.0
  0
LINE
  5
797
  8
035
 10
355.824793
 20
106.323398
 30
0.0
 11
356.349639
 21
106.323398
 31
0.0
  0
LINE
  5
798
  8
035
 10
356.349639
 20
106.323398
 30
0.0
 11
356.393965
 21
106.523339
 31
0.0
  0
LINE
  5
799
  8
035
 10
355.691815
 20
105.723574
 30
0.0
 11
355.824793
 21
106.323398
 31
0.0
  0
LINE
  5
79A
  8
035
 10
354.775101
 20
106.323398
 30
0.0
 11
355.274954
 21
106.323398
 31
0.0
  0
LINE
  5
79B
  8
035
 10
355.141976
 20
105.723574
 30
0.0
 11
355.274954
 21
106.323398
 31
0.0
  0
LINE
  5
79C
  8
035
 10
354.775101
 20
106.323398
 30
0.0
 11
354.819426
 21
106.523339
 31
0.0
  0
LINE
  5
79D
  8
035
 10
354.125466
 20
106.523339
 30
0.0
 11
354.673916
 21
106.523339
 31
0.0
  0
LINE
  5
79E
  8
035
 10
354.54216
 20
105.929026
 30
0.0
 11
354.673916
 21
106.523339
 31
0.0
  0
LINE
  5
79F
  8
035
 10
354.011824
 20
106.010734
 30
0.0
 11
354.125466
 21
106.523339
 31
0.0
  0
LINE
  5
7A0
  8
035
 10
354.819426
 20
106.523339
 30
0.0
 11
356.393965
 21
106.523339
 31
0.0
  0
LINE
  5
7A1
  8
035
 10
355.141976
 20
105.723574
 30
0.0
 11
355.691815
 21
105.723574
 31
0.0
  0
ARC
  5
7A2
  8
035
 10
353.41896
 20
110.830723
 30
0.0
 40
0.2
 50
30.0
 51
102.767342
  0
LINE
  5
7A3
  8
035
 10
350.985013
 20
113.261127
 30
0.0
 11
350.933185
 21
113.386249
 31
0.0
  0
ARC
  5
7A4
  8
035
 10
349.620433
 20
112.388427
 30
0.0
 40
0.2
 50
30.0
 51
121.071011
  0
LINE
  5
7A5
  8
035
 10
352.142703
 20
112.554757
 30
0.0
 11
351.371491
 21
112.554757
 31
0.0
  0
LINE
  5
7A6
  8
035
 10
352.342703
 20
112.354757
 30
0.0
 11
352.342703
 21
110.717572
 31
0.0
  0
ARC
  5
7A7
  8
035
 10
351.150996
 20
112.337782
 30
0.0
 40
0.2
 50
293.651752
 51
22.5
  0
ARC
  5
7A8
  8
035
 10
349.995503
 20
111.738786
 30
0.0
 40
0.2
 50
301.151751
 51
30.0
  0
ARC
  5
7A9
  8
035
 10
355.142703
 20
103.223574
 30
0.0
 40
8.0
 50
102.767342
 51
129.584042
  0
ARC
  5
7AA
  8
035
 10
352.142703
 20
112.354757
 30
0.0
 40
0.2
 50
0.0
 51
90.0
  0
LINE
  5
7AB
  8
035
 10
349.642703
 20
112.749854
 30
0.0
 11
350.168708
 21
111.838786
 31
0.0
  0
LINE
  5
7AC
  8
035
 10
351.335772
 20
112.414318
 30
0.0
 11
351.29116
 21
112.522023
 31
0.0
  0
LINE
  5
7AD
  8
035
 10
349.883254
 20
112.732391
 30
0.0
 11
350.269269
 21
112.031682
 31
0.0
  0
ARC
  5
7AE
  8
035
 10
356.866446
 20
110.830723
 30
0.0
 40
0.2
 50
77.232658
 51
150.0
  0
ARC
  5
7AF
  8
035
 10
356.227233
 20
110.523574
 30
0.0
 40
0.2
 50
270.0
 51
330.0
  0
LINE
  5
7B0
  8
035
 10
356.400438
 20
110.423574
 30
0.0
 11
356.69324
 21
110.930723
 31
0.0
  0
LINE
  5
7B1
  8
035
 10
356.642703
 20
113.173227
 30
0.0
 11
356.642703
 21
110.843189
 31
0.0
  0
ARC
  5
7B2
  8
035
 10
354.058173
 20
110.523574
 30
0.0
 40
0.2
 50
210.0
 51
270.0
  0
LINE
  5
7B3
  8
035
 10
353.884968
 20
110.423574
 30
0.0
 11
353.592166
 21
110.930723
 31
0.0
  0
LINE
  5
7B4
  8
035
 10
353.642703
 20
113.173227
 30
0.0
 11
353.642703
 21
110.843189
 31
0.0
  0
LINE
  5
7B5
  8
035
 10
356.227233
 20
110.323574
 30
0.0
 11
354.058173
 21
110.323574
 31
0.0
  0
ARC
  5
7B6
  8
035
 10
349.21885
 20
120.748964
 30
0.0
 40
6.0
 50
242.465414
 51
283.885663
  0
ARC
  5
7B7
  8
035
 10
355.142703
 20
109.685234
 30
0.0
 40
10.0
 50
90.0
 51
112.34225
  0
ARC
  5
7B8
  8
035
 10
352.342703
 20
113.880935
 30
0.0
 40
0.4
 50
0.0
 51
90.0
  0
LINE
  5
7B9
  8
035
 10
352.142704
 20
114.280935
 30
0.0
 11
352.342703
 21
114.280935
 31
0.0
  0
LINE
  5
7BA
  8
035
 10
350.142703
 20
117.102105
 30
0.0
 11
350.142703
 21
116.250935
 31
0.0
  0
ARC
  5
7BB
  8
035
 10
352.117284
 20
116.255356
 30
0.0
 40
1.974585
 50
180.128292
 51
270.737625
  0
ARC
  5
7BC
  8
035
 10
352.142703
 20
117.102105
 30
0.0
 40
2.0
 50
113.621418
 51
180.0
  0
ARC
  5
7BD
  8
035
 10
355.142703
 20
103.223574
 30
0.0
 40
12.499495
 50
28.707238
 51
69.08932
  0
LINE
  5
7BE
  8
035
 10
365.8785
 20
109.625139
 30
0.0
 11
364.634878
 21
108.581616
 31
0.0
  0
LINE
  5
7BF
  8
035
 10
360.315458
 20
105.723574
 30
0.0
 11
361.065238
 21
105.723574
 31
0.0
  0
LINE
  5
7C0
  8
035
 10
359.85796
 20
106.252831
 30
0.0
 11
359.917931
 21
106.523339
 31
0.0
  0
LINE
  5
7C1
  8
035
 10
360.547405
 20
106.24842
 30
0.0
 11
361.192557
 21
106.523339
 31
0.0
  0
LINE
  5
7C2
  8
035
 10
360.547405
 20
106.24842
 30
0.0
 11
361.065238
 21
105.723574
 31
0.0
  0
LINE
  5
7C3
  8
035
 10
360.019554
 20
106.023486
 30
0.0
 11
360.315458
 21
105.723574
 31
0.0
  0
LINE
  5
7C4
  8
035
 10
360.492762
 20
106.523339
 30
0.0
 11
361.192557
 21
106.523339
 31
0.0
  0
LINE
  5
7C5
  8
035
 10
359.85796
 20
106.252831
 30
0.0
 11
360.492762
 21
106.523339
 31
0.0
  0
LINE
  5
7C6
  8
035
 10
359.784953
 20
105.923515
 30
0.0
 11
360.019554
 21
106.023486
 31
0.0
  0
LINE
  5
7C7
  8
035
 10
359.740627
 20
105.723574
 30
0.0
 11
359.784953
 21
105.923515
 31
0.0
  0
LINE
  5
7C8
  8
035
 10
359.215781
 20
105.723574
 30
0.0
 11
359.393085
 21
106.523339
 31
0.0
  0
LINE
  5
7C9
  8
035
 10
358.518341
 20
106.523339
 30
0.0
 11
359.06818
 21
106.523339
 31
0.0
  0
LINE
  5
7CA
  8
035
 10
358.341038
 20
105.723574
 30
0.0
 11
358.890876
 21
105.723574
 31
0.0
  0
LINE
  5
7CB
  8
035
 10
358.890876
 20
105.723574
 30
0.0
 11
359.06818
 21
106.523339
 31
0.0
  0
LINE
  5
7CC
  8
035
 10
358.341038
 20
105.723574
 30
0.0
 11
358.518341
 21
106.523339
 31
0.0
  0
POLYLINE
  5
7CD
  8
035
 66
     1
 10
0.0
 20
0.0
 30
0.0
  0
VERTEX
  5
B4E
  8
035
 10
358.03795
 20
106.081874
 30
0.0
 42
0.015369
  0
VERTEX
  5
B4F
  8
035
 10
358.074545
 20
106.100602
 30
0.0
 42
0.073981
  0
VERTEX
  5
B50
  8
035
 10
358.179841
 20
106.180892
 30
0.0
 42
0.106894
  0
VERTEX
  5
B51
  8
035
 10
358.245686
 20
106.28623
 30
0.0
 42
0.153048
  0
VERTEX
  5
B52
  8
035
 10
358.249367
 20
106.373945
 30
0.0
 42
0.153048
  0
VERTEX
  5
B53
  8
035
 10
358.202322
 20
106.448067
 30
0.0
 42
0.106894
  0
VERTEX
  5
B54
  8
035
 10
358.092629
 20
106.50637
 30
0.0
 42
0.067948
  0
VERTEX
  5
B55
  8
035
 10
357.972098
 20
106.523339
 30
0.0
 42
0.060566
  0
SEQEND
  5
B56
  8
035
  0
POLYLINE
  5
7CE
  8
035
 66
     1
 10
0.0
 20
0.0
 30
0.0
  0
VERTEX
  5
B57
  8
035
 10
358.084994
 20
105.993515
 30
0.0
 42
0.084831
  0
VERTEX
  5
B58
  8
035
 10
358.082139
 20
106.024286
 30
0.0
 42
0.153048
  0
VERTEX
  5
B59
  8
035
 10
358.052735
 20
106.070613
 30
0.0
 42
0.025315
  0
VERTEX
  5
B5A
  8
035
 10
358.03795
 20
106.081874
 30
0.0
 42
0.067948
  0
SEQEND
  5
B5B
  8
035
  0
ARC
  5
7CF
  8
035
 10
358.19663
 20
105.798552
 30
0.0
 40
0.124963
 50
176.0
 51
216.869898
  0
LINE
  5
7D0
  8
035
 10
358.071971
 20
105.807269
 30
0.0
 11
358.084994
 21
105.993515
 31
0.0
  0
LINE
  5
7D1
  8
035
 10
359.215781
 20
105.723574
 30
0.0
 11
359.740627
 21
105.723574
 31
0.0
  0
LINE
  5
7D2
  8
035
 10
359.393085
 20
106.523339
 30
0.0
 11
359.917931
 21
106.523339
 31
0.0
  0
ARC
  5
7D3
  8
035
 10
360.664973
 20
112.388427
 30
0.0
 40
0.2
 50
58.928989
 51
150.0
  0
LINE
  5
7D4
  8
035
 10
358.913915
 20
112.554757
 30
0.0
 11
358.142703
 21
112.554757
 31
0.0
  0
LINE
  5
7D5
  8
035
 10
359.300393
 20
113.261127
 30
0.0
 11
359.352221
 21
113.386249
 31
0.0
  0
ARC
  5
7D6
  8
035
 10
360.289903
 20
111.738786
 30
0.0
 40
0.2
 50
150.0
 51
238.848249
  0
ARC
  5
7D7
  8
035
 10
359.13441
 20
112.337782
 30
0.0
 40
0.2
 50
157.5
 51
246.348248
  0
LINE
  5
7D8
  8
035
 10
357.942703
 20
112.354757
 30
0.0
 11
357.942703
 21
110.717572
 31
0.0
  0
ARC
  5
7D9
  8
035
 10
358.142703
 20
112.354757
 30
0.0
 40
0.2
 50
90.0
 51
180.0
  0
LINE
  5
7DA
  8
035
 10
358.949634
 20
112.414318
 30
0.0
 11
358.994246
 21
112.522023
 31
0.0
  0
LINE
  5
7DB
  8
035
 10
360.642703
 20
112.749854
 30
0.0
 11
360.116698
 21
111.838786
 31
0.0
  0
LINE
  5
7DC
  8
035
 10
360.402152
 20
112.732391
 30
0.0
 11
360.016137
 21
112.031682
 31
0.0
  0
ARC
  5
7DD
  8
035
 10
355.142703
 20
103.223574
 30
0.0
 40
11.8
 50
30.25675
 51
49.74325
  0
LINE
  5
7DE
  8
035
 10
363.311265
 20
112.68465
 30
0.0
 11
362.067643
 21
111.641127
 31
0.0
  0
ARC
  5
7DF
  8
035
 10
365.842703
 20
109.08341
 30
0.0
 40
0.3
 50
0.0
 51
28.707238
  0
LINE
  5
7E0
  8
035
 10
360.142703
 20
117.102105
 30
0.0
 11
360.142703
 21
116.250935
 31
0.0
  0
LINE
  5
7E1
  8
035
 10
357.942703
 20
114.280935
 30
0.0
 11
358.142703
 21
114.280935
 31
0.0
  0
ARC
  5
7E2
  8
035
 10
358.168122
 20
116.255356
 30
0.0
 40
1.974585
 50
269.262375
 51
359.871708
  0
ARC
  5
7E3
  8
035
 10
358.142703
 20
117.102105
 30
0.0
 40
2.0
 50
0.0
 51
66.378582
  0
SOLID
  5
7E4
  8
BEM1
 10
351.642703
 20
125.330753
 30
0.0
 11
351.642703
 21
126.497419
 31
0.0
 12
355.142703
 22
125.914086
 32
0.0
 13
355.142703
 23
125.914086
 33
0.0
  0
LINE
  5
7E5
  8
BEM1
 10
343.722479
 20
270.019428
 30
0.0
 11
311.865889
 21
270.019428
 31
0.0
  0
ARC
  5
7E6
  8
05
 10
347.222479
 20
213.511726
 30
0.0
 40
24.0
 50
102.767342
 51
129.584042
  0
LINE
  5
7E7
  8
BEM1
 10
368.320964
 20
183.813241
 30
0.0
 11
318.342048
 21
183.813241
 31
0.0
  0
LINE
  5
7E8
  8
BEM1
 10
321.023995
 20
161.153609
 30
0.0
 11
373.420964
 21
161.153609
 31
0.0
  0
POLYLINE
  5
7E9
  8
035
 66
     1
 10
0.0
 20
0.0
 30
0.0
  0
VERTEX
  5
B5C
  8
035
 10
340.328633
 20
221.686528
 30
0.0
 42
0.242955
  0
VERTEX
  5
B5D
  8
035
 10
340.444312
 20
221.462514
 30
0.0
 42
0.083039
  0
VERTEX
  5
B5E
  8
035
 10
341.075292
 20
221.156354
 30
0.0
 42
0.041229
  0
VERTEX
  5
B5F
  8
035
 10
341.831099
 20
221.000277
 30
0.0
 42
0.030317
  0
VERTEX
  5
B60
  8
035
 10
342.877885
 20
220.936748
 30
0.0
 42
0.030317
  0
VERTEX
  5
B61
  8
035
 10
343.924671
 20
221.000277
 30
0.0
 42
0.041229
  0
VERTEX
  5
B62
  8
035
 10
344.680479
 20
221.156354
 30
0.0
 42
0.083039
  0
VERTEX
  5
B63
  8
035
 10
345.311459
 20
221.462514
 30
0.0
 42
0.186877
  0
VERTEX
  5
B64
  8
035
 10
345.420849
 20
221.628083
 30
0.0
 42
0.242955
  0
SEQEND
  5
B65
  8
035
  0
LINE
  5
7EA
  8
035
 10
340.704277
 20
223.411022
 30
0.0
 11
342.349639
 21
223.411022
 31
0.0
  0
LINE
  5
7EB
  8
MITTE
 10
312.459172
 20
213.511726
 30
0.0
 11
381.707754
 21
213.511726
 31
0.0
  0
ARC
  5
7EC
  8
05
 10
347.222479
 20
213.511726
 30
0.0
 40
24.0
 50
140.415958
 51
77.232658
  0
ARC
  5
7ED
  8
035
 10
347.222479
 20
213.396707
 30
0.0
 40
30.3
 50
61.15
 51
118.85
  0
TEXT
  5
7EE
  8
035
 10
337.161046
 20
248.234612
 30
0.0
 40
5.4
  1
PUSH
  7
HELVL
  0
ARC
  5
7F0
  8
035
 10
347.222479
 20
232.896706
 30
0.0
 40
30.0
 50
90.0
 51
112.34225
  0
ARC
  5
7F1
  8
05
 10
347.222479
 20
213.511726
 30
0.0
 40
29.25
 50
113.651752
 51
66.348248
  0
ARC
  5
7F2
  8
05
 10
347.222479
 20
213.511726
 30
0.0
 40
32.7
 50
121.070783
 51
58.929217
  0
LINE
  5
7F3
  8
05
 10
376.920964
 20
176.013241
 30
0.0
 11
331.622479
 21
176.013241
 31
0.0
  0
LINE
  5
7F4
  8
05
 10
221.096896
 20
241.535879
 30
0.0
 11
221.096896
 21
226.334578
 31
0.0
  0
LINE
  5
7F5
  8
BEM1
 10
308.365889
 20
218.586726
 30
0.0
 11
308.365889
 21
270.819428
 31
0.0
  0
LINE
  5
7F6
  8
BEM1
 10
266.096896
 20
223.761708
 30
0.0
 11
266.096896
 21
270.826038
 31
0.0
  0
LINE
  5
7F7
  8
BEM1
 10
266.096896
 20
223.761708
 30
0.0
 11
266.096896
 21
270.826038
 31
0.0
  0
LINE
  5
7F8
  8
05
 10
244.196896
 20
249.435893
 30
0.0
 11
244.196896
 21
226.484578
 31
0.0
  0
LINE
  5
7F9
  8
05
 10
221.096896
 20
241.535879
 30
0.0
 11
221.096896
 21
189.352093
 31
0.0
  0
ARC
  5
7FA
  8
05
 10
338.222479
 20
240.905276
 30
0.0
 40
0.6
 50
0.0
 51
90.0
  0
LINE
  5
7FB
  8
05
 10
335.801687
 20
241.083959
 30
0.0
 11
335.667849
 21
241.407071
 31
0.0
  0
ARC
  5
7FC
  8
05
 10
330.655668
 20
241.006285
 30
0.0
 40
0.6
 50
30.0
 51
121.071012
  0
LINE
  5
7FD
  8
035
 10
331.444134
 20
242.038177
 30
0.0
 11
332.602178
 21
239.936051
 31
0.0
  0
CIRCLE
  5
7FE
  8
05
 10
317.523995
 20
243.210211
 30
0.0
 40
3.3
  0
SOLID
  5
7FF
  8
BEM1
 10
296.924876
 20
239.710211
 30
0.0
 11
295.758209
 21
239.710211
 31
0.0
 12
296.341543
 22
243.210211
 32
0.0
 13
296.341543
 23
243.210211
 33
0.0
  0
LINE
  5
800
  8
MITTE
 10
317.523995
 20
250.110211
 30
0.0
 11
317.523995
 21
236.310211
 31
0.0
  0
LINE
  5
801
  8
05
 10
332.300495
 20
239.357362
 30
0.0
 11
330.722479
 21
242.090565
 31
0.0
  0
ARC
  5
802
  8
05
 10
317.523995
 20
243.210211
 30
0.0
 40
7.8
 50
62.465414
 51
214.346556
  0
CIRCLE
  5
803
  8
05
 10
317.523995
 20
243.210211
 30
0.0
 40
4.2
  0
LINE
  5
804
  8
05
 10
266.096896
 20
194.160893
 30
0.0
 11
266.096896
 21
220.860893
 31
0.0
  0
LINE
  5
805
  8
05
 10
255.596896
 20
194.760893
 30
0.0
 11
249.896896
 21
202.901336
 31
0.0
  0
LINE
  5
806
  8
05
 10
230.096896
 20
226.936003
 30
0.0
 11
230.096896
 21
188.559911
 31
0.0
  0
LINE
  5
807
  8
05
 10
248.246896
 20
174.437408
 30
0.0
 11
248.246896
 21
224.561355
 31
0.0
  0
ARC
  5
808
  8
05
 10
215.846896
 20
196.335893
 30
0.0
 40
1.95
 50
180.0
 51
0.0
  0
LINE
  5
809
  8
05
 10
246.746896
 20
172.937408
 30
0.0
 11
230.096896
 21
172.937408
 31
0.0
  0
LINE
  5
80A
  8
05
 10
214.616896
 20
172.037408
 30
0.0
 11
214.016896
 21
171.437408
 31
0.0
  0
LINE
  5
80B
  8
05
 10
210.716896
 20
171.437408
 30
0.0
 11
210.116896
 21
172.037408
 31
0.0
  0
LINE
  5
80C
  8
MITTE
 10
212.366896
 20
178.842708
 30
0.0
 11
212.366896
 21
168.819983
 31
0.0
  0
LINE
  5
80D
  8
05
 10
214.016896
 20
171.437408
 30
0.0
 11
210.716896
 21
171.437408
 31
0.0
  0
LINE
  5
80E
  8
05
 10
223.496896
 20
189.738923
 30
0.0
 11
228.012954
 21
190.072601
 31
0.0
  0
LINE
  5
80F
  8
035
 10
221.096896
 20
193.527704
 30
0.0
 11
230.096896
 21
192.68212
 31
0.0
  0
LINE
  5
810
  8
035
 10
221.096896
 20
191.716757
 30
0.0
 11
230.096896
 21
190.871173
 31
0.0
  0
LINE
  5
811
  8
035
 10
221.096896
 20
190.722391
 30
0.0
 11
230.096896
 21
189.876807
 31
0.0
  0
LINE
  5
812
  8
035
 10
230.696896
 20
186.763034
 30
0.0
 11
210.596896
 21
186.763034
 31
0.0
  0
LINE
  5
813
  8
035
 10
230.696896
 20
185.768668
 30
0.0
 11
210.596896
 21
185.768668
 31
0.0
  0
LINE
  5
814
  8
05
 10
218.696896
 20
185.768668
 30
0.0
 11
218.696896
 21
177.437408
 31
0.0
  0
LINE
  5
815
  8
05
 10
214.616896
 20
172.037408
 30
0.0
 11
210.116896
 21
172.037408
 31
0.0
  0
LINE
  5
816
  8
05
 10
210.116896
 20
177.437408
 30
0.0
 11
210.116896
 21
172.037408
 31
0.0
  0
LINE
  5
817
  8
05
 10
214.616896
 20
177.437408
 30
0.0
 11
214.616896
 21
172.037408
 31
0.0
  0
ARC
  5
818
  8
035
 10
210.596896
 20
185.40537
 30
0.0
 40
1.357664
 50
90.0
 51
114.652935
  0
ARC
  5
819
  8
035
 10
210.596897
 20
183.84311
 30
0.0
 40
1.925559
 50
90.000013
 51
107.830941
  0
LINE
  5
81A
  8
05
 10
218.696896
 20
189.352093
 30
0.0
 11
218.696896
 21
188.559911
 31
0.0
  0
LINE
  5
81B
  8
05
 10
223.496896
 20
189.738923
 30
0.0
 11
222.596896
 21
189.738923
 31
0.0
  0
LINE
  5
81C
  8
05
 10
222.596896
 20
190.58146
 30
0.0
 11
222.596896
 21
189.738923
 31
0.0
  0
LINE
  5
81D
  8
05
 10
229.496896
 20
185.768668
 30
0.0
 11
229.496896
 21
177.437408
 31
0.0
  0
LINE
  5
81E
  8
05
 10
228.296896
 20
185.768668
 30
0.0
 11
228.296896
 21
177.437408
 31
0.0
  0
LINE
  5
81F
  8
05
 10
230.096896
 20
185.768668
 30
0.0
 11
230.096896
 21
172.937408
 31
0.0
  0
ARC
  5
820
  8
035
 10
232.3844
 20
188.688593
 30
0.0
 40
2.212496
 50
331.046666
 51
352.317136
  0
LINE
  5
821
  8
05
 10
239.096896
 20
184.768342
 30
0.0
 11
230.096896
 21
184.768342
 31
0.0
  0
LINE
  5
822
  8
05
 10
230.096896
 20
188.605572
 30
0.0
 11
239.096896
 21
188.178151
 31
0.0
  0
LINE
  5
823
  8
05
 10
233.929892
 20
187.063015
 30
0.0
 11
239.096896
 21
187.162983
 31
0.0
  0
LINE
  5
824
  8
05
 10
229.496896
 20
189.882245
 30
0.0
 11
229.496896
 21
188.559911
 31
0.0
  0
LINE
  5
825
  8
05
 10
228.296896
 20
190.045924
 30
0.0
 11
228.296896
 21
188.559911
 31
0.0
  0
ARC
  5
826
  8
035
 10
230.696896
 20
190.556814
 30
0.0
 40
1.996903
 50
270.0
 51
275.273035
  0
ARC
  5
827
  8
035
 10
231.572459
 20
190.132161
 30
0.0
 40
3.140413
 50
306.822143
 51
326.760085
  0
ARC
  5
828
  8
035
 10
230.696896
 20
190.960616
 30
0.0
 40
5.191948
 50
270.0
 51
287.229765
  0
ARC
  5
829
  8
035
 10
230.696896
 20
191.954982
 30
0.0
 40
5.191948
 50
270.0
 51
287.229765
  0
ARC
  5
82A
  8
035
 10
231.0428
 20
189.845236
 30
0.0
 40
4.024162
 50
287.229765
 51
306.822143
  0
ARC
  5
82B
  8
035
 10
231.596895
 20
186.135894
 30
0.0
 40
0.3
 50
270.0
 51
299.919306
  0
ARC
  5
82C
  8
035
 10
231.572459
 20
189.137795
 30
0.0
 40
3.140413
 50
306.822143
 51
331.046666
  0
ARC
  5
82D
  8
035
 10
231.0428
 20
190.839602
 30
0.0
 40
4.024162
 50
287.229765
 51
306.822143
  0
LINE
  5
82E
  8
05
 10
238.196896
 20
188.220893
 30
0.0
 11
238.196896
 21
187.145571
 31
0.0
  0
LINE
  5
82F
  8
05
 10
239.096896
 20
188.178151
 30
0.0
 11
239.096896
 21
184.768342
 31
0.0
  0
LINE
  5
830
  8
05
 10
263.696896
 20
191.760893
 30
0.0
 11
255.596896
 21
191.760893
 31
0.0
  0
ARC
  5
831
  8
05
 10
246.746896
 20
174.437408
 30
0.0
 40
1.5
 50
270.0
 51
0.0
  0
LINE
  5
832
  8
05
 10
255.491865
 20
194.910893
 30
0.0
 11
248.246896
 21
194.910893
 31
0.0
  0
LINE
  5
833
  8
05
 10
248.246896
 20
191.760893
 30
0.0
 11
255.450796
 21
191.760893
 31
0.0
  0
LINE
  5
834
  8
05
 10
255.450796
 20
194.835893
 30
0.0
 11
255.450796
 21
191.760893
 31
0.0
  0
LINE
  5
835
  8
05
 10
255.596896
 20
194.760893
 30
0.0
 11
255.596896
 21
191.760893
 31
0.0
  0
ARC
  5
836
  8
05
 10
263.696896
 20
194.160893
 30
0.0
 40
2.4
 50
270.0
 51
0.0
  0
LINE
  5
837
  8
05
 10
244.196896
 20
226.484578
 30
0.0
 11
238.710593
 21
226.484578
 31
0.0
  0
LINE
  5
838
  8
05
 10
230.096896
 20
226.936003
 30
0.0
 11
246.8254
 21
226.059299
 31
0.0
  0
LINE
  5
839
  8
05
 10
221.096896
 20
237.598146
 30
0.0
 11
244.196896
 21
237.598146
 31
0.0
  0
LINE
  5
83A
  8
05
 10
221.096896
 20
240.399622
 30
0.0
 11
244.196896
 21
240.399622
 31
0.0
  0
LINE
  5
83B
  8
05
 10
221.096896
 20
197.000578
 30
0.0
 11
230.096896
 21
197.000578
 31
0.0
  0
LINE
  5
83C
  8
05
 10
230.096896
 20
200.387207
 30
0.0
 11
221.096896
 21
200.387207
 31
0.0
  0
LINE
  5
83D
  8
05
 10
221.096896
 20
204.735893
 30
0.0
 11
230.096896
 21
204.735893
 31
0.0
  0
LINE
  5
83E
  8
05
 10
221.096896
 20
210.050578
 30
0.0
 11
230.096896
 21
210.050578
 31
0.0
  0
LINE
  5
83F
  8
05
 10
221.096896
 20
216.650578
 30
0.0
 11
230.096896
 21
216.650578
 31
0.0
  0
LINE
  5
840
  8
035
 10
219.195817
 20
212.685893
 30
0.0
 11
230.096896
 21
212.685893
 31
0.0
  0
LINE
  5
841
  8
035
 10
219.195817
 20
214.185893
 30
0.0
 11
230.096896
 21
214.185893
 31
0.0
  0
LINE
  5
842
  8
05
 10
217.898896
 20
200.385893
 30
0.0
 11
220.496896
 21
200.385893
 31
0.0
  0
LINE
  5
843
  8
05
 10
220.496896
 20
202.185893
 30
0.0
 11
217.898896
 21
202.185893
 31
0.0
  0
LINE
  5
844
  8
05
 10
217.898896
 20
200.385893
 30
0.0
 11
217.898896
 21
202.185893
 31
0.0
  0
LINE
  5
845
  8
05
 10
213.896896
 20
197.385893
 30
0.0
 11
213.896896
 21
196.335893
 31
0.0
  0
LINE
  5
846
  8
05
 10
217.796896
 20
197.385893
 30
0.0
 11
217.796896
 21
196.335893
 31
0.0
  0
ARC
  5
847
  8
05
 10
215.846896
 20
196.335893
 30
0.0
 40
1.05
 50
180.0
 51
0.0
  0
LINE
  5
848
  8
05
 10
214.796896
 20
197.385893
 30
0.0
 11
214.796896
 21
196.335893
 31
0.0
  0
LINE
  5
849
  8
05
 10
216.896896
 20
197.385893
 30
0.0
 11
216.896896
 21
196.335893
 31
0.0
  0
LINE
  5
84A
  8
05
 10
220.496896
 20
200.387207
 30
0.0
 11
221.096896
 21
199.787207
 31
0.0
  0
LINE
  5
84B
  8
05
 10
220.496896
 20
202.187207
 30
0.0
 11
221.096896
 21
202.787207
 31
0.0
  0
LINE
  5
84C
  8
05
 10
218.096896
 20
211.850578
 30
0.0
 11
221.096896
 21
211.850578
 31
0.0
  0
LINE
  5
84D
  8
05
 10
218.096896
 20
214.850578
 30
0.0
 11
221.096896
 21
214.850578
 31
0.0
  0
LINE
  5
84E
  8
05
 10
218.096896
 20
214.850578
 30
0.0
 11
218.096896
 21
211.850578
 31
0.0
  0
LINE
  5
84F
  8
035
 10
219.195817
 20
214.185893
 30
0.0
 11
219.195817
 21
212.685893
 31
0.0
  0
LINE
  5
850
  8
05
 10
236.501896
 20
227.834578
 30
0.0
 11
221.096896
 21
227.834578
 31
0.0
  0
LINE
  5
851
  8
05
 10
230.096896
 20
223.334578
 30
0.0
 11
221.096896
 21
223.334578
 31
0.0
  0
LINE
  5
852
  8
05
 10
217.898896
 20
226.484578
 30
0.0
 11
220.496896
 21
226.484578
 31
0.0
  0
LINE
  5
853
  8
05
 10
220.496896
 20
224.684578
 30
0.0
 11
217.898896
 21
224.684578
 31
0.0
  0
LINE
  5
854
  8
05
 10
217.898896
 20
226.484578
 30
0.0
 11
217.898896
 21
224.684578
 31
0.0
  0
LINE
  5
855
  8
05
 10
220.496896
 20
226.484578
 30
0.0
 11
221.096896
 21
227.084578
 31
0.0
  0
LINE
  5
856
  8
05
 10
220.496896
 20
224.684578
 30
0.0
 11
221.096896
 21
224.084578
 31
0.0
  0
LINE
  5
857
  8
05
 10
235.901896
 20
226.484578
 30
0.0
 11
236.501896
 21
227.084578
 31
0.0
  0
LINE
  5
858
  8
05
 10
236.041764
 20
226.624445
 30
0.0
 11
236.501896
 21
227.084578
 31
0.0
  0
LINE
  5
859
  8
05
 10
236.501896
 20
227.084578
 30
0.0
 11
236.501896
 21
227.834578
 31
0.0
  0
LINE
  5
85A
  8
05
 10
236.501896
 20
227.084578
 30
0.0
 11
236.501896
 21
227.834578
 31
0.0
  0
LINE
  5
85B
  8
05
 10
255.596896
 20
220.260893
 30
0.0
 11
249.896896
 21
212.120449
 31
0.0
  0
LINE
  5
85C
  8
05
 10
249.896896
 20
202.901336
 30
0.0
 11
249.896896
 21
212.120449
 31
0.0
  0
LINE
  5
85D
  8
05
 10
263.696896
 20
223.260893
 30
0.0
 11
255.596896
 21
223.260893
 31
0.0
  0
LINE
  5
85E
  8
05
 10
255.491865
 20
220.110893
 30
0.0
 11
248.246896
 21
220.110893
 31
0.0
  0
LINE
  5
85F
  8
05
 10
248.246896
 20
223.260893
 30
0.0
 11
255.450796
 21
223.260893
 31
0.0
  0
ARC
  5
860
  8
05
 10
246.746896
 20
224.561355
 30
0.0
 40
1.5
 50
0.0
 51
87.0
  0
LINE
  5
861
  8
05
 10
255.450796
 20
220.110893
 30
0.0
 11
255.450796
 21
223.260893
 31
0.0
  0
LINE
  5
862
  8
05
 10
255.596896
 20
220.260893
 30
0.0
 11
255.596896
 21
223.260893
 31
0.0
  0
ARC
  5
863
  8
05
 10
263.696896
 20
220.860893
 30
0.0
 40
2.4
 50
0.0
 51
90.0
  0
LINE
  5
864
  8
BEM1
 10
317.523995
 20
160.145376
 30
0.0
 11
317.523995
 21
234.637776
 31
0.0
  0
LINE
  5
865
  8
05
 10
314.222479
 20
197.161726
 30
0.0
 11
314.222479
 21
194.161726
 31
0.0
  0
LINE
  5
866
  8
05
 10
311.972479
 20
197.161726
 30
0.0
 11
311.972479
 21
194.161726
 31
0.0
  0
LINE
  5
867
  8
05
 10
311.972479
 20
194.161726
 30
0.0
 11
311.222479
 21
194.911726
 31
0.0
  0
LINE
  5
868
  8
05
 10
315.122985
 20
194.127231
 30
0.0
 11
318.633759
 21
197.638004
 31
0.0
  0
TEXT
  5
869
  8
BEM1
 62
     3
 10
294.591543
 20
193.147378
 30
0.0
 40
3.5
  1
19.80
 50
90.0
 41
0.7
 51
15.0
  0
ARC
  5
86A
  8
05
 10
347.222479
 20
213.511726
 30
0.0
 40
35.4
 50
210.286897
 51
239.713104
  0
ARC
  5
86B
  8
05
 10
347.222479
 20
213.51173
 30
0.0
 40
37.498485
 50
208.353347
 51
244.835805
  0
LINE
  5
86C
  8
BEM1
 10
296.341543
 20
239.710211
 30
0.0
 11
296.341543
 21
187.313241
 31
0.0
  0
LINE
  5
86D
  8
BEM1
 10
316.805445
 20
183.813241
 30
0.0
 11
295.543384
 21
183.813241
 31
0.0
  0
SOLID
  5
86E
  8
BEM1
 10
296.924876
 20
187.313241
 30
0.0
 11
295.758209
 21
187.313241
 31
0.0
 12
296.341543
 22
183.813241
 32
0.0
 13
296.341543
 23
183.813241
 33
0.0
  0
LINE
  5
86F
  8
05
 10
338.042479
 20
172.113241
 30
0.0
 11
337.442479
 21
171.513241
 31
0.0
  0
LINE
  5
870
  8
05
 10
334.142479
 20
171.513241
 30
0.0
 11
333.542479
 21
172.113241
 31
0.0
  0
LINE
  5
871
  8
MITTE
 10
335.792479
 20
178.918542
 30
0.0
 11
335.792479
 21
168.895817
 31
0.0
  0
SOLID
  5
872
  8
BEM1
 10
321.023995
 20
160.570276
 30
0.0
 11
321.023995
 21
161.736943
 31
0.0
 12
317.523995
 22
161.153609
 32
0.0
 13
317.523995
 23
161.153609
 33
0.0
  0
TEXT
  5
873
  8
BEM1
 62
     3
 10
326.5328
 20
162.903609
 30
0.0
 40
3.5
  1
19.80
 41
0.7
 51
15.0
  0
INSERT
  5
874
  8
BEM1
  2
3
 10
336.134562
 20
164.694667
 30
0.0
  0
LINE
  5
875
  8
05
 10
337.442479
 20
171.513241
 30
0.0
 11
334.142479
 21
171.513241
 31
0.0
  0
LINE
  5
876
  8
05
 10
315.102179
 20
194.161726
 30
0.0
 11
311.972479
 21
194.161726
 31
0.0
  0
LINE
  5
877
  8
05
 10
327.837985
 20
181.412233
 30
0.0
 11
331.348758
 21
184.923005
 31
0.0
  0
LINE
  5
878
  8
05
 10
331.622479
 20
179.02906
 30
0.0
 11
331.622479
 21
176.013241
 31
0.0
  0
ARC
  5
879
  8
05
 10
331.022479
 20
179.02906
 30
0.0
 40
0.6
 50
0.0
 51
64.835805
  0
LINE
  5
87A
  8
05
 10
338.042479
 20
172.113241
 30
0.0
 11
333.542479
 21
172.113241
 31
0.0
  0
LINE
  5
87B
  8
05
 10
333.542479
 20
176.013241
 30
0.0
 11
333.542479
 21
172.113241
 31
0.0
  0
LINE
  5
87C
  8
05
 10
338.042479
 20
176.013241
 30
0.0
 11
338.042479
 21
172.113241
 31
0.0
  0
LINE
  5
87D
  8
05
 10
312.662132
 20
197.386726
 30
0.0
 11
308.365889
 21
197.386726
 31
0.0
  0
LINE
  5
87E
  8
05
 10
312.662132
 20
217.786726
 30
0.0
 11
308.365889
 21
217.786726
 31
0.0
  0
TEXT
  5
87F
  8
BEM1
 62
     3
 10
294.591543
 20
212.849215
 30
0.0
 40
3.5
  1
[0.780"   ]
 50
90.0
 41
0.7
 51
15.0
  0
INSERT
  5
880
  8
BEM1
  2
3
 10
293.120566
 20
203.091152
 30
0.0
 50
90.0
  0
LINE
  5
881
  8
05
 10
308.365889
 20
197.386726
 30
0.0
 11
308.365889
 21
217.786726
 31
0.0
  0
TEXT
  5
882
  8
SCHRAFFIERT
 10
294.190985
 20
225.353544
 30
0.0
 40
2.5
  1
%%p0.004
 50
90.0
 41
0.7
 51
15.0
  0
LINE
  5
883
  8
05
 10
312.565889
 20
220.936726
 30
0.0
 11
312.565889
 21
217.786726
 31
0.0
  0
LINE
  5
884
  8
05
 10
312.722479
 20
223.413383
 30
0.0
 11
312.722479
 21
199.024166
 31
0.0
  0
LINE
  5
885
  8
05
 10
314.222479
 20
195.855621
 30
0.0
 11
314.222479
 21
228.653925
 31
0.0
  0
LINE
  5
886
  8
05
 10
311.222479
 20
197.161726
 30
0.0
 11
314.222479
 21
197.161726
 31
0.0
  0
LINE
  5
887
  8
05
 10
311.222479
 20
197.161726
 30
0.0
 11
314.222479
 21
197.161726
 31
0.0
  0
LINE
  5
888
  8
05
 10
311.222479
 20
197.161726
 30
0.0
 11
311.222479
 21
194.911726
 31
0.0
  0
ARC
  5
889
  8
05
 10
347.222479
 20
213.511726
 30
0.0
 40
37.498485
 50
203.386768
 51
205.850064
  0
LINE
  5
88A
  8
05
 10
312.565889
 20
197.161726
 30
0.0
 11
312.565889
 21
197.386726
 31
0.0
  0
ARC
  5
88B
  8
05
 10
313.722479
 20
199.024166
 30
0.0
 40
1.0
 50
180.0
 51
203.386768
  0
ARC
  5
88C
  8
05
 10
314.822479
 20
195.855621
 30
0.0
 40
0.6
 50
180.0
 51
208.587806
  0
TEXT
  5
88D
  8
035
 10
333.084617
 20
204.125902
 30
0.0
 40
4.5
  1
2
  7
HELV
  0
CIRCLE
  5
88E
  8
05
 10
335.072479
 20
213.511726
 30
0.0
 40
3.75
  0
LINE
  5
88F
  8
MITTE
 10
335.072479
 20
217.411726
 30
0.0
 11
335.072479
 21
209.611726
 31
0.0
  0
ARC
  5
890
  8
05
 10
296.222479
 20
228.653925
 30
0.0
 40
18.0
 50
360.0
 51
34.346556
  0
ARC
  5
891
  8
05
 10
316.322479
 20
223.411726
 30
0.0
 40
3.6
 50
125.685327
 51
180.0
  0
LINE
  5
892
  8
05
 10
312.565889
 20
220.936726
 30
0.0
 11
312.722479
 21
220.936726
 31
0.0
  0
ARC
  5
893
  8
05
 10
330.888313
 20
229.845893
 30
0.0
 40
2.4
 50
42.022256
 51
227.977744
  0
LINE
  5
894
  8
035
 10
332.224698
 20
221.011726
 30
0.0
 11
334.099148
 21
221.011726
 31
0.0
  0
LINE
  5
895
  8
035
 10
332.981543
 20
223.411022
 30
0.0
 11
334.631059
 21
223.411022
 31
0.0
  0
LINE
  5
896
  8
035
 10
328.77571
 20
221.011726
 30
0.0
 11
330.425226
 21
221.011726
 31
0.0
  0
LINE
  5
897
  8
035
 10
328.77571
 20
221.011726
 30
0.0
 11
329.307621
 21
223.411022
 31
0.0
  0
LINE
  5
898
  8
035
 10
331.257049
 20
223.411022
 30
0.0
 11
332.748832
 21
222.36133
 31
0.0
  0
LINE
  5
899
  8
035
 10
332.748832
 20
222.36133
 30
0.0
 11
332.981543
 21
223.411022
 31
0.0
  0
LINE
  5
89A
  8
035
 10
329.307621
 20
223.411022
 30
0.0
 11
331.257049
 21
223.411022
 31
0.0
  0
LINE
  5
89B
  8
035
 10
330.425226
 20
221.011726
 30
0.0
 11
330.724426
 21
222.36133
 31
0.0
  0
LINE
  5
89C
  8
035
 10
330.724426
 20
222.36133
 30
0.0
 11
332.224698
 21
221.011726
 31
0.0
  0
LINE
  5
89D
  8
035
 10
335.455817
 20
223.411022
 30
0.0
 11
339.954497
 21
223.411022
 31
0.0
  0
LINE
  5
89E
  8
035
 10
336.979004
 20
222.841189
 30
0.0
 11
339.828168
 21
222.841189
 31
0.0
  0
LINE
  5
89F
  8
035
 10
336.902542
 20
222.496291
 30
0.0
 11
339.526772
 21
222.496291
 31
0.0
  0
LINE
  5
8A0
  8
035
 10
334.923906
 20
221.011726
 30
0.0
 11
339.422586
 21
221.011726
 31
0.0
  0
LINE
  5
8A1
  8
035
 10
336.699751
 20
221.581559
 30
0.0
 11
339.548915
 21
221.581559
 31
0.0
  0
LINE
  5
8A2
  8
035
 10
336.776213
 20
221.926458
 30
0.0
 11
339.400443
 21
221.926458
 31
0.0
  0
LINE
  5
8A3
  8
035
 10
336.902542
 20
222.496291
 30
0.0
 11
336.979004
 21
222.841189
 31
0.0
  0
LINE
  5
8A4
  8
035
 10
336.699751
 20
221.581559
 30
0.0
 11
336.776213
 21
221.926458
 31
0.0
  0
LINE
  5
8A5
  8
035
 10
334.099148
 20
221.011726
 30
0.0
 11
334.631059
 21
223.411022
 31
0.0
  0
LINE
  5
8A6
  8
035
 10
334.923906
 20
221.011726
 30
0.0
 11
335.455817
 21
223.411022
 31
0.0
  0
LINE
  5
8A7
  8
035
 10
339.828168
 20
222.841189
 30
0.0
 11
339.954497
 21
223.411022
 31
0.0
  0
LINE
  5
8A8
  8
035
 10
339.422586
 20
221.011726
 30
0.0
 11
339.548915
 21
221.581559
 31
0.0
  0
POLYLINE
  5
8A9
  8
035
 66
     1
 10
0.0
 20
0.0
 30
0.0
  0
VERTEX
  5
B66
  8
035
 10
340.334843
 20
221.744611
 30
0.0
 42
0.053304
  0
VERTEX
  5
B67
  8
035
 10
340.328633
 20
221.686528
 30
0.0
 42
0.242955
  0
SEQEND
  5
B68
  8
035
  0
LINE
  5
8AA
  8
035
 10
340.334843
 20
221.744611
 30
0.0
 11
340.704277
 21
223.411022
 31
0.0
  0
LINE
  5
8AB
  8
035
 10
339.400443
 20
221.926458
 30
0.0
 11
339.526772
 21
222.496291
 31
0.0
  0
ARC
  5
8AC
  8
05
 10
331.78088
 20
239.057362
 30
0.0
 40
0.6
 50
301.151752
 51
30.0
  0
ARC
  5
8AD
  8
05
 10
335.247359
 20
240.854348
 30
0.0
 40
0.6
 50
293.651752
 51
22.5
  0
LINE
  5
8AE
  8
05
 10
338.822479
 20
240.905276
 30
0.0
 11
338.822479
 21
235.993719
 31
0.0
  0
LINE
  5
8AF
  8
05
 10
244.196896
 20
245.359912
 30
0.0
 11
215.696896
 21
245.359912
 31
0.0
  0
LINE
  5
8B0
  8
05
 10
244.196896
 20
249.435893
 30
0.0
 11
215.696896
 21
249.435893
 31
0.0
  0
LINE
  5
8B1
  8
05
 10
215.696896
 20
244.371244
 30
0.0
 11
215.696896
 21
250.934377
 31
0.0
  0
LINE
  5
8B2
  8
05
 10
215.696896
 20
244.371244
 30
0.0
 11
215.696896
 21
249.435893
 31
0.0
  0
LINE
  5
8B3
  8
05
 10
215.696896
 20
245.388027
 30
0.0
 11
215.096896
 21
245.107173
 31
0.0
  0
LINE
  5
8B4
  8
05
 10
215.096896
 20
244.371244
 30
0.0
 11
215.096896
 21
245.107173
 31
0.0
  0
TEXT
  5
8B5
  8
BEM1
 62
     3
 10
222.472726
 20
271.769428
 30
0.0
 40
3.5
  1
[1.055"]
 41
0.7
 51
15.0
  0
TEXT
  5
8B6
  8
BEM1
 62
     3
 10
210.132528
 20
271.769428
 30
0.0
 40
3.5
  1
26.80
 41
0.7
 51
15.0
  0
SOLID
  5
8B7
  8
BEM1
 10
262.596896
 20
269.436095
 30
0.0
 11
262.596896
 21
270.602762
 31
0.0
 12
266.096896
 22
270.019428
 32
0.0
 13
266.096896
 23
270.019428
 33
0.0
  0
SOLID
  5
8B8
  8
BEM1
 10
311.865889
 20
270.602762
 30
0.0
 11
311.865889
 21
269.436095
 31
0.0
 12
308.365889
 22
270.019428
 32
0.0
 13
308.365889
 23
270.019428
 33
0.0
  0
LINE
  5
8B9
  8
BEM1
 10
307.201687
 20
243.210211
 30
0.0
 11
295.543384
 21
243.210211
 31
0.0
  0
ARC
  5
8BA
  8
05
 10
329.450921
 20
266.087895
 30
0.0
 40
18.0
 50
242.465414
 51
283.885663
  0
LINE
  5
8BB
  8
MITTE
 10
323.523995
 20
243.210211
 30
0.0
 11
311.523995
 21
243.210211
 31
0.0
  0
LINE
  5
8BC
  8
035
 10
332.222479
 20
255.147318
 30
0.0
 11
332.222479
 21
252.593809
 31
0.0
  0
ARC
  5
8BD
  8
035
 10
347.222479
 20
213.396707
 30
0.0
 40
32.7
 50
102.71981
 51
118.85
  0
ARC
  5
8BE
  8
05
 10
347.222479
 20
213.511726
 30
0.0
 40
33.0
 50
102.641154
 51
120.0
  0
ARC
  5
8BF
  8
035
 10
338.146221
 20
252.607073
 30
0.0
 40
5.923756
 50
180.128292
 51
270.737625
  0
LINE
  5
8C0
  8
05
 10
338.222479
 20
241.505276
 30
0.0
 11
335.908844
 21
241.505276
 31
0.0
  0
LINE
  5
8C1
  8
05
 10
334.749408
 20
243.624384
 30
0.0
 11
334.593926
 21
243.999751
 31
0.0
  0
ARC
  5
8C2
  8
035
 10
338.822479
 20
245.483808
 30
0.0
 40
1.2
 50
0.0
 51
90.0
  0
LINE
  5
8C3
  8
035
 10
338.222481
 20
246.683808
 30
0.0
 11
338.822479
 21
246.683808
 31
0.0
  0
LINE
  5
8C4
  8
035
 10
339.769733
 20
245.236094
 30
0.0
 11
340.316724
 21
242.899258
 31
0.0
  0
LINE
  5
8C5
  8
035
 10
340.022479
 20
245.483808
 30
0.0
 11
340.022479
 21
244.15632
 31
0.0
  0
ARC
  5
8C6
  8
035
 10
338.222479
 20
255.147318
 30
0.0
 40
6.0
 50
113.621418
 51
180.0
  0
TEXT
  5
8C7
  8
BEM1
 62
     3
 10
316.156684
 20
271.769428
 30
0.0
 40
3.5
  1
12.95 [0.51"]
 41
0.7
 51
15.0
 72
     1
 11
327.794184
 21
273.519428
 31
0.0
 73
     2
  0
LINE
  5
8C8
  8
BEM1
 10
384.720964
 20
187.827712
 30
0.0
 11
384.720964
 21
270.819428
 31
0.0
  0
ARC
  5
8C9
  8
05
 10
363.789291
 20
241.006285
 30
0.0
 40
0.6
 50
58.928988
 51
150.0
  0
LINE
  5
8CA
  8
05
 10
358.643272
 20
241.083959
 30
0.0
 11
358.77711
 21
241.407071
 31
0.0
  0
LINE
  5
8CB
  8
035
 10
363.000825
 20
242.038177
 30
0.0
 11
361.842781
 21
239.936051
 31
0.0
  0
ARC
  5
8CC
  8
05
 10
356.222479
 20
240.905276
 30
0.0
 40
0.6
 50
90.0
 51
180.0
  0
LINE
  5
8CD
  8
MITTE
 10
347.222479
 20
247.516097
 30
0.0
 11
347.222479
 21
173.310048
 31
0.0
  0
LINE
  5
8CE
  8
035
 10
349.922479
 20
243.57617
 30
0.0
 11
349.922479
 21
236.163418
 31
0.0
  0
LINE
  5
8CF
  8
035
 10
351.722479
 20
236.370572
 30
0.0
 11
351.722479
 21
242.256665
 31
0.0
  0
LINE
  5
8D0
  8
05
 10
362.144464
 20
239.357362
 30
0.0
 11
363.722479
 21
242.090564
 31
0.0
  0
LINE
  5
8D1
  8
035
 10
342.722479
 20
236.370572
 30
0.0
 11
342.722479
 21
242.256665
 31
0.0
  0
LINE
  5
8D2
  8
035
 10
344.543973
 20
243.57617
 30
0.0
 11
344.522479
 21
236.163418
 31
0.0
  0
ARC
  5
8D3
  8
05
 10
347.222479
 20
213.511726
 30
0.0
 40
37.498485
 50
28.587806
 51
69.08932
  0
LINE
  5
8D4
  8
05
 10
371.728167
 20
241.894954
 30
0.0
 11
367.9973
 21
238.764386
 31
0.0
  0
LINE
  5
8D5
  8
05
 10
382.472479
 20
197.161726
 30
0.0
 11
382.472479
 21
194.161726
 31
0.0
  0
LINE
  5
8D6
  8
05
 10
382.472479
 20
194.161726
 30
0.0
 11
383.222479
 21
194.911726
 31
0.0
  0
TEXT
  5
8D7
  8
035
 10
345.347768
 20
192.432574
 30
0.0
 40
4.5
  1
3
  7
HELV
  0
ARC
  5
8D8
  8
05
 10
398.222479
 20
198.369527
 30
0.0
 40
18.0
 50
180.0
 51
214.346556
  0
SOLID
  5
8D9
  8
BEM1
 10
373.420964
 20
160.570276
 30
0.0
 11
373.420964
 21
161.736943
 31
0.0
 12
376.920964
 22
161.153609
 32
0.0
 13
376.920964
 23
161.153609
 33
0.0
  0
ARC
  5
8DA
  8
05
 10
374.220964
 20
186.627491
 30
0.0
 40
0.6
 50
180.0
 51
313.813061
  0
ARC
  5
8DB
  8
05
 10
374.220964
 20
180.998992
 30
0.0
 40
0.6
 50
46.186939
 51
180.0
  0
LINE
  5
8DC
  8
MITTE
 10
382.920964
 20
183.813241
 30
0.0
 11
370.920964
 21
183.813241
 31
0.0
  0
ARC
  5
8DD
  8
05
 10
376.920964
 20
183.813241
 30
0.0
 40
3.3
 50
226.186908
 51
133.813061
  0
ARC
  5
8DE
  8
05
 10
376.920964
 20
183.813241
 30
0.0
 40
4.2
 50
218.825778
 51
141.174222
  0
LINE
  5
8DF
  8
05
 10
360.302479
 20
171.513241
 30
0.0
 11
360.902479
 21
172.113241
 31
0.0
  0
LINE
  5
8E0
  8
05
 10
356.402479
 20
172.113241
 30
0.0
 11
357.002479
 21
171.513241
 31
0.0
  0
LINE
  5
8E1
  8
MITTE
 10
358.652479
 20
178.918542
 30
0.0
 11
358.652479
 21
168.895817
 31
0.0
  0
TEXT
  5
8E2
  8
BEM1
 62
     3
 10
343.948123
 20
162.903609
 30
0.0
 40
3.5
  1
[0.780"   ]
 41
0.7
 51
15.0
  0
TEXT
  5
8E3
  8
SCHRAFFIERT
 10
356.358085
 20
163.481706
 30
0.0
 40
2.5
  1
%%P0.004
 41
0.7
 51
15.0
  0
LINE
  5
8E4
  8
05
 10
357.002479
 20
171.513241
 30
0.0
 11
360.302479
 21
171.513241
 31
0.0
  0
LINE
  5
8E5
  8
05
 10
356.402479
 20
172.113241
 30
0.0
 11
360.902479
 21
172.113241
 31
0.0
  0
LINE
  5
8E6
  8
05
 10
356.402479
 20
176.013241
 30
0.0
 11
356.402479
 21
172.113241
 31
0.0
  0
LINE
  5
8E7
  8
05
 10
372.120964
 20
188.913241
 30
0.0
 11
372.120964
 21
178.713241
 31
0.0
  0
LINE
  5
8E8
  8
05
 10
373.620964
 20
186.627491
 30
0.0
 11
373.620964
 21
180.915143
 31
0.0
  0
LINE
  5
8E9
  8
05
 10
360.902479
 20
176.013241
 30
0.0
 11
360.902479
 21
172.113241
 31
0.0
  0
LINE
  5
8EA
  8
035
 10
373.620964
 20
182.313241
 30
0.0
 11
372.120964
 21
182.313241
 31
0.0
  0
LINE
  5
8EB
  8
035
 10
373.620964
 20
180.213241
 30
0.0
 11
372.120964
 21
180.213241
 31
0.0
  0
LINE
  5
8EC
  8
05
 10
373.620964
 20
180.998992
 30
0.0
 11
373.620964
 21
178.713241
 31
0.0
  0
LINE
  5
8ED
  8
05
 10
373.620964
 20
178.713241
 30
0.0
 11
372.120964
 21
178.713241
 31
0.0
  0
LINE
  5
8EE
  8
035
 10
373.620964
 20
187.413241
 30
0.0
 11
372.120964
 21
187.413241
 31
0.0
  0
LINE
  5
8EF
  8
05
 10
373.620964
 20
188.913241
 30
0.0
 11
372.120964
 21
188.913241
 31
0.0
  0
LINE
  5
8F0
  8
035
 10
373.620964
 20
185.313241
 30
0.0
 11
372.120964
 21
185.313241
 31
0.0
  0
LINE
  5
8F1
  8
05
 10
373.620964
 20
186.627491
 30
0.0
 11
373.620964
 21
188.913241
 31
0.0
  0
LINE
  5
8F2
  8
BEM1
 10
376.920964
 20
159.785882
 30
0.0
 11
376.920964
 21
174.359193
 31
0.0
  0
LINE
  5
8F3
  8
MITTE
 10
376.920964
 20
190.713241
 30
0.0
 11
376.920964
 21
176.913241
 31
0.0
  0
ARC
  5
8F4
  8
05
 10
376.920964
 20
183.813241
 30
0.0
 40
7.8
 50
270.0
 51
34.346556
  0
LINE
  5
8F5
  8
05
 10
380.72121
 20
194.161726
 30
0.0
 11
382.472479
 21
194.161726
 31
0.0
  0
ARC
  5
8F6
  8
05
 10
347.222479
 20
213.511726
 30
0.0
 40
35.4
 50
30.25675
 51
49.74325
  0
CIRCLE
  5
8F7
  8
05
 10
359.372479
 20
213.511726
 30
0.0
 40
3.75
  0
LINE
  5
8F8
  8
MITTE
 10
351.122479
 20
201.661726
 30
0.0
 11
343.322479
 21
201.661726
 31
0.0
  0
CIRCLE
  5
8F9
  8
05
 10
347.222479
 20
201.661726
 30
0.0
 40
3.75
  0
ARC
  5
8FA
  8
035
 62
     4
 10
347.222479
 20
213.511726
 30
0.0
 40
2.507143
 50
330.577083
 51
35.346236
  0
LINE
  5
8FB
  8
035
 62
     4
 10
349.206473
 20
214.071418
 30
0.0
 11
349.558122
 21
214.423066
 31
0.0
  0
LINE
  5
8FC
  8
035
 62
     4
 10
349.271007
 20
213.741992
 30
0.0
 11
349.653571
 21
214.124556
 31
0.0
  0
LINE
  5
8FD
  8
035
 62
     4
 10
349.277939
 20
213.354964
 30
0.0
 11
349.714015
 21
213.79104
 31
0.0
  0
LINE
  5
8FE
  8
035
 62
     4
 10
349.178792
 20
212.861858
 30
0.0
 11
349.727584
 21
213.41065
 31
0.0
  0
LINE
  5
8FF
  8
035
 62
     4
 10
348.984772
 20
212.273879
 30
0.0
 11
349.667363
 21
212.956469
 31
0.0
  0
CIRCLE
  5
900
  8
035
 62
     4
 10
347.222479
 20
213.511726
 30
0.0
 40
3.9
  0
CIRCLE
  5
901
  8
035
 62
     4
 10
347.222479
 20
213.511726
 30
0.0
 40
3.342857
  0
INSERT
  5
902
  8
035
 62
     4
  2
*X3
 10
287.200449
 20
-11.033837
 30
0.0
 41
1.114286
 42
1.114286
 43
1.114286
  0
LINE
  5
93A
  8
035
 62
     4
 10
348.028708
 20
212.806997
 30
0.0
 11
349.118729
 21
212.199182
 31
0.0
  0
LINE
  5
93B
  8
035
 62
     4
 10
346.999622
 20
211.216325
 30
0.0
 11
346.999622
 21
215.432859
 31
0.0
  0
LINE
  5
93C
  8
035
 62
     4
 10
347.445337
 20
211.216325
 30
0.0
 11
347.445337
 21
215.432859
 31
0.0
  0
LINE
  5
93D
  8
035
 62
     4
 10
346.999622
 20
212.258526
 30
0.0
 11
347.445337
 21
212.704241
 31
0.0
  0
LINE
  5
93E
  8
035
 62
     4
 10
349.287753
 20
212.1829
 30
0.0
 11
349.432271
 21
212.327418
 31
0.0
  0
ARC
  5
93F
  8
035
 62
     4
 10
347.222479
 20
213.511726
 30
0.0
 40
2.507143
 50
150.577083
 51
217.724479
  0
ARC
  5
940
  8
035
 62
     4
 10
347.222479
 20
213.511726
 30
0.0
 40
2.061429
 50
160.726108
 51
217.672445
  0
INSERT
  5
941
  8
035
 62
     4
  2
*X4
 10
287.200449
 20
-11.033837
 30
0.0
 41
1.114286
 42
1.114286
 43
1.114286
  0
ARC
  5
952
  8
035
 62
     4
 10
345.406882
 20
212.107234
 30
0.0
 40
0.211714
 50
217.724479
 51
313.016562
  0
ARC
  5
953
  8
035
 62
     4
 10
347.211337
 20
211.216325
 30
0.0
 40
0.211714
 50
180.0
 51
269.721864
  0
ARC
  5
954
  8
035
 62
     4
 10
347.233622
 20
211.216325
 30
0.0
 40
0.211714
 50
270.278136
 51
0.0
  0
ARC
  5
955
  8
035
 62
     4
 10
347.222479
 20
213.511726
 30
0.0
 40
2.507143
 50
269.721864
 51
270.278136
  0
LINE
  5
956
  8
035
 62
     4
 10
346.999622
 20
211.864567
 30
0.0
 11
347.445337
 21
212.310281
 31
0.0
  0
LINE
  5
957
  8
035
 62
     4
 10
346.999622
 20
211.470607
 30
0.0
 11
347.445337
 21
211.916322
 31
0.0
  0
LINE
  5
958
  8
035
 62
     4
 10
347.030011
 20
211.107036
 30
0.0
 11
347.445337
 21
211.522362
 31
0.0
  0
ARC
  5
959
  8
035
 62
     4
 10
349.221838
 20
212.384092
 30
0.0
 40
0.211714
 50
240.855218
 51
330.577083
  0
LINE
  5
95A
  8
035
 62
     4
 10
345.56768
 20
211.967707
 30
0.0
 11
345.551316
 21
211.952437
 31
0.0
  0
ARC
  5
95B
  8
035
 62
     4
 10
345.423247
 20
212.122503
 30
0.0
 40
0.211714
 50
313.016562
 51
37.672445
  0
ARC
  5
95C
  8
035
 62
     4
 10
345.381774
 20
214.155391
 30
0.0
 40
0.111429
 50
60.855218
 51
160.726108
  0
LINE
  5
95D
  8
035
 62
     4
 10
345.32623
 20
214.82427
 30
0.0
 11
346.416251
 21
214.216456
 31
0.0
  0
ARC
  5
95E
  8
035
 62
     4
 10
345.223121
 20
214.63936
 30
0.0
 40
0.211714
 50
60.855218
 51
150.577083
  0
LINE
  5
95F
  8
035
 62
     4
 10
348.245779
 20
213.19628
 30
0.0
 11
349.008917
 21
212.770741
 31
0.0
  0
LINE
  5
960
  8
035
 62
     4
 10
348.478923
 20
212.555949
 30
0.0
 11
348.806556
 21
212.883581
 31
0.0
  0
LINE
  5
961
  8
035
 62
     4
 10
348.565004
 20
215.333808
 30
0.0
 11
348.57828
 21
215.351828
 31
0.0
  0
ARC
  5
962
  8
035
 62
     4
 10
347.222479
 20
213.511726
 30
0.0
 40
0.835714
 50
330.245677
 51
331.46476
  0
ARC
  5
963
  8
035
 62
     4
 10
347.222479
 20
213.511726
 30
0.0
 40
0.835714
 50
150.245677
 51
151.46476
  0
ARC
  5
964
  8
035
 62
     4
 10
347.222479
 20
213.511726
 30
0.0
 40
2.061429
 50
58.961019
 51
80.12911
  0
ARC
  5
965
  8
035
 62
     4
 10
346.313142
 20
214.031546
 30
0.0
 40
0.211714
 50
330.245677
 51
60.855218
  0
ARC
  5
966
  8
035
 62
     4
 10
348.407836
 20
215.477412
 30
0.0
 40
0.211714
 50
323.616924
 51
58.909008
  0
ARC
  5
967
  8
035
 62
     4
 10
348.394559
 20
215.459393
 30
0.0
 40
0.211714
 50
238.961041
 51
323.616924
  0
ARC
  5
968
  8
035
 62
     4
 10
348.131816
 20
212.991906
 30
0.0
 40
0.211714
 50
150.245677
 51
240.855218
  0
ARC
  5
969
  8
035
 62
     4
 10
348.14267
 20
213.01137
 30
0.0
 40
0.211714
 50
60.855218
 51
151.46476
  0
ARC
  5
96A
  8
035
 62
     4
 10
346.888194
 20
215.432859
 30
0.0
 40
0.111429
 50
0.0
 51
99.87089
  0
ARC
  5
96B
  8
035
 62
     4
 10
347.556765
 20
215.432859
 30
0.0
 40
0.111429
 50
80.12911
 51
180.0
  0
LINE
  5
96C
  8
035
 62
     4
 10
346.999622
 20
213.046445
 30
0.0
 11
347.445337
 21
213.49216
 31
0.0
  0
LINE
  5
96D
  8
035
 62
     4
 10
346.999622
 20
213.440405
 30
0.0
 11
347.445337
 21
213.886119
 31
0.0
  0
LINE
  5
96E
  8
035
 62
     4
 10
346.999622
 20
213.834364
 30
0.0
 11
347.445337
 21
214.280079
 31
0.0
  0
LINE
  5
96F
  8
035
 62
     4
 10
348.413815
 20
215.248557
 30
0.0
 11
348.618122
 21
215.452864
 31
0.0
  0
LINE
  5
970
  8
035
 62
     4
 10
346.999622
 20
214.228324
 30
0.0
 11
347.445337
 21
214.674038
 31
0.0
  0
LINE
  5
971
  8
035
 62
     4
 10
348.132643
 20
215.361345
 30
0.0
 11
348.462208
 21
215.690909
 31
0.0
  0
LINE
  5
972
  8
035
 62
     4
 10
346.999622
 20
214.622283
 30
0.0
 11
347.445337
 21
215.067998
 31
0.0
  0
LINE
  5
973
  8
035
 62
     4
 10
347.852015
 20
215.474676
 30
0.0
 11
348.198448
 21
215.821109
 31
0.0
  0
LINE
  5
974
  8
035
 62
     4
 10
346.999622
 20
215.016243
 30
0.0
 11
347.450847
 21
215.467468
 31
0.0
  0
LINE
  5
975
  8
035
 62
     4
 10
347.522157
 20
215.538777
 30
0.0
 11
347.906994
 21
215.923614
 31
0.0
  0
LINE
  5
976
  8
035
 62
     4
 10
346.999622
 20
215.410202
 30
0.0
 11
347.58233
 21
215.99291
 31
0.0
  0
LINE
  5
977
  8
035
 62
     4
 10
346.701766
 20
215.506305
 30
0.0
 11
347.214316
 21
216.018856
 31
0.0
  0
LINE
  5
978
  8
035
 62
     4
 10
346.999622
 20
212.652486
 30
0.0
 11
347.445337
 21
213.0982
 31
0.0
  0
LINE
  5
979
  8
035
 62
     4
 10
347.979704
 20
212.844649
 30
0.0
 11
348.300707
 21
213.165651
 31
0.0
  0
LINE
  5
97A
  8
035
 62
     4
 10
348.225999
 20
212.696984
 30
0.0
 11
348.553631
 21
213.024616
 31
0.0
  0
LINE
  5
97B
  8
BEM1
 10
346.322479
 20
213.511726
 30
0.0
 11
348.122479
 21
213.511726
 31
0.0
  0
LINE
  5
97C
  8
BEM1
 10
347.222479
 20
212.611726
 30
0.0
 11
347.222479
 21
214.411726
 31
0.0
  0
LINE
  5
97D
  8
BEM1
 10
346.322479
 20
213.511726
 30
0.0
 11
348.122479
 21
213.511726
 31
0.0
  0
LINE
  5
97E
  8
BEM1
 10
347.222479
 20
212.611726
 30
0.0
 11
347.222479
 21
214.411726
 31
0.0
  0
LINE
  5
97F
  8
035
 62
     4
 10
348.939924
 20
214.985748
 30
0.0
 11
348.956908
 21
215.000325
 31
0.0
  0
ARC
  5
980
  8
035
 62
     4
 10
347.222479
 20
213.511726
 30
0.0
 40
2.061429
 50
340.726108
 51
35.294203
  0
ARC
  5
981
  8
035
 62
     4
 10
349.07781
 20
214.825091
 30
0.0
 40
0.211714
 50
130.63832
 51
215.294203
  0
ARC
  5
982
  8
035
 62
     4
 10
349.094794
 20
214.839668
 30
0.0
 40
0.211714
 50
35.346236
 51
130.63832
  0
ARC
  5
983
  8
035
 62
     4
 10
349.063185
 20
212.868062
 30
0.0
 40
0.111429
 50
240.855218
 51
340.726108
  0
LINE
  5
984
  8
035
 62
     4
 10
349.101228
 20
214.360132
 30
0.0
 11
349.433965
 21
214.692869
 31
0.0
  0
LINE
  5
985
  8
035
 62
     4
 10
348.963168
 20
214.616032
 30
0.0
 11
349.2847
 21
214.937563
 31
0.0
  0
LINE
  5
986
  8
035
 62
     4
 10
348.731848
 20
212.414914
 30
0.0
 11
349.074103
 21
212.757169
 31
0.0
  0
LINE
  5
987
  8
035
 62
     4
 10
345.707821
 20
215.193441
 30
0.0
 11
345.692842
 21
215.210072
 31
0.0
  0
LINE
  5
988
  8
035
 62
     4
 10
345.436042
 20
214.252711
 30
0.0
 11
346.19918
 21
213.827172
 31
0.0
  0
ARC
  5
989
  8
035
 62
     4
 10
345.850156
 20
215.351759
 30
0.0
 40
0.211714
 50
126.716102
 51
222.008185
  0
ARC
  5
98A
  8
035
 62
     4
 10
345.865135
 20
215.335128
 30
0.0
 40
0.211714
 50
222.008185
 51
306.664068
  0
LINE
  5
98B
  8
035
 62
     4
 10
345.662083
 20
215.254541
 30
0.0
 11
346.215141
 21
215.8076
 31
0.0
  0
ARC
  5
98C
  8
035
 62
     4
 10
347.222479
 20
213.511726
 30
0.0
 40
2.507143
 50
58.909008
 51
126.716102
  0
ARC
  5
98D
  8
035
 62
     4
 10
347.222479
 20
213.511726
 30
0.0
 40
2.061429
 50
99.87089
 51
126.664068
  0
ARC
  5
98E
  8
035
 62
     4
 10
346.302289
 20
214.012082
 30
0.0
 40
0.211714
 50
240.855218
 51
331.46476
  0
LINE
  5
98F
  8
035
 62
     4
 10
345.937762
 20
215.136261
 30
0.0
 11
346.781236
 21
215.979736
 31
0.0
  0
TEXT
  5
990
  8
035
 10
357.863916
 20
203.992893
 30
0.0
 40
4.5
  1
1
  7
HELV
  0
LINE
  5
991
  8
MITTE
 10
359.372479
 20
217.411726
 30
0.0
 11
359.372479
 21
209.611726
 31
0.0
  0
LINE
  5
992
  8
035
 10
356.817483
 20
221.011726
 30
0.0
 11
358.466999
 21
221.011726
 31
0.0
  0
LINE
  5
993
  8
035
 10
357.349394
 20
223.411022
 30
0.0
 11
358.99891
 21
223.411022
 31
0.0
  0
LINE
  5
994
  8
035
 10
346.25265
 20
223.411022
 30
0.0
 11
350.976264
 21
223.411022
 31
0.0
  0
LINE
  5
995
  8
035
 10
349.268748
 20
222.811198
 30
0.0
 11
350.843286
 21
222.811198
 31
0.0
  0
LINE
  5
996
  8
035
 10
344.170769
 20
223.411022
 30
0.0
 11
345.816117
 21
223.411022
 31
0.0
  0
LINE
  5
997
  8
035
 10
343.829843
 20
221.873205
 30
0.0
 11
344.170769
 21
223.411022
 31
0.0
  0
POLYLINE
  5
998
  8
035
 66
     1
 10
0.0
 20
0.0
 30
0.0
  0
VERTEX
  5
B69
  8
035
 10
342.02596
 20
221.951
 30
0.0
 42
0.058115
  0
VERTEX
  5
B6A
  8
035
 10
342.021349
 20
221.911462
 30
0.0
 42
0.199105
  0
SEQEND
  5
B6B
  8
035
  0
LINE
  5
999
  8
035
 10
342.02596
 20
221.951
 30
0.0
 11
342.349639
 21
223.411022
 31
0.0
  0
POLYLINE
  5
99A
  8
035
 66
     1
 10
0.0
 20
0.0
 30
0.0
  0
VERTEX
  5
B6C
  8
035
 10
342.021349
 20
221.911462
 30
0.0
 42
0.199105
  0
VERTEX
  5
B6D
  8
035
 10
342.071762
 20
221.789882
 30
0.0
 42
0.098437
  0
VERTEX
  5
B6E
  8
035
 10
342.286829
 20
221.646375
 30
0.0
 42
0.055684
  0
VERTEX
  5
B6F
  8
035
 10
342.558545
 20
221.56797
 30
0.0
 42
0.042444
  0
VERTEX
  5
B70
  8
035
 10
342.927753
 20
221.536572
 30
0.0
 42
0.042444
  0
VERTEX
  5
B71
  8
035
 10
343.296961
 20
221.56797
 30
0.0
 42
0.055684
  0
VERTEX
  5
B72
  8
035
 10
343.568677
 20
221.646375
 30
0.0
 42
0.098437
  0
VERTEX
  5
B73
  8
035
 10
343.783744
 20
221.789882
 30
0.0
 42
0.141327
  0
VERTEX
  5
B74
  8
035
 10
343.829843
 20
221.873205
 30
0.0
 42
0.199105
  0
SEQEND
  5
B75
  8
035
  0
LINE
  5
99B
  8
035
 10
346.119672
 20
222.811198
 30
0.0
 11
346.25265
 21
223.411022
 31
0.0
  0
LINE
  5
99C
  8
035
 10
346.119672
 20
222.811198
 30
0.0
 11
347.619232
 21
222.811198
 31
0.0
  0
LINE
  5
99D
  8
035
 10
347.220299
 20
221.011726
 30
0.0
 11
348.869815
 21
221.011726
 31
0.0
  0
LINE
  5
99E
  8
035
 10
345.420849
 20
221.628083
 30
0.0
 11
345.816117
 21
223.411022
 31
0.0
  0
LINE
  5
99F
  8
035
 10
347.220299
 20
221.011726
 30
0.0
 11
347.619232
 21
222.811198
 31
0.0
  0
LINE
  5
9A0
  8
035
 10
348.869815
 20
221.011726
 30
0.0
 11
349.268748
 21
222.811198
 31
0.0
  0
LINE
  5
9A1
  8
035
 10
352.911266
 20
222.331339
 30
0.0
 11
354.193023
 21
222.331339
 31
0.0
  0
LINE
  5
9A2
  8
035
 10
353.024297
 20
222.841189
 30
0.0
 11
354.414947
 21
222.841189
 31
0.0
  0
LINE
  5
9A3
  8
035
 10
351.50111
 20
223.411022
 30
0.0
 11
355.710664
 21
223.411022
 31
0.0
  0
LINE
  5
9A4
  8
035
 10
352.784937
 20
221.761506
 30
0.0
 11
354.216467
 21
221.761506
 31
0.0
  0
LINE
  5
9A5
  8
035
 10
350.843286
 20
222.811198
 30
0.0
 11
350.976264
 21
223.411022
 31
0.0
  0
LINE
  5
9A6
  8
035
 10
352.911266
 20
222.331339
 30
0.0
 11
353.024297
 21
222.841189
 31
0.0
  0
LINE
  5
9A7
  8
035
 10
352.618715
 20
221.011726
 30
0.0
 11
352.784937
 21
221.761506
 31
0.0
  0
LINE
  5
9A8
  8
035
 10
350.969199
 20
221.011726
 30
0.0
 11
352.618715
 21
221.011726
 31
0.0
  0
LINE
  5
9A9
  8
035
 10
350.969199
 20
221.011726
 30
0.0
 11
351.50111
 21
223.411022
 31
0.0
  0
POLYLINE
  5
9AA
  8
035
 66
     1
 10
0.0
 20
0.0
 30
0.0
  0
VERTEX
  5
B76
  8
035
 10
354.193023
 20
222.331339
 30
0.0
 42
0.065514
  0
VERTEX
  5
B77
  8
035
 10
354.367308
 20
222.354889
 30
0.0
 42
0.060566
  0
VERTEX
  5
B78
  8
035
 10
354.518086
 20
222.415599
 30
0.0
 42
0.073981
  0
VERTEX
  5
B79
  8
035
 10
354.624092
 20
222.49643
 30
0.0
 42
0.106894
  0
VERTEX
  5
B7A
  8
035
 10
354.690382
 20
222.602479
 30
0.0
 42
0.153048
  0
VERTEX
  5
B7B
  8
035
 10
354.694088
 20
222.690786
 30
0.0
 42
0.153048
  0
VERTEX
  5
B7C
  8
035
 10
354.646725
 20
222.765409
 30
0.0
 42
0.106894
  0
VERTEX
  5
B7D
  8
035
 10
354.536292
 20
222.824106
 30
0.0
 42
0.067948
  0
VERTEX
  5
B7E
  8
035
 10
354.414947
 20
222.841189
 30
0.0
 42
0.060506
  0
SEQEND
  5
B7F
  8
035
  0
LINE
  5
9AB
  8
035
 10
356.010283
 20
221.262811
 30
0.0
 11
356.049353
 21
221.821549
 31
0.0
  0
ARC
  5
9AC
  8
035
 10
356.384259
 20
221.23666
 30
0.0
 40
0.37489
 50
176.0
 51
216.869898
  0
POLYLINE
  5
9AD
  8
035
 66
     1
 10
0.0
 20
0.0
 30
0.0
  0
VERTEX
  5
B80
  8
035
 10
356.049353
 20
221.821549
 30
0.0
 42
0.084831
  0
VERTEX
  5
B81
  8
035
 10
356.040786
 20
221.913862
 30
0.0
 42
0.153048
  0
VERTEX
  5
B82
  8
035
 10
355.952576
 20
222.052842
 30
0.0
 42
0.025315
  0
VERTEX
  5
B83
  8
035
 10
355.908221
 20
222.086625
 30
0.0
 42
0.067948
  0
SEQEND
  5
B84
  8
035
  0
LINE
  5
9AE
  8
035
 10
354.356576
 20
221.202884
 30
0.0
 11
354.386774
 21
221.642399
 31
0.0
  0
ARC
  5
9AF
  8
035
 10
354.717603
 20
221.207749
 30
0.0
 40
0.361059
 50
180.772005
 51
212.881875
  0
POLYLINE
  5
9B0
  8
035
 66
     1
 10
0.0
 20
0.0
 30
0.0
  0
VERTEX
  5
B85
  8
035
 10
354.386774
 20
221.642399
 30
0.0
 42
0.082344
  0
VERTEX
  5
B86
  8
035
 10
354.383951
 20
221.671264
 30
0.0
 42
0.153048
  0
VERTEX
  5
B87
  8
035
 10
354.355534
 20
221.716038
 30
0.0
 42
0.106894
  0
VERTEX
  5
B88
  8
035
 10
354.289274
 20
221.751256
 30
0.0
 42
0.067948
  0
VERTEX
  5
B89
  8
035
 10
354.216467
 20
221.761506
 30
0.0
 42
0.060506
  0
SEQEND
  5
B8A
  8
035
  0
LINE
  5
9B1
  8
035
 10
354.414388
 20
221.011726
 30
0.0
 11
356.084347
 21
221.011726
 31
0.0
  0
POLYLINE
  5
9B2
  8
035
 66
     1
 10
0.0
 20
0.0
 30
0.0
  0
VERTEX
  5
B8B
  8
035
 10
355.908221
 20
222.086625
 30
0.0
 42
0.015369
  0
VERTEX
  5
B8C
  8
035
 10
356.018006
 20
222.142811
 30
0.0
 42
0.073981
  0
VERTEX
  5
B8D
  8
035
 10
356.333892
 20
222.383679
 30
0.0
 42
0.106894
  0
VERTEX
  5
B8E
  8
035
 10
356.531428
 20
222.699694
 30
0.0
 42
0.153048
  0
VERTEX
  5
B8F
  8
035
 10
356.542471
 20
222.962838
 30
0.0
 42
0.153048
  0
VERTEX
  5
B90
  8
035
 10
356.401335
 20
223.185206
 30
0.0
 42
0.106894
  0
VERTEX
  5
B91
  8
035
 10
356.072257
 20
223.360114
 30
0.0
 42
0.067948
  0
VERTEX
  5
B92
  8
035
 10
355.710664
 20
223.411022
 30
0.0
 42
0.060566
  0
SEQEND
  5
B93
  8
035
  0
LINE
  5
9B3
  8
035
 10
356.817483
 20
221.011726
 30
0.0
 11
357.349394
 21
223.411022
 31
0.0
  0
POLYLINE
  5
9B4
  8
035
 66
     1
 10
0.0
 20
0.0
 30
0.0
  0
VERTEX
  5
B94
  8
035
 10
349.022479
 20
237.288114
 30
0.0
 42
0.026752
  0
VERTEX
  5
B95
  8
035
 10
349.392743
 20
237.307938
 30
0.0
 42
0.036692
  0
VERTEX
  5
B96
  8
035
 10
349.658875
 20
237.356458
 30
0.0
 42
0.076545
  0
VERTEX
  5
B97
  8
035
 10
349.885009
 20
237.453797
 30
0.0
 42
0.258414
  0
VERTEX
  5
B98
  8
035
 10
349.922479
 20
237.521456
 30
0.0
 42
0.258414
  0
SEQEND
  5
B99
  8
035
  0
POLYLINE
  5
9B5
  8
035
 66
     1
 10
0.0
 20
0.0
 30
0.0
  0
VERTEX
  5
B9A
  8
035
 10
349.022481
 20
234.996707
 30
0.0
 42
0.123822
  0
VERTEX
  5
B9B
  8
035
 10
349.354256
 20
235.080149
 30
0.0
 42
0.10563
  0
VERTEX
  5
B9C
  8
035
 10
349.658877
 20
235.338429
 30
0.0
 42
0.087166
  0
VERTEX
  5
B9D
  8
035
 10
349.85095
 20
235.704534
 30
0.0
 42
0.077472
  0
VERTEX
  5
B9E
  8
035
 10
349.922481
 20
236.163418
 30
0.0
 42
0.077472
  0
SEQEND
  5
B9F
  8
035
  0
LINE
  5
9B6
  8
05
 10
343.967852
 20
234.813524
 30
0.0
 11
350.477107
 21
234.813524
 31
0.0
  0
LINE
  5
9B7
  8
05
 10
342.570867
 20
236.633172
 30
0.0
 11
343.448236
 21
235.113524
 31
0.0
  0
POLYLINE
  5
9B8
  8
035
 66
     1
 10
0.0
 20
0.0
 30
0.0
  0
VERTEX
  5
BA0
  8
035
 10
344.522479
 20
236.163418
 30
0.0
 42
0.077472
  0
VERTEX
  5
BA1
  8
035
 10
344.59401
 20
235.704534
 30
0.0
 42
0.087166
  0
VERTEX
  5
BA2
  8
035
 10
344.786083
 20
235.338429
 30
0.0
 42
0.10563
  0
VERTEX
  5
BA3
  8
035
 10
345.090703
 20
235.080149
 30
0.0
 42
0.123822
  0
VERTEX
  5
BA4
  8
035
 10
345.422479
 20
234.996707
 30
0.0
 42
0.123822
  0
SEQEND
  5
BA5
  8
035
  0
LINE
  5
9B9
  8
035
 10
343.922479
 20
234.813524
 30
0.0
 11
343.922479
 21
240.169968
 31
0.0
  0
LINE
  5
9BA
  8
035
 10
344.08842
 20
234.811726
 30
0.0
 11
344.02874
 21
234.831489
 31
0.0
  0
LINE
  5
9BB
  8
035
 10
344.02874
 20
234.831489
 30
0.0
 11
343.988596
 21
234.858948
 31
0.0
  0
LINE
  5
9BC
  8
035
 10
343.988596
 20
234.858948
 30
0.0
 11
343.96113
 21
234.89697
 31
0.0
  0
LINE
  5
9BD
  8
035
 10
343.96113
 20
234.89697
 30
0.0
 11
343.935073
 21
234.94837
 31
0.0
  0
LINE
  5
9BE
  8
035
 10
343.935073
 20
234.94837
 30
0.0
 11
343.925917
 21
235.007516
 31
0.0
  0
LINE
  5
9BF
  8
035
 10
343.925917
 20
235.007516
 30
0.0
 11
343.922479
 21
235.080743
 31
0.0
  0
POLYLINE
  5
9C0
  8
035
 66
     1
 10
0.0
 20
0.0
 30
0.0
  0
VERTEX
  5
BA6
  8
035
 10
343.952675
 20
234.913648
 30
0.0
 42
-0.031392
  0
VERTEX
  5
BA7
  8
035
 10
344.493388
 20
234.839478
 30
0.0
 42
-0.297072
  0
VERTEX
  5
BA8
  8
035
 10
344.521632
 20
234.811726
 30
0.0
 42
-0.357035
  0
SEQEND
  5
BA9
  8
035
  0
ARC
  5
9C1
  8
05
 10
343.967852
 20
235.413524
 30
0.0
 40
0.6
 50
210.0
 51
270.0
  0
LINE
  5
9C2
  8
035
 10
349.022481
 20
234.996707
 30
0.0
 11
345.422479
 21
234.996707
 31
0.0
  0
POLYLINE
  5
9C3
  8
035
 66
     1
 10
0.0
 20
0.0
 30
0.0
  0
VERTEX
  5
BAA
  8
035
 10
344.522479
 20
237.521456
 30
0.0
 42
0.258414
  0
VERTEX
  5
BAB
  8
035
 10
344.55995
 20
237.453797
 30
0.0
 42
0.076545
  0
VERTEX
  5
BAC
  8
035
 10
344.786083
 20
237.356458
 30
0.0
 42
0.036692
  0
VERTEX
  5
BAD
  8
035
 10
345.052215
 20
237.307938
 30
0.0
 42
0.026752
  0
VERTEX
  5
BAE
  8
035
 10
345.422479
 20
237.288114
 30
0.0
 42
0.026752
  0
SEQEND
  5
BAF
  8
035
  0
LINE
  5
9C4
  8
035
 10
342.722479
 20
240.169968
 30
0.0
 11
343.922479
 21
240.169968
 31
0.0
  0
ARC
  5
9C5
  8
05
 10
342.051252
 20
236.333172
 30
0.0
 40
0.6
 50
30.0
 51
102.767342
  0
LINE
  5
9C6
  8
035
 10
345.422479
 20
237.288114
 30
0.0
 11
349.022479
 21
237.288114
 31
0.0
  0
LINE
  5
9C7
  8
05
 10
351.874092
 20
236.633172
 30
0.0
 11
350.996722
 21
235.113524
 31
0.0
  0
LINE
  5
9C8
  8
035
 10
350.522479
 20
234.813524
 30
0.0
 11
350.522479
 21
240.169968
 31
0.0
  0
LINE
  5
9C9
  8
035
 10
350.416219
 20
234.831489
 30
0.0
 11
350.456362
 21
234.858948
 31
0.0
  0
LINE
  5
9CA
  8
035
 10
350.456362
 20
234.858948
 30
0.0
 11
350.483829
 21
234.89697
 31
0.0
  0
LINE
  5
9CB
  8
035
 10
350.483829
 20
234.89697
 30
0.0
 11
350.509886
 21
234.94837
 31
0.0
  0
LINE
  5
9CC
  8
035
 10
350.509886
 20
234.94837
 30
0.0
 11
350.519041
 21
235.007516
 31
0.0
  0
LINE
  5
9CD
  8
035
 10
350.519041
 20
235.007516
 30
0.0
 11
350.522479
 21
235.080743
 31
0.0
  0
ARC
  5
9CE
  8
05
 10
350.477107
 20
235.413524
 30
0.0
 40
0.6
 50
270.0
 51
330.0
  0
POLYLINE
  5
9CF
  8
035
 66
     1
 10
0.0
 20
0.0
 30
0.0
  0
VERTEX
  5
BB0
  8
035
 10
350.492283
 20
234.913648
 30
0.0
 42
0.031392
  0
VERTEX
  5
BB1
  8
035
 10
349.951571
 20
234.839478
 30
0.0
 42
0.297072
  0
VERTEX
  5
BB2
  8
035
 10
349.923327
 20
234.811726
 30
0.0
 42
0.357035
  0
SEQEND
  5
BB3
  8
035
  0
LINE
  5
9D0
  8
035
 10
351.722479
 20
240.169968
 30
0.0
 11
350.522479
 21
240.169968
 31
0.0
  0
ARC
  5
9D1
  8
05
 10
352.393707
 20
236.333172
 30
0.0
 40
0.6
 50
77.232658
 51
150.0
  0
LINE
  5
9D2
  8
05
 10
355.622479
 20
240.905276
 30
0.0
 11
355.622479
 21
235.993719
 31
0.0
  0
LINE
  5
9D3
  8
035
 10
361.368251
 20
222.599496
 30
0.0
 11
363.272656
 21
223.411022
 31
0.0
  0
LINE
  5
9D4
  8
035
 10
361.149229
 20
221.61155
 30
0.0
 11
361.853031
 21
221.911462
 31
0.0
  0
LINE
  5
9D5
  8
035
 10
359.973624
 20
223.411022
 30
0.0
 11
361.548162
 21
223.411022
 31
0.0
  0
LINE
  5
9D6
  8
035
 10
361.368251
 20
222.599496
 30
0.0
 11
361.548162
 21
223.411022
 31
0.0
  0
LINE
  5
9D7
  8
035
 10
359.441713
 20
221.011726
 30
0.0
 11
361.016251
 21
221.011726
 31
0.0
  0
LINE
  5
9D8
  8
035
 10
361.016251
 20
221.011726
 30
0.0
 11
361.149229
 21
221.61155
 31
0.0
  0
LINE
  5
9D9
  8
035
 10
359.441713
 20
221.011726
 30
0.0
 11
359.973624
 21
223.411022
 31
0.0
  0
LINE
  5
9DA
  8
035
 10
358.466999
 20
221.011726
 30
0.0
 11
358.99891
 21
223.411022
 31
0.0
  0
LINE
  5
9DB
  8
035
 10
363.272656
 20
223.411022
 30
0.0
 11
365.372041
 21
223.411022
 31
0.0
  0
LINE
  5
9DC
  8
035
 10
363.436585
 20
222.586264
 30
0.0
 11
365.372041
 21
223.411022
 31
0.0
  0
LINE
  5
9DD
  8
035
 10
362.740745
 20
221.011726
 30
0.0
 11
364.990085
 21
221.011726
 31
0.0
  0
LINE
  5
9DE
  8
035
 10
361.853031
 20
221.911462
 30
0.0
 11
362.740745
 21
221.011726
 31
0.0
  0
LINE
  5
9DF
  8
035
 10
363.436585
 20
222.586264
 30
0.0
 11
364.990085
 21
221.011726
 31
0.0
  0
ARC
  5
9E0
  8
05
 10
359.1976
 20
240.854348
 30
0.0
 40
0.6
 50
157.5
 51
246.348248
  0
ARC
  5
9E1
  8
05
 10
362.664079
 20
239.057362
 30
0.0
 40
0.6
 50
150.0
 51
238.848248
  0
LINE
  5
9E2
  8
05
 10
381.722479
 20
223.415142
 30
0.0
 11
381.722479
 21
211.945668
 31
0.0
  0
LINE
  5
9E3
  8
05
 10
380.222479
 20
198.369527
 30
0.0
 11
380.222479
 21
231.167835
 31
0.0
  0
LINE
  5
9E4
  8
05
 10
381.722479
 20
213.511726
 30
0.0
 11
381.722479
 21
203.316139
 31
0.0
  0
LINE
  5
9E5
  8
05
 10
383.222479
 20
197.161726
 30
0.0
 11
380.263047
 21
197.161726
 31
0.0
  0
ARC
  5
9E6
  8
05
 10
347.222479
 20
213.511726
 30
0.0
 40
36.0
 50
336.443536
 51
343.261089
  0
ARC
  5
9E7
  8
05
 10
381.122479
 20
203.316139
 30
0.0
 40
0.6
 50
343.261089
 51
0.0
  0
LINE
  5
9E8
  8
05
 10
383.222479
 20
197.161726
 30
0.0
 11
383.222479
 21
194.911726
 31
0.0
  0
LINE
  5
9E9
  8
05
 10
379.429871
 20
232.716421
 30
0.0
 11
375.699004
 21
229.585853
 31
0.0
  0
ARC
  5
9EA
  8
05
 10
378.122481
 20
223.411726
 30
0.0
 40
3.6
 50
0.0
 51
54.314697
  0
ARC
  5
9EB
  8
05
 10
379.622479
 20
231.167835
 30
0.0
 40
0.6
 50
0.0
 51
28.587806
  0
LINE
  5
9EC
  8
BEM1
 10
350.722479
 20
270.019428
 30
0.0
 11
381.220964
 21
270.019428
 31
0.0
  0
TEXT
  5
9ED
  8
BEM1
 62
     3
 10
353.498442
 20
271.471264
 30
0.0
 40
3.5
  1
12.50 [0.492"]
 41
0.7
 51
15.0
 72
     1
 11
366.565109
 21
273.221264
 31
0.0
 73
     2
  0
LINE
  5
9EE
  8
BEM1
 10
347.222479
 20
257.435192
 30
0.0
 11
347.222479
 21
270.819428
 31
0.0
  0
LINE
  5
9EF
  8
05
 10
358.536115
 20
241.505276
 30
0.0
 11
356.222479
 21
241.505276
 31
0.0
  0
ARC
  5
9F0
  8
035
 10
356.298738
 20
252.607073
 30
0.0
 40
5.923756
 50
269.262375
 51
359.871708
  0
ARC
  5
9F1
  8
05
 10
347.222479
 20
213.511726
 30
0.0
 40
33.0
 50
60.0
 51
77.358845
  0
ARC
  5
9F2
  8
035
 10
347.222479
 20
213.396707
 30
0.0
 40
32.7
 50
61.15
 51
77.28019
  0
ARC
  5
9F3
  8
035
 10
347.222479
 20
232.896706
 30
0.0
 40
30.0
 50
67.65775
 51
90.0
  0
LINE
  5
9F4
  8
035
 10
344.243973
 20
243.555703
 30
0.0
 11
342.722479
 21
242.256665
 31
0.0
  0
LINE
  5
9F5
  8
035
 10
344.543914
 20
243.555703
 30
0.0
 11
344.243973
 21
243.555703
 31
0.0
  0
LINE
  5
9F6
  8
035
 10
350.222479
 20
243.555703
 30
0.0
 11
351.722479
 21
242.256665
 31
0.0
  0
LINE
  5
9F7
  8
035
 10
355.622479
 20
246.683808
 30
0.0
 11
356.222479
 21
246.683808
 31
0.0
  0
ARC
  5
9F8
  8
035
 10
355.622479
 20
245.483808
 30
0.0
 40
1.2
 50
90.0
 51
180.0
  0
LINE
  5
9F9
  8
035
 10
354.675226
 20
245.236094
 30
0.0
 11
354.128235
 21
242.899258
 31
0.0
  0
LINE
  5
9FA
  8
035
 10
354.422479
 20
245.483808
 30
0.0
 11
354.422479
 21
244.15632
 31
0.0
  0
INSERT
  5
9FB
  8
035
  2
NT
 10
347.222479
 20
258.696707
 30
0.0
 41
7.5
 42
7.5
 43
7.5
  0
LINE
  5
9FC
  8
035
 10
362.222479
 20
255.147318
 30
0.0
 11
362.222479
 21
252.593809
 31
0.0
  0
LINE
  5
9FD
  8
05
 10
359.695551
 20
243.624384
 30
0.0
 11
359.851033
 21
243.999751
 31
0.0
  0
ARC
  5
9FE
  8
035
 10
356.222479
 20
255.147318
 30
0.0
 40
6.0
 50
0.0
 51
66.378582
  0
SOLID
  5
9FF
  8
BEM1
 10
350.722479
 20
270.602762
 30
0.0
 11
350.722479
 21
269.436095
 31
0.0
 12
347.222479
 22
270.019428
 32
0.0
 13
347.222479
 23
270.019428
 33
0.0
  0
SOLID
  5
A00
  8
BEM1
 10
343.722479
 20
270.602762
 30
0.0
 11
343.722479
 21
269.436095
 31
0.0
 12
347.222479
 22
270.019428
 32
0.0
 13
347.222479
 23
270.019428
 33
0.0
  0
LINE
  5
A01
  8
BEM1
 10
347.222479
 20
270.819428
 30
0.0
 11
347.222479
 21
271.207605
 31
0.0
  0
SOLID
  5
A02
  8
BEM1
 10
381.220964
 20
270.602762
 30
0.0
 11
381.220964
 21
269.436095
 31
0.0
 12
384.720964
 22
270.019428
 32
0.0
 13
384.720964
 23
270.019428
 33
0.0
  0
ENDSEC
  0
EOF
