ISO-10303-21;
HEADER;
FILE_DESCRIPTION((''),'2;1');
FILE_NAME('D-NBB75S-I','2011-12-01T',('odo'),(''),
'PRO/ENGINEER BY PARAMETRIC TECHNOLOGY CORPORATION, 2011080',
'PRO/ENGINEER BY PARAMETRIC TECHNOLOGY CORPORATION, 2011080','');
FILE_SCHEMA(('AUTOMOTIVE_DESIGN_CC2 { 1 2 10303 214 -1 1 5 2 }'));
ENDSEC;
DATA;
#216=DIRECTION('',(0.E0,1.E0,0.E0));
#217=VECTOR('',#216,4.991993589739E0);
#218=CARTESIAN_POINT('',(-4.1E0,-2.495996794870E0,5.E-1));
#219=LINE('',#218,#217);
#220=CARTESIAN_POINT('',(0.E0,0.E0,5.E-1));
#221=DIRECTION('',(0.E0,0.E0,-1.E0));
#222=DIRECTION('',(-8.541666666667E-1,5.199993322645E-1,0.E0));
#223=AXIS2_PLACEMENT_3D('',#220,#221,#222);
#225=CARTESIAN_POINT('',(0.E0,0.E0,5.E-1));
#226=DIRECTION('',(0.E0,0.E0,1.E0));
#227=DIRECTION('',(-8.740157480315E-1,-4.858975943478E-1,0.E0));
#228=AXIS2_PLACEMENT_3D('',#225,#226,#227);
#230=DIRECTION('',(0.E0,-1.E0,0.E0));
#231=VECTOR('',#230,6.170899448217E0);
#232=CARTESIAN_POINT('',(-5.55E0,3.085449724108E0,5.E-1));
#233=LINE('',#232,#231);
#234=DIRECTION('',(0.E0,0.E0,-1.E0));
#235=VECTOR('',#234,1.7E0);
#236=CARTESIAN_POINT('',(-4.1E0,2.495996794870E0,5.E-1));
#237=LINE('',#236,#235);
#238=DIRECTION('',(0.E0,0.E0,1.E0));
#239=VECTOR('',#238,1.7E0);
#240=CARTESIAN_POINT('',(-4.1E0,-2.495996794870E0,-1.2E0));
#241=LINE('',#240,#239);
#242=CARTESIAN_POINT('',(0.E0,0.E0,-1.2E0));
#243=DIRECTION('',(0.E0,0.E0,-1.E0));
#244=DIRECTION('',(-1.E0,0.E0,0.E0));
#245=AXIS2_PLACEMENT_3D('',#242,#243,#244);
#247=CARTESIAN_POINT('',(0.E0,0.E0,-1.2E0));
#248=DIRECTION('',(0.E0,0.E0,-1.E0));
#249=DIRECTION('',(1.E0,0.E0,0.E0));
#250=AXIS2_PLACEMENT_3D('',#247,#248,#249);
#252=CARTESIAN_POINT('',(0.E0,0.E0,-1.2E0));
#253=DIRECTION('',(0.E0,0.E0,1.E0));
#254=DIRECTION('',(-8.541666666667E-1,-5.199993322645E-1,0.E0));
#255=AXIS2_PLACEMENT_3D('',#252,#253,#254);
#257=DIRECTION('',(0.E0,-1.E0,0.E0));
#258=VECTOR('',#257,4.991993589739E0);
#259=CARTESIAN_POINT('',(-4.1E0,2.495996794870E0,-1.2E0));
#260=LINE('',#259,#258);
#261=DIRECTION('',(0.E0,0.E0,-1.E0));
#262=VECTOR('',#261,1.2E0);
#263=CARTESIAN_POINT('',(-7.5E0,0.E0,0.E0));
#264=LINE('',#263,#262);
#265=CARTESIAN_POINT('',(0.E0,0.E0,0.E0));
#266=DIRECTION('',(0.E0,0.E0,-1.E0));
#267=DIRECTION('',(-1.E0,0.E0,0.E0));
#268=AXIS2_PLACEMENT_3D('',#265,#266,#267);
#270=CARTESIAN_POINT('',(0.E0,0.E0,0.E0));
#271=DIRECTION('',(0.E0,0.E0,-1.E0));
#272=DIRECTION('',(1.E0,0.E0,0.E0));
#273=AXIS2_PLACEMENT_3D('',#270,#271,#272);
#275=DIRECTION('',(0.E0,0.E0,-1.E0));
#276=VECTOR('',#275,1.2E0);
#277=CARTESIAN_POINT('',(7.5E0,0.E0,0.E0));
#278=LINE('',#277,#276);
#279=CARTESIAN_POINT('',(0.E0,0.E0,0.E0));
#280=DIRECTION('',(0.E0,0.E0,1.E0));
#281=DIRECTION('',(-8.740157480315E-1,-4.858975943478E-1,0.E0));
#282=AXIS2_PLACEMENT_3D('',#279,#280,#281);
#284=DIRECTION('',(0.E0,0.E0,1.E0));
#285=VECTOR('',#284,5.E-1);
#286=CARTESIAN_POINT('',(-5.55E0,-3.085449724108E0,0.E0));
#287=LINE('',#286,#285);
#288=DIRECTION('',(0.E0,-1.E0,0.E0));
#289=VECTOR('',#288,6.170899448217E0);
#290=CARTESIAN_POINT('',(-5.55E0,3.085449724108E0,0.E0));
#291=LINE('',#290,#289);
#292=DIRECTION('',(0.E0,0.E0,1.E0));
#293=VECTOR('',#292,5.E-1);
#294=CARTESIAN_POINT('',(-5.55E0,3.085449724108E0,0.E0));
#295=LINE('',#294,#293);
#296=CARTESIAN_POINT('',(-4.1E0,-2.495996794870E0,5.E-1));
#297=CARTESIAN_POINT('',(-4.1E0,2.495996794870E0,5.E-1));
#298=VERTEX_POINT('',#296);
#299=VERTEX_POINT('',#297);
#300=CARTESIAN_POINT('',(-5.55E0,-3.085449724108E0,5.E-1));
#301=CARTESIAN_POINT('',(-5.55E0,3.085449724108E0,5.E-1));
#302=VERTEX_POINT('',#300);
#303=VERTEX_POINT('',#301);
#304=CARTESIAN_POINT('',(-7.5E0,0.E0,0.E0));
#305=CARTESIAN_POINT('',(7.5E0,0.E0,0.E0));
#306=VERTEX_POINT('',#304);
#307=VERTEX_POINT('',#305);
#308=CARTESIAN_POINT('',(-7.5E0,0.E0,-1.2E0));
#309=CARTESIAN_POINT('',(7.5E0,0.E0,-1.2E0));
#310=VERTEX_POINT('',#308);
#311=VERTEX_POINT('',#309);
#312=CARTESIAN_POINT('',(-4.1E0,-2.495996794870E0,-1.2E0));
#313=CARTESIAN_POINT('',(-4.1E0,2.495996794870E0,-1.2E0));
#314=VERTEX_POINT('',#312);
#315=VERTEX_POINT('',#313);
#316=CARTESIAN_POINT('',(-5.55E0,-3.085449724108E0,0.E0));
#317=CARTESIAN_POINT('',(-5.55E0,3.085449724108E0,0.E0));
#318=VERTEX_POINT('',#316);
#319=VERTEX_POINT('',#317);
#320=CARTESIAN_POINT('',(0.E0,0.E0,5.E-1));
#321=DIRECTION('',(0.E0,0.E0,1.E0));
#322=DIRECTION('',(1.E0,0.E0,0.E0));
#323=AXIS2_PLACEMENT_3D('',#320,#321,#322);
#324=PLANE('',#323);
#326=ORIENTED_EDGE('',*,*,#325,.F.);
#328=ORIENTED_EDGE('',*,*,#327,.F.);
#329=EDGE_LOOP('',(#326,#328));
#330=FACE_OUTER_BOUND('',#329,.F.);
#332=ORIENTED_EDGE('',*,*,#331,.F.);
#334=ORIENTED_EDGE('',*,*,#333,.F.);
#335=EDGE_LOOP('',(#332,#334));
#336=FACE_BOUND('',#335,.F.);
#338=CARTESIAN_POINT('',(-4.1E0,-2.495996794870E0,0.E0));
#339=DIRECTION('',(1.E0,0.E0,0.E0));
#340=DIRECTION('',(0.E0,1.E0,0.E0));
#341=AXIS2_PLACEMENT_3D('',#338,#339,#340);
#342=PLANE('',#341);
#344=ORIENTED_EDGE('',*,*,#343,.T.);
#346=ORIENTED_EDGE('',*,*,#345,.T.);
#348=ORIENTED_EDGE('',*,*,#347,.T.);
#349=ORIENTED_EDGE('',*,*,#331,.T.);
#350=EDGE_LOOP('',(#344,#346,#348,#349));
#351=FACE_OUTER_BOUND('',#350,.F.);
#353=CARTESIAN_POINT('',(0.E0,0.E0,0.E0));
#354=DIRECTION('',(0.E0,0.E0,1.E0));
#355=DIRECTION('',(1.E0,0.E0,0.E0));
#356=AXIS2_PLACEMENT_3D('',#353,#354,#355);
#357=CYLINDRICAL_SURFACE('',#356,4.8E0);
#358=ORIENTED_EDGE('',*,*,#347,.F.);
#360=ORIENTED_EDGE('',*,*,#359,.T.);
#361=ORIENTED_EDGE('',*,*,#343,.F.);
#362=ORIENTED_EDGE('',*,*,#333,.T.);
#363=EDGE_LOOP('',(#358,#360,#361,#362));
#364=FACE_OUTER_BOUND('',#363,.F.);
#366=CARTESIAN_POINT('',(0.E0,0.E0,-1.2E0));
#367=DIRECTION('',(0.E0,0.E0,-1.E0));
#368=DIRECTION('',(-1.E0,0.E0,0.E0));
#369=AXIS2_PLACEMENT_3D('',#366,#367,#368);
#370=PLANE('',#369);
#372=ORIENTED_EDGE('',*,*,#371,.F.);
#374=ORIENTED_EDGE('',*,*,#373,.F.);
#375=EDGE_LOOP('',(#372,#374));
#376=FACE_OUTER_BOUND('',#375,.F.);
#377=ORIENTED_EDGE('',*,*,#359,.F.);
#378=ORIENTED_EDGE('',*,*,#345,.F.);
#379=EDGE_LOOP('',(#377,#378));
#380=FACE_BOUND('',#379,.F.);
#382=CARTESIAN_POINT('',(0.E0,0.E0,0.E0));
#383=DIRECTION('',(0.E0,0.E0,-1.E0));
#384=DIRECTION('',(-1.E0,0.E0,0.E0));
#385=AXIS2_PLACEMENT_3D('',#382,#383,#384);
#386=CYLINDRICAL_SURFACE('',#385,7.5E0);
#388=ORIENTED_EDGE('',*,*,#387,.F.);
#390=ORIENTED_EDGE('',*,*,#389,.T.);
#391=ORIENTED_EDGE('',*,*,#371,.T.);
#393=ORIENTED_EDGE('',*,*,#392,.F.);
#394=EDGE_LOOP('',(#388,#390,#391,#393));
#395=FACE_OUTER_BOUND('',#394,.F.);
#397=CARTESIAN_POINT('',(0.E0,0.E0,0.E0));
#398=DIRECTION('',(0.E0,0.E0,-1.E0));
#399=DIRECTION('',(-1.E0,0.E0,0.E0));
#400=AXIS2_PLACEMENT_3D('',#397,#398,#399);
#401=PLANE('',#400);
#402=ORIENTED_EDGE('',*,*,#387,.T.);
#404=ORIENTED_EDGE('',*,*,#403,.T.);
#405=EDGE_LOOP('',(#402,#404));
#406=FACE_OUTER_BOUND('',#405,.F.);
#408=ORIENTED_EDGE('',*,*,#407,.T.);
#410=ORIENTED_EDGE('',*,*,#409,.T.);
#411=EDGE_LOOP('',(#408,#410));
#412=FACE_BOUND('',#411,.F.);
#414=CARTESIAN_POINT('',(0.E0,0.E0,0.E0));
#415=DIRECTION('',(0.E0,0.E0,-1.E0));
#416=DIRECTION('',(-1.E0,0.E0,0.E0));
#417=AXIS2_PLACEMENT_3D('',#414,#415,#416);
#418=CYLINDRICAL_SURFACE('',#417,7.5E0);
#419=ORIENTED_EDGE('',*,*,#403,.F.);
#420=ORIENTED_EDGE('',*,*,#392,.T.);
#421=ORIENTED_EDGE('',*,*,#373,.T.);
#422=ORIENTED_EDGE('',*,*,#389,.F.);
#423=EDGE_LOOP('',(#419,#420,#421,#422));
#424=FACE_OUTER_BOUND('',#423,.F.);
#426=CARTESIAN_POINT('',(0.E0,0.E0,0.E0));
#427=DIRECTION('',(0.E0,0.E0,1.E0));
#428=DIRECTION('',(1.E0,0.E0,0.E0));
#429=AXIS2_PLACEMENT_3D('',#426,#427,#428);
#430=CYLINDRICAL_SURFACE('',#429,6.35E0);
#431=ORIENTED_EDGE('',*,*,#407,.F.);
#433=ORIENTED_EDGE('',*,*,#432,.T.);
#434=ORIENTED_EDGE('',*,*,#325,.T.);
#436=ORIENTED_EDGE('',*,*,#435,.F.);
#437=EDGE_LOOP('',(#431,#433,#434,#436));
#438=FACE_OUTER_BOUND('',#437,.F.);
#440=CARTESIAN_POINT('',(-5.55E0,3.085449724108E0,0.E0));
#441=DIRECTION('',(-1.E0,0.E0,0.E0));
#442=DIRECTION('',(0.E0,-1.E0,0.E0));
#443=AXIS2_PLACEMENT_3D('',#440,#441,#442);
#444=PLANE('',#443);
#445=ORIENTED_EDGE('',*,*,#409,.F.);
#446=ORIENTED_EDGE('',*,*,#435,.T.);
#447=ORIENTED_EDGE('',*,*,#327,.T.);
#448=ORIENTED_EDGE('',*,*,#432,.F.);
#449=EDGE_LOOP('',(#445,#446,#447,#448));
#450=FACE_OUTER_BOUND('',#449,.F.);
#452=CLOSED_SHELL('',(#337,#352,#365,#381,#396,#413,#425,#439,#451));
#453=MANIFOLD_SOLID_BREP('',#452);
#455=DIMENSIONAL_EXPONENTS(0.E0,0.E0,0.E0,0.E0,0.E0,0.E0,0.E0);
#457=PLANE_ANGLE_MEASURE_WITH_UNIT(PLANE_ANGLE_MEASURE(1.745329251994E-2),#456);
#458=(CONVERSION_BASED_UNIT('DEGREE',#457)NAMED_UNIT(*)PLANE_ANGLE_UNIT());
#460=UNCERTAINTY_MEASURE_WITH_UNIT(LENGTH_MEASURE(2.128036112298E-3),#454,
'distance_accuracy_value',
'Maximum model space distance between geometric entities at asserted connectivities');
#463=APPLICATION_CONTEXT('automotive_design');
#464=APPLICATION_PROTOCOL_DEFINITION('draft international standard',
'automotive_design',1998,#463);
#465=PRODUCT_DEFINITION_CONTEXT('part definition',#463,'design');
#466=PRODUCT_CONTEXT('',#463,'mechanical');
#467=PRODUCT('D-NBB75S-I','D-NBB75S-I','NOT SPECIFIED',(#466));
#468=PRODUCT_DEFINITION_FORMATION_WITH_SPECIFIED_SOURCE('1','LAST_VERSION',#467,
.MADE.);
#472=PRODUCT_TYPE('part','',(#467));
#1=DRAUGHTING_PRE_DEFINED_COLOUR('black');
#2=COLOUR_RGB('',0.E0,0.E0,6.6E-1);
#3=DRAUGHTING_PRE_DEFINED_COLOUR('blue');
#4=COLOUR_RGB('',0.E0,2.E-1,3.4902E-1);
#5=COLOUR_RGB('',0.E0,2.44078E-1,2.84275E-1);
#6=COLOUR_RGB('',0.E0,2.77412E-1,5.20706E-1);
#7=COLOUR_RGB('',0.E0,3.18706E-1,5.49843E-1);
#8=COLOUR_RGB('',0.E0,3.3E-1,0.E0);
#9=COLOUR_RGB('',0.E0,3.37216E-1,5.10039E-1);
#10=COLOUR_RGB('',0.E0,3.50549E-1,2.96627E-1);
#11=COLOUR_RGB('',0.E0,4.05176E-1,3.01843E-1);
#12=COLOUR_RGB('',0.E0,4.31255E-1,2.30784E-1);
#13=COLOUR_RGB('',0.E0,4.5E-1,0.E0);
#14=COLOUR_RGB('',0.E0,4.52549E-1,6.86314E-1);
#15=COLOUR_RGB('',0.E0,4.5098E-1,9.01961E-1);
#16=COLOUR_RGB('',0.E0,4.54863E-1,4.69098E-1);
#17=COLOUR_RGB('',0.E0,4.95725E-1,3.0698E-1);
#18=COLOUR_RGB('',0.E0,5.07647E-1,3.21647E-1);
#19=COLOUR_RGB('',0.E0,5.38706E-1,5.4902E-1);
#20=COLOUR_RGB('',0.E0,6.E-1,0.E0);
#21=COLOUR_RGB('',0.E0,8.E-1,0.E0);
#22=DRAUGHTING_PRE_DEFINED_COLOUR('green');
#23=COLOUR_RGB('',1.7333E-2,2.72824E-1,3.83725E-1);
#24=COLOUR_RGB('',1.9608E-2,1.5686E-2,1.1765E-2);
#25=COLOUR_RGB('',6.7E-2,6.7E-2,6.7E-2);
#26=COLOUR_RGB('',7.0588E-2,7.4902E-2,7.7922E-2);
#27=COLOUR_RGB('',7.8941E-2,1.92431E-1,3.29059E-1);
#28=COLOUR_RGB('',8.4588E-2,1.95529E-1,4.73451E-1);
#29=COLOUR_RGB('',9.0196E-2,3.68627E-1,1.33333E-1);
#30=COLOUR_RGB('',1.01E-1,1.98E-1,9.52E-1);
#31=COLOUR_RGB('',1.06E-1,8.16E-1,2.08E-1);
#32=COLOUR_RGB('',1.08392E-1,1.27412E-1,1.65922E-1);
#33=COLOUR_RGB('',1.2549E-1,1.17647E-1,5.29412E-1);
#34=COLOUR_RGB('',1.35216E-1,1.5502E-1,3.35882E-1);
#35=COLOUR_RGB('',1.42314E-1,2.02E-1,1.53412E-1);
#36=COLOUR_RGB('',1.4902E-1,1.17647E-1,2.3529E-2);
#37=COLOUR_RGB('',1.48824E-1,1.47804E-1,1.53765E-1);
#38=COLOUR_RGB('',1.77412E-1,2.9051E-1,4.29725E-1);
#39=COLOUR_RGB('',1.80471E-1,2.15922E-1,1.46039E-1);
#40=COLOUR_RGB('',1.88235E-1,2.70588E-1,2.78431E-1);
#41=COLOUR_RGB('',1.89333E-1,3.29961E-1,2.63294E-1);
#42=COLOUR_RGB('',1.92353E-1,1.84667E-1,1.25647E-1);
#43=COLOUR_RGB('',2.E-1,4.E-1,1.E0);
#44=COLOUR_RGB('',2.E-1,4.70588E-1,1.E0);
#45=COLOUR_RGB('',2.E-1,8.E-1,1.E0);
#46=COLOUR_RGB('',2.12627E-1,2.39098E-1,2.53843E-1);
#47=COLOUR_RGB('',2.19608E-1,2.31961E-1,1.96275E-1);
#48=COLOUR_RGB('',2.43137E-1,2.5098E-1,7.01961E-1);
#49=COLOUR_RGB('',2.44667E-1,5.22118E-1,4.88706E-1);
#50=COLOUR_RGB('',2.5E-1,2.5E-1,2.5E-1);
#51=COLOUR_RGB('',2.53294E-1,4.33137E-1,1.97216E-1);
#52=COLOUR_RGB('',2.58824E-1,2.07843E-1,0.E0);
#53=COLOUR_RGB('',2.66549E-1,2.5098E-1,1.84941E-1);
#54=COLOUR_RGB('',2.71686E-1,3.97686E-1,5.45098E-1);
#55=COLOUR_RGB('',2.78431E-1,2.78431E-1,2.78431E-1);
#56=COLOUR_RGB('',2.83608E-1,2.13137E-1,1.48118E-1);
#57=COLOUR_RGB('',2.86275E-1,3.60784E-1,3.68627E-1);
#58=COLOUR_RGB('',2.94118E-1,6.70588E-1,3.76471E-1);
#59=COLOUR_RGB('',3.05216E-1,3.16039E-1,3.41255E-1);
#60=COLOUR_RGB('',3.07804E-1,5.22118E-1,2.54314E-1);
#61=COLOUR_RGB('',3.10235E-1,2.32431E-1,1.74667E-1);
#62=COLOUR_RGB('',3.14E-1,7.4E-2,0.E0);
#63=COLOUR_RGB('',3.15765E-1,3.46078E-1,3.58706E-1);
#64=COLOUR_RGB('',3.31725E-1,3.12627E-1,2.57725E-1);
#65=COLOUR_RGB('',3.40667E-1,3.54275E-1,3.3298E-1);
#66=COLOUR_RGB('',3.40353E-1,3.64118E-1,3.6949E-1);
#67=COLOUR_RGB('',3.45373E-1,3.59882E-1,3.17294E-1);
#68=COLOUR_RGB('',3.44118E-1,4.44078E-1,2.29529E-1);
#69=COLOUR_RGB('',3.48431E-1,2.21412E-1,1.53294E-1);
#70=COLOUR_RGB('',3.4902E-1,2.90196E-1,1.76471E-1);
#71=COLOUR_RGB('',3.72549E-1,6.19608E-1,0.E0);
#72=COLOUR_RGB('',3.90157E-1,1.98157E-1,1.75059E-1);
#73=COLOUR_RGB('',4.E-1,1.45098E-1,0.E0);
#74=COLOUR_RGB('',4.E-1,2.39216E-1,1.80392E-1);
#75=COLOUR_RGB('',4.06824E-1,4.97843E-1,3.45569E-1);
#76=COLOUR_RGB('',4.09137E-1,2.56353E-1,1.44314E-1);
#77=COLOUR_RGB('',4.11765E-1,4.39216E-1,8.58824E-1);
#78=COLOUR_RGB('',4.14196E-1,7.0549E-2,1.17059E-1);
#79=COLOUR_RGB('',4.19608E-1,6.03922E-1,9.29412E-1);
#80=COLOUR_RGB('',4.24627E-1,4.12549E-1,3.82353E-1);
#81=COLOUR_RGB('',4.39216E-1,3.52941E-1,0.E0);
#82=COLOUR_RGB('',4.46941E-1,6.67294E-1,6.59843E-1);
#83=COLOUR_RGB('',4.47059E-1,8.E-1,5.21569E-1);
#84=COLOUR_RGB('',4.5098E-1,0.E0,1.80392E-1);
#85=COLOUR_RGB('',4.5098E-1,3.04118E-1,1.61725E-1);
#86=COLOUR_RGB('',4.5098E-1,3.13725E-1,1.33333E-1);
#87=COLOUR_RGB('',4.5098E-1,5.2549E-1,2.23529E-1);
#88=COLOUR_RGB('',4.53529E-1,7.23216E-1,7.08275E-1);
#89=COLOUR_RGB('',4.60353E-1,2.84078E-1,2.13569E-1);
#90=COLOUR_RGB('',4.60902E-1,3.84745E-1,2.48706E-1);
#91=COLOUR_RGB('',4.63E-1,4.43E-1,4.94E-1);
#92=COLOUR_RGB('',4.63255E-1,4.60235E-1,3.42471E-1);
#93=COLOUR_RGB('',4.74314E-1,4.97098E-1,4.47569E-1);
#94=COLOUR_RGB('',4.7902E-1,4.86275E-1,4.78431E-1);
#95=COLOUR_RGB('',4.94078E-1,3.05686E-1,1.58824E-1);
#96=COLOUR_RGB('',5.E-1,5.E-1,5.E-1);
#97=COLOUR_RGB('',5.01961E-1,4.5098E-1,3.64706E-1);
#98=COLOUR_RGB('',5.01961E-1,4.86275E-1,0.E0);
#99=COLOUR_RGB('',5.21569E-1,1.92157E-1,0.E0);
#100=COLOUR_RGB('',5.21569E-1,1.96078E-1,2.54902E-1);
#101=COLOUR_RGB('',5.22E-1,4.94E-1,4.86E-1);
#102=COLOUR_RGB('',5.26941E-1,6.E-3,9.0157E-2);
#103=COLOUR_RGB('',5.2549E-1,7.01961E-1,1.41176E-1);
#104=COLOUR_RGB('',5.41176E-1,5.92157E-1,6.E-1);
#105=COLOUR_RGB('',5.49216E-1,2.83765E-1,1.96157E-1);
#106=COLOUR_RGB('',5.60784E-1,2.23529E-1,0.E0);
#107=COLOUR_RGB('',5.63255E-1,5.31216E-1,4.25529E-1);
#108=COLOUR_RGB('',5.72824E-1,5.57216E-1,5.50824E-1);
#109=COLOUR_RGB('',5.87412E-1,6.13922E-1,6.30196E-1);
#110=COLOUR_RGB('',6.E-1,4.5098E-1,3.29412E-1);
#111=COLOUR_RGB('',6.E-1,7.88235E-1,1.E0);
#112=COLOUR_RGB('',6.08E-1,2.3E-2,7.73E-1);
#113=COLOUR_RGB('',6.12196E-1,5.12549E-1,5.60275E-1);
#114=COLOUR_RGB('',6.11765E-1,9.01961E-1,6.82353E-1);
#115=COLOUR_RGB('',6.18078E-1,8.3569E-2,9.702E-2);
#116=COLOUR_RGB('',6.22784E-1,8.6902E-2,1.11686E-1);
#117=COLOUR_RGB('',6.26863E-1,5.67098E-1,3.83843E-1);
#118=COLOUR_RGB('',6.27451E-1,6.39216E-1,5.84314E-1);
#119=COLOUR_RGB('',6.34902E-1,5.16471E-1,6.5882E-2);
#120=COLOUR_RGB('',6.35294E-1,7.01961E-1,6.07843E-1);
#121=COLOUR_RGB('',6.39216E-1,8.5098E-1,5.09804E-1);
#122=COLOUR_RGB('',6.41804E-1,5.64235E-1,4.6702E-1);
#123=COLOUR_RGB('',6.43137E-1,6.5098E-1,9.29412E-1);
#124=COLOUR_RGB('',6.47E-1,6.47E-1,6.47E-1);
#125=COLOUR_RGB('',6.5098E-1,3.13725E-1,0.E0);
#126=COLOUR_RGB('',6.58824E-1,3.45098E-1,4.07843E-1);
#127=COLOUR_RGB('',6.6098E-1,1.19333E-1,1.22745E-1);
#128=COLOUR_RGB('',6.62157E-1,1.76549E-1,2.17843E-1);
#129=COLOUR_RGB('',6.62706E-1,2.11255E-1,1.61529E-1);
#130=COLOUR_RGB('',6.74353E-1,6.83882E-1,6.51216E-1);
#131=COLOUR_RGB('',6.78431E-1,6.27451E-1,5.37255E-1);
#132=COLOUR_RGB('',6.78431E-1,6.5098E-1,5.29412E-1);
#133=COLOUR_RGB('',6.91529E-1,7.2863E-2,2.29725E-1);
#134=COLOUR_RGB('',7.01961E-1,5.05882E-1,0.E0);
#135=COLOUR_RGB('',7.16235E-1,5.66588E-1,2.87882E-1);
#136=COLOUR_RGB('',7.21569E-1,2.39216E-1,0.E0);
#137=COLOUR_RGB('',7.29412E-1,9.60784E-1,7.76471E-1);
#138=COLOUR_RGB('',7.45569E-1,6.7569E-2,6.4196E-2);
#139=COLOUR_RGB('',7.4902E-1,6.58824E-1,4.86275E-1);
#140=COLOUR_RGB('',7.5298E-1,2.08588E-1,4.52706E-1);
#141=COLOUR_RGB('',7.57E-1,0.E0,0.E0);
#142=COLOUR_RGB('',7.55451E-1,7.71804E-1,7.51882E-1);
#143=COLOUR_RGB('',7.56863E-1,8.39216E-1,8.15686E-1);
#144=COLOUR_RGB('',7.71569E-1,5.76667E-1,0.E0);
#145=COLOUR_RGB('',7.72549E-1,9.01961E-1,5.76471E-1);
#146=COLOUR_RGB('',7.76471E-1,8.E-1,7.21569E-1);
#147=COLOUR_RGB('',7.84196E-1,7.30824E-1,5.01137E-1);
#148=COLOUR_RGB('',7.84314E-1,8.11765E-1,8.03922E-1);
#149=COLOUR_RGB('',8.E-1,4.E-1,0.E0);
#150=COLOUR_RGB('',8.E-1,7.76471E-1,6.78431E-1);
#151=COLOUR_RGB('',8.E-1,8.E-1,8.E-1);
#152=COLOUR_RGB('',8.E-1,1.E0,1.E0);
#153=COLOUR_RGB('',8.10745E-1,2.19804E-1,2.91608E-1);
#154=COLOUR_RGB('',8.11059E-1,3.00588E-1,3.54706E-1);
#155=COLOUR_RGB('',8.09333E-1,6.93176E-1,5.04314E-1);
#156=COLOUR_RGB('',8.11765E-1,0.E0,3.56863E-1);
#157=COLOUR_RGB('',8.20471E-1,3.50627E-1,1.0102E-1);
#158=COLOUR_RGB('',8.19608E-1,7.96078E-1,0.E0);
#159=COLOUR_RGB('',8.21725E-1,6.78549E-1,4.18745E-1);
#160=COLOUR_RGB('',8.25216E-1,4.02941E-1,3.2098E-1);
#161=COLOUR_RGB('',8.44078E-1,8.3898E-1,7.9102E-1);
#162=COLOUR_RGB('',8.49961E-1,3.82078E-1,2.84275E-1);
#163=COLOUR_RGB('',8.70588E-1,0.E0,2.94118E-1);
#164=COLOUR_RGB('',8.72353E-1,6.05098E-1,6.41882E-1);
#165=COLOUR_RGB('',8.77216E-1,6.55176E-1,0.E0);
#166=COLOUR_RGB('',8.784E-1,9.49E-1,1.E0);
#167=COLOUR_RGB('',8.83922E-1,3.15843E-1,8.078E-3);
#168=COLOUR_RGB('',8.90196E-1,6.66667E-1,7.56863E-1);
#169=COLOUR_RGB('',8.93373E-1,5.99922E-1,0.E0);
#170=COLOUR_RGB('',8.9302E-1,6.44588E-1,0.E0);
#171=COLOUR_RGB('',9.02941E-1,5.68392E-1,0.E0);
#172=COLOUR_RGB('',9.01961E-1,8.27451E-1,5.84314E-1);
#173=COLOUR_RGB('',9.12471E-1,4.4651E-1,7.298E-2);
#174=COLOUR_RGB('',9.37E-1,8.51E-1,9.4E-2);
#175=COLOUR_RGB('',9.41176E-1,6.78431E-1,0.E0);
#176=COLOUR_RGB('',9.41176E-1,9.01961E-1,7.52941E-1);
#177=COLOUR_RGB('',9.53294E-1,7.37412E-1,0.E0);
#178=COLOUR_RGB('',9.62706E-1,6.75922E-1,0.E0);
#179=COLOUR_RGB('',9.68627E-1,7.96078E-1,6.98039E-1);
#180=COLOUR_RGB('',9.73804E-1,7.51608E-1,0.E0);
#181=DRAUGHTING_PRE_DEFINED_COLOUR('red');
#182=COLOUR_RGB('',1.E0,0.E0,2.E-1);
#183=COLOUR_RGB('',1.E0,0.E0,3.21569E-1);
#184=COLOUR_RGB('',1.E0,0.E0,4.E-1);
#185=COLOUR_RGB('',1.E0,0.E0,6.E-1);
#186=COLOUR_RGB('',1.E0,0.E0,8.E-1);
#187=COLOUR_RGB('',1.E0,2.E-1,0.E0);
#188=COLOUR_RGB('',1.E0,3.21569E-1,0.E0);
#189=COLOUR_RGB('',1.E0,4.E-1,0.E0);
#190=COLOUR_RGB('',1.E0,4.11765E-1,3.9216E-2);
#191=COLOUR_RGB('',1.E0,4.57E-1,0.E0);
#192=COLOUR_RGB('',1.E0,5.41176E-1,2.70588E-1);
#193=COLOUR_RGB('',1.E0,6.E-1,0.E0);
#194=COLOUR_RGB('',1.E0,6.36196E-1,0.E0);
#195=COLOUR_RGB('',1.E0,6.90196E-1,5.60784E-1);
#196=COLOUR_RGB('',1.E0,7.01961E-1,0.E0);
#197=COLOUR_RGB('',1.E0,7.15E-1,4.11E-1);
#198=COLOUR_RGB('',1.E0,8.E-1,0.E0);
#199=COLOUR_RGB('',1.E0,8.E-1,4.E-1);
#200=COLOUR_RGB('',1.E0,8.31373E-1,2.E-1);
#201=COLOUR_RGB('',1.E0,8.31373E-1,3.80392E-1);
#202=COLOUR_RGB('',1.E0,8.39216E-1,2.31373E-1);
#203=COLOUR_RGB('',1.E0,8.90196E-1,3.4902E-1);
#204=COLOUR_RGB('',1.E0,9.09804E-1,4.19608E-1);
#205=COLOUR_RGB('',1.E0,9.41176E-1,5.098E-2);
#206=COLOUR_RGB('',1.E0,9.43529E-1,8.27843E-1);
#207=COLOUR_RGB('',1.E0,9.88235E-1,5.098E-2);
#208=DRAUGHTING_PRE_DEFINED_COLOUR('yellow');
#209=COLOUR_RGB('',1.E0,1.E0,2.E-1);
#210=COLOUR_RGB('',1.E0,1.E0,2.11765E-1);
#211=COLOUR_RGB('',1.E0,1.E0,4.E-1);
#212=COLOUR_RGB('',1.E0,1.E0,4.90196E-1);
#213=COLOUR_RGB('',1.E0,1.E0,6.E-1);
#214=COLOUR_RGB('',1.E0,1.E0,8.E-1);
#215=DRAUGHTING_PRE_DEFINED_COLOUR('white');
#224=CIRCLE('',#223,4.8E0);
#229=CIRCLE('',#228,6.35E0);
#246=CIRCLE('',#245,7.5E0);
#251=CIRCLE('',#250,7.5E0);
#256=CIRCLE('',#255,4.8E0);
#269=CIRCLE('',#268,7.5E0);
#274=CIRCLE('',#273,7.5E0);
#283=CIRCLE('',#282,6.35E0);
#325=EDGE_CURVE('',#302,#303,#229,.T.);
#327=EDGE_CURVE('',#303,#302,#233,.T.);
#331=EDGE_CURVE('',#298,#299,#219,.T.);
#333=EDGE_CURVE('',#299,#298,#224,.T.);
#337=ADVANCED_FACE('',(#330,#336),#324,.T.);
#343=EDGE_CURVE('',#299,#315,#237,.T.);
#345=EDGE_CURVE('',#315,#314,#260,.T.);
#347=EDGE_CURVE('',#314,#298,#241,.T.);
#352=ADVANCED_FACE('',(#351),#342,.T.);
#359=EDGE_CURVE('',#314,#315,#256,.T.);
#365=ADVANCED_FACE('',(#364),#357,.F.);
#371=EDGE_CURVE('',#310,#311,#246,.T.);
#373=EDGE_CURVE('',#311,#310,#251,.T.);
#381=ADVANCED_FACE('',(#376,#380),#370,.T.);
#387=EDGE_CURVE('',#306,#307,#269,.T.);
#389=EDGE_CURVE('',#306,#310,#264,.T.);
#392=EDGE_CURVE('',#307,#311,#278,.T.);
#396=ADVANCED_FACE('',(#395),#386,.T.);
#403=EDGE_CURVE('',#307,#306,#274,.T.);
#407=EDGE_CURVE('',#318,#319,#283,.T.);
#409=EDGE_CURVE('',#319,#318,#291,.T.);
#413=ADVANCED_FACE('',(#406,#412),#401,.F.);
#425=ADVANCED_FACE('',(#424),#418,.T.);
#432=EDGE_CURVE('',#318,#302,#287,.T.);
#435=EDGE_CURVE('',#319,#303,#295,.T.);
#439=ADVANCED_FACE('',(#438),#430,.T.);
#451=ADVANCED_FACE('',(#450),#444,.T.);
#454=(LENGTH_UNIT()NAMED_UNIT(*)SI_UNIT(.MILLI.,.METRE.));
#456=(NAMED_UNIT(*)PLANE_ANGLE_UNIT()SI_UNIT($,.RADIAN.));
#459=(NAMED_UNIT(*)SI_UNIT($,.STERADIAN.)SOLID_ANGLE_UNIT());
#461=(GEOMETRIC_REPRESENTATION_CONTEXT(3)GLOBAL_UNCERTAINTY_ASSIGNED_CONTEXT((
#460))GLOBAL_UNIT_ASSIGNED_CONTEXT((#454,#458,#459))REPRESENTATION_CONTEXT
('ID1','3'));
#462=ADVANCED_BREP_SHAPE_REPRESENTATION('',(#453),#461);
#469=PRODUCT_DEFINITION('part definition','',#468,#465);
#470=PRODUCT_DEFINITION_SHAPE('','SHAPE FOR D-NBB75S-I.',#469);
#471=SHAPE_DEFINITION_REPRESENTATION(#470,#462);
ENDSEC;
END-ISO-10303-21;
