  0
SECTION
  2
HEADER
  9
$ACADVER
  1
AC1009
  9
$INSBASE
 10
0.0
 20
0.0
 30
0.0
  9
$EXTMIN
 10
192.0
 20
-5.0
 30
0.0
  9
$EXTMAX
 10
412.0
 20
292.0
 30
0.0
  9
$LIMMIN
 10
0.0
 20
0.0
  9
$LIMMAX
 10
410.0
 20
287.0
  9
$ORTHOMODE
 70
     1
  9
$REGENMODE
 70
     1
  9
$FILLMODE
 70
     1
  9
$QTEXTMODE
 70
     0
  9
$MIRRTEXT
 70
     1
  9
$DRAGMODE
 70
     2
  9
$LTSCALE
 40
5.0
  9
$OSMODE
 70
     0
  9
$ATTMODE
 70
     1
  9
$TEXTSIZE
 40
3.5
  9
$TRACEWID
 40
26.0
  9
$TEXTSTYLE
  7
STANDARD
  9
$CLAYER
  8
BEM1
  9
$CELTYPE
  6
BYLAYER
  9
$CECOLOR
 62
   256
  9
$DIMSCALE
 40
1.0
  9
$DIMASZ
 40
3.5
  9
$DIMEXO
 40
0.8
  9
$DIMDLI
 40
8.0
  9
$DIMRND
 40
0.0
  9
$DIMDLE
 40
0.0
  9
$DIMEXE
 40
1.8
  9
$DIMTP
 40
0.0
  9
$DIMTM
 40
0.0
  9
$DIMTXT
 40
3.5
  9
$DIMCEN
 40
1.5
  9
$DIMTSZ
 40
0.0
  9
$DIMTOL
 70
     0
  9
$DIMLIM
 70
     0
  9
$DIMTIH
 70
     0
  9
$DIMTOH
 70
     0
  9
$DIMSE1
 70
     0
  9
$DIMSE2
 70
     0
  9
$DIMTAD
 70
     1
  9
$DIMZIN
 70
     0
  9
$DIMBLK
  1

  9
$DIMASO
 70
     0
  9
$DIMSHO
 70
     0
  9
$DIMPOST
  1

  9
$DIMAPOST
  1
"
  9
$DIMALT
 70
     0
  9
$DIMALTD
 70
     3
  9
$DIMALTF
 40
0.03937
  9
$DIMLFAC
 40
0.5
  9
$DIMTOFL
 70
     0
  9
$DIMTVP
 40
0.0
  9
$DIMTIX
 70
     0
  9
$DIMSOXD
 70
     0
  9
$DIMSAH
 70
     0
  9
$DIMBLK1
  1

  9
$DIMBLK2
  1

  9
$DIMSTYLE
  2
STANDARD
  9
$DIMCLRD
 70
     0
  9
$DIMCLRE
 70
     0
  9
$DIMCLRT
 70
     0
  9
$DIMTFAC
 40
1.0
  9
$DIMGAP
 40
0.09
  9
$LUNITS
 70
     2
  9
$LUPREC
 70
     2
  9
$SKETCHINC
 40
1.0
  9
$FILLETRAD
 40
0.0
  9
$AUNITS
 70
     0
  9
$AUPREC
 70
     0
  9
$MENU
  1
acad
  9
$ELEVATION
 40
0.0
  9
$PELEVATION
 40
0.0
  9
$THICKNESS
 40
0.0
  9
$LIMCHECK
 70
     0
  9
$BLIPMODE
 70
     0
  9
$CHAMFERA
 40
0.0
  9
$CHAMFERB
 40
0.0
  9
$SKPOLY
 70
     0
  9
$TDCREATE
 40
2449552.534298
  9
$TDUPDATE
 40
2451751.444628
  9
$TDINDWG
 40
0.454266
  9
$TDUSRTIMER
 40
0.454266
  9
$USRTIMER
 70
     1
  9
$ANGBASE
 50
0.0
  9
$ANGDIR
 70
     0
  9
$PDMODE
 70
     0
  9
$PDSIZE
 40
0.0
  9
$PLINEWID
 40
0.0
  9
$COORDS
 70
     2
  9
$SPLFRAME
 70
     0
  9
$SPLINETYPE
 70
     6
  9
$SPLINESEGS
 70
     8
  9
$ATTDIA
 70
     1
  9
$ATTREQ
 70
     1
  9
$HANDLING
 70
     1
  9
$HANDSEED
  5
8B8
  9
$SURFTAB1
 70
     6
  9
$SURFTAB2
 70
     6
  9
$SURFTYPE
 70
     6
  9
$SURFU
 70
     6
  9
$SURFV
 70
     6
  9
$UCSNAME
  2

  9
$UCSORG
 10
0.0
 20
0.0
 30
0.0
  9
$UCSXDIR
 10
1.0
 20
0.0
 30
0.0
  9
$UCSYDIR
 10
0.0
 20
1.0
 30
0.0
  9
$PUCSNAME
  2

  9
$PUCSORG
 10
0.0
 20
0.0
 30
0.0
  9
$PUCSXDIR
 10
1.0
 20
0.0
 30
0.0
  9
$PUCSYDIR
 10
0.0
 20
1.0
 30
0.0
  9
$USERI1
 70
     0
  9
$USERI2
 70
     0
  9
$USERI3
 70
     0
  9
$USERI4
 70
     0
  9
$USERI5
 70
     0
  9
$USERR1
 40
0.0
  9
$USERR2
 40
0.0
  9
$USERR3
 40
0.0
  9
$USERR4
 40
0.0
  9
$USERR5
 40
0.0
  9
$WORLDVIEW
 70
     1
  9
$SHADEDGE
 70
     3
  9
$SHADEDIF
 70
    70
  9
$TILEMODE
 70
     1
  9
$MAXACTVP
 70
    16
  9
$PLIMCHECK
 70
     0
  9
$PEXTMIN
 10
1.000000E+020
 20
1.000000E+020
 30
1.000000E+020
  9
$PEXTMAX
 10
-1.000000E+020
 20
-1.000000E+020
 30
-1.000000E+020
  9
$PLIMMIN
 10
0.0
 20
0.0
  9
$PLIMMAX
 10
12.0
 20
9.0
  9
$UNITMODE
 70
     0
  9
$VISRETAIN
 70
     0
  9
$PLINEGEN
 70
     0
  9
$PSLTSCALE
 70
     0
  0
ENDSEC
  0
SECTION
  2
TABLES
  0
TABLE
  2
VPORT
 70
     2
  0
VPORT
  2
*ACTIVE
 70
     0
 10
0.0
 20
0.0
 11
1.0
 21
1.0
 12
302.003421
 22
148.368658
 13
0.0
 23
0.0
 14
1.0
 24
1.0
 15
2.0
 25
2.0
 16
0.0
 26
0.0
 36
1.0
 17
0.0
 27
0.0
 37
0.0
 40
309.518401
 41
1.525
 42
50.0
 43
0.0
 44
0.0
 50
0.0
 51
0.0
 71
     0
 72
   500
 73
     1
 74
     0
 75
     0
 76
     0
 77
     0
 78
     0
  0
ENDTAB
  0
TABLE
  2
LTYPE
 70
     1
  0
LTYPE
  2
AUSGEZOGEN
 70
     0
  3
Ausgezogene Linie
 72
    65
 73
     0
 40
0.0
  0
ENDTAB
  0
TABLE
  2
LAYER
 70
     6
  0
LAYER
  2
0
 70
     0
 62
     8
  6
AUSGEZOGEN
  0
LAYER
  2
05
 70
     0
 62
     2
  6
AUSGEZOGEN
  0
LAYER
  2
BEM1
 70
     0
 62
     4
  6
AUSGEZOGEN
  0
LAYER
  2
035
 70
     0
 62
     3
  6
AUSGEZOGEN
  0
LAYER
  2
025
 70
     0
 62
     4
  6
AUSGEZOGEN
  0
LAYER
  2
RAHMEN
 70
     0
 62
     2
  6
AUSGEZOGEN
  0
ENDTAB
  0
TABLE
  2
STYLE
 70
     3
  0
STYLE
  2
STANDARD
 70
     0
 40
0.0
 41
0.7
 50
15.0
 71
     0
 42
3.5
  3
txt
  4

  0
STYLE
  2
UNIV
 70
     0
 40
0.0
 41
1.0
 50
0.0
 71
     0
 42
2.5
  3
univ
  4

  0
STYLE
  2
SCRIPTS
 70
     0
 40
0.0
 41
1.0
 50
0.0
 71
     0
 42
5.0
  3
scripts
  4

  0
ENDTAB
  0
TABLE
  2
VIEW
 70
     0
  0
ENDTAB
  0
TABLE
  2
UCS
 70
     0
  0
ENDTAB
  0
TABLE
  2
APPID
 70
     1
  0
APPID
  2
ACAD
 70
     0
  0
ENDTAB
  0
TABLE
  2
DIMSTYLE
 70
     1
  0
DIMSTYLE
  2
STANDARD
 70
     0
  3

  4

  5

  6

  7

 40
1.0
 41
0.18
 42
0.0625
 43
0.38
 44
0.18
 45
0.0
 46
0.0
 47
0.0
 48
0.0
140
0.18
141
0.09
142
0.0
143
25.4
144
1.0
145
0.0
146
1.0
147
0.09
 71
     0
 72
     0
 73
     1
 74
     1
 75
     0
 76
     0
 77
     0
 78
     0
170
     0
171
     2
172
     0
173
     0
174
     0
175
     0
176
     0
177
     0
178
     0
  0
ENDTAB
  0
ENDSEC
  0
SECTION
  2
BLOCKS
  0
BLOCK
  8
0
  2
$MODEL_SPACE
 70
     0
 10
0.0
 20
0.0
 30
0.0
  3
$MODEL_SPACE
  1

  0
ENDBLK
  5
6
  8
0
  0
BLOCK
 67
     1
  8
0
  2
$PAPER_SPACE
 70
     0
 10
0.0
 20
0.0
 30
0.0
  3
$PAPER_SPACE
  1

  0
ENDBLK
  5
9
 67
     1
  8
0
  0
BLOCK
  8
0
  2
ZKOPF
 70
     2
 10
0.0
 20
0.0
 30
0.0
  3
ZKOPF
  1

  0
ATTDEF
  5
50
  8
0
 62
     4
 10
-13.321429
 20
37.0
 30
0.0
 40
2.5
  1
Dobler
  7
SCRIPTS
 72
     1
 11
-8.5
 21
37.0
 31
0.0
  3
Name des Konstrukteurs ?
  2
NAME
 70
     0
  0
POLYLINE
  5
51
  8
0
 62
     2
 66
     1
 10
0.0
 20
0.0
 30
0.0
  0
VERTEX
  5
440
  8
0
 62
     2
 10
-51.0
 20
0.0
 30
0.0
  0
VERTEX
  5
441
  8
0
 62
     2
 10
-51.0
 20
46.0
 30
0.0
  0
SEQEND
  5
442
  8
0
 62
     2
  0
POLYLINE
  5
52
  8
0
 62
     2
 66
     1
 10
0.0
 20
0.0
 30
0.0
  0
VERTEX
  5
443
  8
0
 62
     2
 10
-17.0
 20
9.0
 30
0.0
  0
VERTEX
  5
444
  8
0
 62
     2
 10
-17.0
 20
46.0
 30
0.0
  0
SEQEND
  5
445
  8
0
 62
     2
  0
POLYLINE
  5
53
  8
0
 62
     2
 66
     1
 10
0.0
 20
0.0
 30
0.0
  0
VERTEX
  5
446
  8
0
 62
     2
 10
-32.0
 20
26.0
 30
0.0
  0
VERTEX
  5
447
  8
0
 62
     2
 10
-32.0
 20
46.0
 30
0.0
  0
SEQEND
  5
448
  8
0
 62
     2
  0
POLYLINE
  5
54
  8
0
 62
     2
 66
     1
 10
0.0
 20
0.0
 30
0.0
  0
VERTEX
  5
449
  8
0
 62
     2
 10
-133.0
 20
41.0
 30
0.0
  0
VERTEX
  5
44A
  8
0
 62
     2
 10
-92.0
 20
41.0
 30
0.0
  0
SEQEND
  5
44B
  8
0
 62
     2
  0
POLYLINE
  5
55
  8
0
 62
     2
 66
     1
 10
0.0
 20
0.0
 30
0.0
  0
VERTEX
  5
44C
  8
0
 62
     2
 10
-145.0
 20
0.0
 30
0.0
  0
VERTEX
  5
44D
  8
0
 62
     2
 10
-145.0
 20
46.0
 30
0.0
  0
SEQEND
  5
44E
  8
0
 62
     2
  0
POLYLINE
  5
56
  8
0
 62
     2
 66
     1
 10
0.0
 20
0.0
 30
0.0
  0
VERTEX
  5
44F
  8
0
 62
     2
 10
-158.0
 20
0.0
 30
0.0
  0
VERTEX
  5
450
  8
0
 62
     2
 10
-158.0
 20
46.0
 30
0.0
  0
SEQEND
  5
451
  8
0
 62
     2
  0
LINE
  5
57
  8
0
 62
     2
 10
-200.0
 20
6.0
 30
0.0
 11
-133.0
 21
6.0
 31
0.0
  0
POLYLINE
  5
58
  8
0
 62
     4
 66
     1
 10
0.0
 20
0.0
 30
0.0
  0
VERTEX
  5
452
  8
0
 62
     4
 10
-200.0
 20
11.0
 30
0.0
  0
VERTEX
  5
453
  8
0
 62
     4
 10
-133.0
 20
11.0
 30
0.0
  0
SEQEND
  5
454
  8
0
 62
     4
  0
POLYLINE
  5
59
  8
0
 62
     4
 66
     1
 10
0.0
 20
0.0
 30
0.0
  0
VERTEX
  5
455
  8
0
 62
     4
 10
-200.0
 20
16.0
 30
0.0
  0
VERTEX
  5
456
  8
0
 62
     4
 10
-133.0
 20
16.0
 30
0.0
  0
SEQEND
  5
457
  8
0
 62
     4
  0
POLYLINE
  5
5A
  8
0
 62
     4
 66
     1
 10
0.0
 20
0.0
 30
0.0
  0
VERTEX
  5
458
  8
0
 62
     4
 10
-200.0
 20
21.0
 30
0.0
  0
VERTEX
  5
459
  8
0
 62
     4
 10
-133.0
 20
21.0
 30
0.0
  0
SEQEND
  5
45A
  8
0
 62
     4
  0
POLYLINE
  5
5B
  8
0
 62
     4
 66
     1
 10
0.0
 20
0.0
 30
0.0
  0
VERTEX
  5
45B
  8
0
 62
     4
 10
-200.0
 20
26.0
 30
0.0
  0
VERTEX
  5
45C
  8
0
 62
     4
 10
-133.0
 20
26.0
 30
0.0
  0
SEQEND
  5
45D
  8
0
 62
     4
  0
POLYLINE
  5
5C
  8
0
 62
     4
 66
     1
 10
0.0
 20
0.0
 30
0.0
  0
VERTEX
  5
45E
  8
0
 62
     4
 10
-200.0
 20
31.0
 30
0.0
  0
VERTEX
  5
45F
  8
0
 62
     4
 10
-133.0
 20
31.0
 30
0.0
  0
SEQEND
  5
460
  8
0
 62
     4
  0
POLYLINE
  5
5D
  8
0
 62
     4
 66
     1
 10
0.0
 20
0.0
 30
0.0
  0
VERTEX
  5
461
  8
0
 62
     4
 10
-200.0
 20
36.0
 30
0.0
  0
VERTEX
  5
462
  8
0
 62
     4
 10
-133.0
 20
36.0
 30
0.0
  0
SEQEND
  5
463
  8
0
 62
     4
  0
POLYLINE
  5
5E
  8
0
 62
     4
 66
     1
 10
0.0
 20
0.0
 30
0.0
  0
VERTEX
  5
464
  8
0
 62
     4
 10
-200.0
 20
41.0
 30
0.0
  0
VERTEX
  5
465
  8
0
 62
     4
 10
-133.0
 20
41.0
 30
0.0
  0
SEQEND
  5
466
  8
0
 62
     4
  0
TEXT
  5
5F
  8
0
 62
     4
 10
-50.0
 20
6.0
 30
0.0
 40
1.5
  1
Zeichn. Nr.
 51
15.0
  0
TEXT
  5
60
  8
0
 62
     4
 10
-50.0
 20
23.0
 30
0.0
 40
1.5
  1
Ersetzt durch:         Blatt
 51
15.0
  0
TEXT
  5
61
  8
0
 62
     4
 10
-50.0
 20
38.0
 30
0.0
 40
1.5
  1
Gezeichnet
 51
15.0
  0
TEXT
  5
62
  8
0
 62
     4
 10
-50.0
 20
27.0
 30
0.0
 40
1.5
  1
Gesehen
 51
15.0
  0
TEXT
  5
63
  8
0
 62
     4
 10
-31.0
 20
42.0
 30
0.0
 40
1.5
  1
Datum     Name
 51
15.0
  0
TEXT
  5
64
  8
0
 62
     4
 10
-91.0
 20
42.0
 30
0.0
 40
1.5
  1
Werkstoff:      Massstab:
 51
15.0
  0
TEXT
  5
65
  8
0
 62
     4
 10
-132.0
 20
23.0
 30
0.0
 40
1.5
  1
Benennung:
 51
15.0
  0
LINE
  5
66
  8
0
 62
     2
 10
-133.0
 20
33.0
 30
0.0
 11
-92.0
 21
33.0
 31
0.0
  0
TEXT
  5
67
  8
0
 62
     4
 10
-132.0
 20
39.0
 30
0.0
 40
1.5
  1
*)Lieferant darf ohne 
 51
15.0
  0
TEXT
  5
68
  8
0
 62
     4
 10
-132.0
 20
36.5
 30
0.0
 40
1.5
  1
 Ruecksprache nicht 
 51
15.0
  0
TEXT
  5
69
  8
0
 62
     4
 10
-132.0
 20
34.0
 30
0.0
 40
1.5
  1
 geaendert werden
 51
15.0
  0
TEXT
  5
6A
  8
0
 62
     4
 10
-132.0
 20
30.0
 30
0.0
 40
1.5
  1
Zeichnung urheberrechtlich
 51
15.0
  0
TEXT
  5
6B
  8
0
 62
     4
 10
-132.0
 20
27.5
 30
0.0
 40
1.5
  1
geschuetzt (DIN 34) (C)
 51
15.0
  0
TEXT
  5
6C
  8
0
 62
     4
 10
-50.0
 20
32.0
 30
0.0
 40
1.5
  1
Geprueft
 51
15.0
  0
TEXT
  5
6D
  8
0
 62
     4
 10
-50.0
 20
15.0
 30
0.0
 40
1.5
  1
Ersatz fuer:           von  Blatt
 51
15.0
  0
TEXT
  5
6E
  8
0
 62
     4
 10
-197.0
 20
1.0
 30
0.0
 40
1.5
  1
Ind.  Aenderung             Datum    Name
 51
15.0
  0
TEXT
  5
6F
  8
0
 62
     4
 10
-128.0
 20
3.0
 30
0.0
 40
3.005964
  1
NEUTRIK AG, FL-9494 SCHAAN
  7
UNIV
 72
     3
 11
-56.0
 21
3.0
 31
0.0
  0
ATTDEF
  5
71
  8
0
 62
     4
 10
-28.875
 20
37.0
 30
0.0
 40
2.5
  1
01.10.91
 41
0.7
 51
15.0
 72
     1
 11
-24.5
 21
37.0
 31
0.0
  3
Datum der Zeichnung ?
  2
DATE
 70
     0
  0
ATTDEF
  5
72
  8
0
 62
     4
 10
-80.5
 20
36.0
 30
0.0
 40
2.5
  1

 41
0.7
 51
15.0
 72
     1
 11
-80.5
 21
36.0
 31
0.0
  3
Aus welchem Werkstoff ?
  2
WERKSTOFF
 70
     0
  0
ATTDEF
  5
73
  8
0
 62
     2
 10
-92.0
 20
12.5
 30
0.0
 40
5.0
  1

 41
0.7
 51
15.0
 72
     1
 11
-92.0
 21
12.5
 31
0.0
  3
Zeichnungsname ?
  2
BENENNUNG
 70
     0
  0
ATTDEF
  5
74
  8
0
 62
     3
 10
-93.225
 20
21.0
 30
0.0
 40
3.5
  1
()
 41
0.7
 51
15.0
 72
     1
 11
-92.0
 21
21.0
 31
0.0
  3
Zu welchem Produkt ?
  2
TEIL
 70
     0
  0
ATTDEF
  5
75
  8
0
 62
     3
 10
-25.5
 20
2.0
 30
0.0
 40
3.5
  1

 41
0.7
 51
15.0
 72
     1
 11
-25.5
 21
2.0
 31
0.0
  3
Zeichnungsnummer ?
  2
NUMMER
 70
     0
  0
ATTDEF
  5
76
  8
0
 62
     2
 10
-63.860366
 20
34.930682
 30
0.0
 40
5.0
  1
5:1
 41
0.7
 51
15.0
 72
     1
 11
-60.943699
 21
34.930682
 31
0.0
  3
Hauptmassstab:
  2
MASS
 70
     0
  0
ATTDEF
  5
77
  8
0
 62
     3
 10
-60.0
 20
29.0
 30
0.0
 40
3.5
  1

 41
0.7
 51
15.0
 72
     1
 11
-60.0
 21
29.0
 31
0.0
  3
Nebenmassstab:
  2
MASS2
 70
     0
  0
ATTDEF
  5
78
  8
0
 62
     4
 10
-81.0
 20
29.0
 30
0.0
 40
2.5
  1

 41
0.7
 51
15.0
 72
     1
 11
-81.0
 21
29.0
 31
0.0
  3
Werkstoffzusatz:
  2
TEIL
 70
     0
  0
ATTDEF
  5
79
  8
0
 62
     3
 10
-99.549591
 20
59.004319
 30
0.0
 40
3.5
  1
Freimasstoleranzen %%p0.1
 41
0.7
 51
15.0
  3
Freimasstoleranzen:
  2
TOL
 70
     0
  0
ATTDEF
  5
7A
  8
0
 62
     3
 10
-99.549591
 20
54.004319
 30
0.0
 40
3.5
  1
nicht bemasste Radien R=0.2
 41
0.7
 51
15.0
  3
Nicht bemasste Radien:
  2
RADIEN
 70
     0
  0
ATTDEF
  5
7B
  8
0
 62
     3
 10
-99.549591
 20
49.004319
 30
0.0
 40
3.5
  1
nicht bemasste Facetten 0.5 x 45%%D
 41
0.7
 51
15.0
  3
nicht bemasste Facetten:
  2
FACETTE
 70
     0
  0
POLYLINE
  5
7C
  8
0
 62
     2
 66
     1
 10
0.0
 20
0.0
 30
0.0
  0
VERTEX
  5
467
  8
0
 62
     2
 10
-191.0
 20
0.0
 30
0.0
  0
VERTEX
  5
468
  8
0
 62
     2
 10
-191.0
 20
46.0
 30
0.0
  0
SEQEND
  5
469
  8
0
 62
     2
  0
POLYLINE
  5
7D
  8
0
 62
     2
 66
     1
 10
0.0
 20
0.0
 30
0.0
  0
VERTEX
  5
46A
  8
0
 62
     2
 10
-133.0
 20
0.0
 30
0.0
  0
VERTEX
  5
46B
  8
0
 62
     2
 10
-133.0
 20
46.0
 30
0.0
  0
SEQEND
  5
46C
  8
0
 62
     2
  0
POLYLINE
  5
7E
  8
0
 62
     2
 66
     1
 10
0.0
 20
0.0
 30
0.0
  0
VERTEX
  5
46D
  8
0
 62
     2
 10
-92.0
 20
26.0
 30
0.0
  0
VERTEX
  5
46E
  8
0
 62
     2
 10
-92.0
 20
46.0
 30
0.0
  0
SEQEND
  5
46F
  8
0
 62
     2
  0
POLYLINE
  5
7F
  8
0
 62
     2
 66
     1
 10
0.0
 20
0.0
 30
0.0
  0
VERTEX
  5
470
  8
0
 62
     2
 10
-69.0
 20
26.0
 30
0.0
  0
VERTEX
  5
471
  8
0
 62
     2
 10
-69.0
 20
46.0
 30
0.0
  0
SEQEND
  5
472
  8
0
 62
     2
  0
ATTDEF
  5
80
  8
0
 62
     4
 10
-197.186267
 20
7.0
 30
0.0
 40
2.5
  1

 41
0.7
 51
15.0
  3
Index1:
  2
INDEX1
 70
     0
  0
ATTDEF
  5
81
  8
0
 62
     4
 10
-190.348743
 20
7.0
 30
0.0
 40
2.5
  1

 41
0.7
 51
15.0
  3
Aenderung1:
  2
A1
 70
     0
  0
ATTDEF
  5
82
  8
0
 62
     4
 10
-157.348743
 20
7.0
 30
0.0
 40
2.5
  1

 41
0.7
 51
15.0
  3
Datum1:
  2
DATUM1
 70
     0
  0
ATTDEF
  5
83
  8
0
 62
     4
 10
-144.46499
 20
7.0
 30
0.0
 40
2.5
  1

 41
0.7
 51
15.0
  3
Name1:
  2
NAME1
 70
     0
  0
ATTDEF
  5
84
  8
0
 62
     4
 10
-197.186267
 20
12.0
 30
0.0
 40
2.5
  1

 41
0.7
 51
15.0
  3
Index2:
  2
INDEX2
 70
     0
  0
ATTDEF
  5
85
  8
0
 62
     4
 10
-190.348743
 20
12.0
 30
0.0
 40
2.5
  1

 41
0.7
 51
15.0
  3
Aenderung2:
  2
A2
 70
     0
  0
ATTDEF
  5
86
  8
0
 62
     4
 10
-157.348743
 20
12.0
 30
0.0
 40
2.5
  1

 41
0.7
 51
15.0
  3
Datum2:
  2
DATUM2
 70
     0
  0
ATTDEF
  5
87
  8
0
 62
     4
 10
-144.46499
 20
12.0
 30
0.0
 40
2.5
  1

 41
0.7
 51
15.0
  3
Name2
  2
NAME2
 70
     0
  0
ATTDEF
  5
88
  8
0
 62
     4
 10
-197.186267
 20
17.0
 30
0.0
 40
2.5
  1

 41
0.7
 51
15.0
  3
Index3:
  2
INDEX3
 70
     0
  0
ATTDEF
  5
89
  8
0
 62
     4
 10
-190.348743
 20
17.0
 30
0.0
 40
2.5
  1

 41
0.7
 51
15.0
  3
Aenderung3
  2
A3
 70
     0
  0
ATTDEF
  5
8A
  8
0
 62
     4
 10
-157.348743
 20
17.0
 30
0.0
 40
2.5
  1

 41
0.7
 51
15.0
  3
Datum3:
  2
DATUM3
 70
     0
  0
ATTDEF
  5
8B
  8
0
 62
     4
 10
-144.46499
 20
17.0
 30
0.0
 40
2.5
  1

 41
0.7
 51
15.0
  3
Name3:
  2
NAME3
 70
     0
  0
ATTDEF
  5
8C
  8
0
 62
     4
 10
-197.186267
 20
22.0
 30
0.0
 40
2.5
  1

 41
0.7
 51
15.0
  3
Index4:
  2
INDEX4
 70
     0
  0
ATTDEF
  5
8D
  8
0
 62
     4
 10
-190.348743
 20
22.0
 30
0.0
 40
2.5
  1

 41
0.7
 51
15.0
  3
Aenderung4:
  2
A4
 70
     0
  0
ATTDEF
  5
8E
  8
0
 62
     4
 10
-157.348743
 20
22.0
 30
0.0
 40
2.5
  1

 41
0.7
 51
15.0
  3
Datum4:
  2
DATUM4
 70
     0
  0
ATTDEF
  5
8F
  8
0
 62
     4
 10
-144.46499
 20
22.0
 30
0.0
 40
2.5
  1

 41
0.7
 51
15.0
  3
Name4:
  2
NAME4
 70
     0
  0
ATTDEF
  5
90
  8
0
 62
     4
 10
-197.186267
 20
27.0
 30
0.0
 40
2.5
  1

 41
0.7
 51
15.0
  3
Index5:
  2
INDEX5
 70
     0
  0
ATTDEF
  5
91
  8
0
 62
     4
 10
-190.348743
 20
27.0
 30
0.0
 40
2.5
  1

 41
0.7
 51
15.0
  3
Aenderung5:
  2
A5
 70
     0
  0
ATTDEF
  5
92
  8
0
 62
     4
 10
-157.348743
 20
27.0
 30
0.0
 40
2.5
  1

 41
0.7
 51
15.0
  3
Datum5:
  2
DATUM5
 70
     0
  0
ATTDEF
  5
93
  8
0
 62
     4
 10
-144.46499
 20
27.0
 30
0.0
 40
2.5
  1

 41
0.7
 51
15.0
  3
Name5
  2
NAME5
 70
     0
  0
ATTDEF
  5
94
  8
0
 62
     4
 10
-197.186267
 20
32.0
 30
0.0
 40
2.5
  1

 41
0.7
 51
15.0
  3
Index6:
  2
INDEX6
 70
     0
  0
ATTDEF
  5
95
  8
0
 62
     4
 10
-190.348743
 20
32.0
 30
0.0
 40
2.5
  1

 41
0.7
 51
15.0
  3
Aenderung6:
  2
A6
 70
     0
  0
ATTDEF
  5
96
  8
0
 62
     4
 10
-157.348743
 20
32.0
 30
0.0
 40
2.5
  1

 41
0.7
 51
15.0
  3
Datum6:
  2
DATUM6
 70
     0
  0
ATTDEF
  5
97
  8
0
 62
     4
 10
-144.46499
 20
32.0
 30
0.0
 40
2.5
  1

 41
0.7
 51
15.0
  3
Name6:
  2
NAME6
 70
     0
  0
ATTDEF
  5
98
  8
0
 62
     4
 10
-197.186267
 20
37.0
 30
0.0
 40
2.5
  1

 41
0.7
 51
15.0
  3
Index7:
  2
INDEX7
 70
     0
  0
ATTDEF
  5
99
  8
0
 62
     4
 10
-190.348743
 20
37.0
 30
0.0
 40
2.5
  1

 41
0.7
 51
15.0
  3
Aenderung7:
  2
A7
 70
     0
  0
ATTDEF
  5
9A
  8
0
 62
     4
 10
-157.348743
 20
37.0
 30
0.0
 40
2.5
  1

 41
0.7
 51
15.0
  3
Datum7:
  2
DATUM7
 70
     0
  0
ATTDEF
  5
9B
  8
0
 62
     4
 10
-144.46499
 20
37.0
 30
0.0
 40
2.5
  1

 41
0.7
 51
15.0
  3
Name7:
  2
NAME7
 70
     0
  0
ATTDEF
  5
9C
  8
0
 62
     4
 10
-197.186267
 20
42.0
 30
0.0
 40
2.5
  1

 41
0.7
 51
15.0
  3
Index8:
  2
INDEX8
 70
     0
  0
ATTDEF
  5
9D
  8
0
 62
     4
 10
-190.348743
 20
42.0
 30
0.0
 40
2.5
  1

 41
0.7
 51
15.0
  3
Aenderung8:
  2
A8
 70
     0
  0
ATTDEF
  5
9E
  8
0
 62
     4
 10
-157.348743
 20
42.0
 30
0.0
 40
2.5
  1

 41
0.7
 51
15.0
  3
Datum8:
  2
DATUM8
 70
     0
  0
ATTDEF
  5
9F
  8
0
 62
     4
 10
-144.46499
 20
42.0
 30
0.0
 40
2.5
  1

 41
0.7
 51
15.0
  3
Name8:
  2
NAME8
 70
     0
  0
POLYLINE
  5
A0
  8
0
 62
     2
 66
     1
 10
0.0
 20
0.0
 30
0.0
  0
VERTEX
  5
473
  8
0
 62
     2
 10
0.0
 20
0.0
 30
0.0
  0
VERTEX
  5
474
  8
0
 62
     2
 10
0.0
 20
46.0
 30
0.0
  0
SEQEND
  5
475
  8
0
 62
     2
  0
POLYLINE
  5
A1
  8
0
 62
     2
 66
     1
 10
0.0
 20
0.0
 30
0.0
  0
VERTEX
  5
476
  8
0
 62
     2
 10
-200.0
 20
46.0
 30
0.0
  0
VERTEX
  5
477
  8
0
 62
     2
 10
-200.0
 20
0.0
 30
0.0
  0
SEQEND
  5
478
  8
0
 62
     2
  0
POLYLINE
  5
A2
  8
0
 62
     2
 66
     1
 10
0.0
 20
0.0
 30
0.0
  0
VERTEX
  5
479
  8
0
 62
     2
 10
0.0
 20
9.0
 30
0.0
  0
VERTEX
  5
47A
  8
0
 62
     2
 10
-133.0
 20
9.0
 30
0.0
  0
SEQEND
  5
47B
  8
0
 62
     2
  0
POLYLINE
  5
A3
  8
0
 62
     2
 66
     1
 10
0.0
 20
0.0
 30
0.0
  0
VERTEX
  5
47C
  8
0
 62
     2
 10
0.0
 20
18.0
 30
0.0
  0
VERTEX
  5
47D
  8
0
 62
     2
 10
-51.0
 20
18.0
 30
0.0
  0
SEQEND
  5
47E
  8
0
 62
     2
  0
POLYLINE
  5
A4
  8
0
 62
     2
 66
     1
 10
0.0
 20
0.0
 30
0.0
  0
VERTEX
  5
47F
  8
0
 62
     2
 10
0.0
 20
26.0
 30
0.0
  0
VERTEX
  5
480
  8
0
 62
     2
 10
-133.0
 20
26.0
 30
0.0
  0
SEQEND
  5
481
  8
0
 62
     2
  0
POLYLINE
  5
A5
  8
0
 62
     2
 66
     1
 10
0.0
 20
0.0
 30
0.0
  0
VERTEX
  5
482
  8
0
 62
     2
 10
0.0
 20
31.0
 30
0.0
  0
VERTEX
  5
483
  8
0
 62
     2
 10
-51.0
 20
31.0
 30
0.0
  0
SEQEND
  5
484
  8
0
 62
     2
  0
POLYLINE
  5
A6
  8
0
 62
     2
 66
     1
 10
0.0
 20
0.0
 30
0.0
  0
VERTEX
  5
485
  8
0
 62
     2
 10
0.0
 20
36.0
 30
0.0
  0
VERTEX
  5
486
  8
0
 62
     2
 10
-51.0
 20
36.0
 30
0.0
  0
SEQEND
  5
487
  8
0
 62
     2
  0
POLYLINE
  5
A7
  8
0
 62
     2
 66
     1
 10
0.0
 20
0.0
 30
0.0
  0
VERTEX
  5
488
  8
0
 62
     2
 10
0.0
 20
41.0
 30
0.0
  0
VERTEX
  5
489
  8
0
 62
     2
 10
-51.0
 20
41.0
 30
0.0
  0
SEQEND
  5
48A
  8
0
 62
     2
  0
POLYLINE
  5
A8
  8
0
 62
     2
 66
     1
 10
0.0
 20
0.0
 30
0.0
  0
VERTEX
  5
48B
  8
0
 62
     2
 10
0.0
 20
46.0
 30
0.0
  0
VERTEX
  5
48C
  8
0
 62
     2
 10
-200.0
 20
46.0
 30
0.0
  0
SEQEND
  5
48D
  8
0
 62
     2
  0
ENDBLK
  5
AA
  8
0
  0
ENDSEC
  0
SECTION
  2
ENTITIES
  0
POLYLINE
  5
1E
  8
RAHMEN
 66
     1
 10
0.0
 20
0.0
 30
0.0
 70
     1
  0
VERTEX
  5
43B
  8
RAHMEN
 10
202.0
 20
5.0
 30
0.0
  0
VERTEX
  5
43C
  8
RAHMEN
 10
402.0
 20
5.0
 30
0.0
  0
VERTEX
  5
43D
  8
RAHMEN
 10
402.0
 20
282.0
 30
0.0
  0
VERTEX
  5
43E
  8
RAHMEN
 10
202.0
 20
282.0
 30
0.0
  0
SEQEND
  5
43F
  8
RAHMEN
  0
INSERT
  5
20
  8
05
 66
     1
  2
ZKOPF
 10
402.0
 20
5.0
 30
0.0
  0
ATTRIB
  5
21
  8
0
 62
     4
 10
386.833333
 20
42.0
 30
0.0
 40
2.5
  1
Battlogg
  7
SCRIPTS
 72
     1
 11
393.5
 21
42.0
 31
0.0
  2
NAME
 70
     0
  0
ATTRIB
  5
23
  8
0
 62
     4
 10
373.125
 20
42.0
 30
0.0
 40
2.5
  1
25.7.00
 41
0.7
 51
15.0
 72
     1
 11
377.5
 21
42.0
 31
0.0
  2
DATE
 70
     0
  0
ATTRIB
  5
24
  8
0
 62
     4
 10
321.5
 20
41.0
 30
0.0
 40
2.5
  1

 41
0.7
 51
15.0
 72
     1
 11
321.5
 21
41.0
 31
0.0
  2
WERKSTOFF
 70
     0
  0
ATTRIB
  5
25
  8
0
 62
     2
 10
295.416667
 20
17.5
 30
0.0
 40
5.0
  1
DIE-BNC-U
 41
0.7
 51
15.0
 72
     1
 11
310.0
 21
17.5
 31
0.0
  2
BENENNUNG
 70
     0
  0
ATTRIB
  5
26
  8
0
 62
     3
 10
306.733333
 20
26.0
 30
0.0
 40
3.5
  1
BNC
 41
0.7
 51
15.0
 72
     1
 11
310.0
 21
26.0
 31
0.0
  2
TEIL
 70
     0
  0
ATTRIB
  5
27
  8
0
 62
     3
 10
376.5
 20
7.0
 30
0.0
 40
3.5
  1

 41
0.7
 51
15.0
 72
     1
 11
376.5
 21
7.0
 31
0.0
  2
NUMMER
 70
     0
  0
ATTRIB
  5
28
  8
0
 62
     2
 10
341.056301
 20
39.930682
 30
0.0
 40
5.0
  1

 41
0.7
 51
15.0
 72
     1
 11
341.056301
 21
39.930682
 31
0.0
  2
MASS
 70
     0
  0
ATTRIB
  5
29
  8
0
 62
     3
 10
342.0
 20
34.0
 30
0.0
 40
3.5
  1

 41
0.7
 51
15.0
 72
     1
 11
342.0
 21
34.0
 31
0.0
  2
MASS2
 70
     0
  0
ATTRIB
  5
2A
  8
0
 62
     4
 10
321.0
 20
34.0
 30
0.0
 40
2.5
  1

 41
0.7
 51
15.0
 72
     1
 11
321.0
 21
34.0
 31
0.0
  2
TEIL
 70
     0
  0
ATTRIB
  5
2B
  8
0
 62
     3
 10
302.450409
 20
64.004319
 30
0.0
 40
3.5
  1
 
 41
0.7
 51
15.0
  2
TOL
 70
     0
  0
ATTRIB
  5
2C
  8
0
 62
     3
 10
302.450409
 20
59.004319
 30
0.0
 40
3.5
  1

 41
0.7
 51
15.0
  2
RADIEN
 70
     0
  0
ATTRIB
  5
2D
  8
0
 62
     3
 10
302.450409
 20
54.004319
 30
0.0
 40
3.5
  1

 41
0.7
 51
15.0
  2
FACETTE
 70
     0
  0
ATTRIB
  5
2E
  8
0
 62
     4
 10
204.813733
 20
12.0
 30
0.0
 40
2.5
  1

 41
0.7
 51
15.0
  2
INDEX1
 70
     0
  0
ATTRIB
  5
2F
  8
0
 62
     4
 10
211.651257
 20
12.0
 30
0.0
 40
2.5
  1

 41
0.7
 51
15.0
  2
A1
 70
     0
  0
ATTRIB
  5
30
  8
0
 62
     4
 10
244.651257
 20
12.0
 30
0.0
 40
2.5
  1

 41
0.7
 51
15.0
  2
DATUM1
 70
     0
  0
ATTRIB
  5
31
  8
0
 62
     4
 10
257.53501
 20
12.0
 30
0.0
 40
2.5
  1

 41
0.7
 51
15.0
  2
NAME1
 70
     0
  0
ATTRIB
  5
32
  8
0
 62
     4
 10
204.813733
 20
17.0
 30
0.0
 40
2.5
  1

 41
0.7
 51
15.0
  2
INDEX2
 70
     0
  0
ATTRIB
  5
33
  8
0
 62
     4
 10
211.651257
 20
17.0
 30
0.0
 40
2.5
  1

 41
0.7
 51
15.0
  2
A2
 70
     0
  0
ATTRIB
  5
34
  8
0
 62
     4
 10
244.651257
 20
17.0
 30
0.0
 40
2.5
  1

 41
0.7
 51
15.0
  2
DATUM2
 70
     0
  0
ATTRIB
  5
35
  8
0
 62
     4
 10
257.53501
 20
17.0
 30
0.0
 40
2.5
  1

 41
0.7
 51
15.0
  2
NAME2
 70
     0
  0
ATTRIB
  5
36
  8
0
 62
     4
 10
204.813733
 20
22.0
 30
0.0
 40
2.5
  1

 41
0.7
 51
15.0
  2
INDEX3
 70
     0
  0
ATTRIB
  5
37
  8
0
 62
     4
 10
211.651257
 20
22.0
 30
0.0
 40
2.5
  1

 41
0.7
 51
15.0
  2
A3
 70
     0
  0
ATTRIB
  5
38
  8
0
 62
     4
 10
244.651257
 20
22.0
 30
0.0
 40
2.5
  1

 41
0.7
 51
15.0
  2
DATUM3
 70
     0
  0
ATTRIB
  5
39
  8
0
 62
     4
 10
257.53501
 20
22.0
 30
0.0
 40
2.5
  1

 41
0.7
 51
15.0
  2
NAME3
 70
     0
  0
ATTRIB
  5
3A
  8
0
 62
     4
 10
204.813733
 20
27.0
 30
0.0
 40
2.5
  1

 41
0.7
 51
15.0
  2
INDEX4
 70
     0
  0
ATTRIB
  5
3B
  8
0
 62
     4
 10
211.651257
 20
27.0
 30
0.0
 40
2.5
  1

 41
0.7
 51
15.0
  2
A4
 70
     0
  0
ATTRIB
  5
3C
  8
0
 62
     4
 10
244.651257
 20
27.0
 30
0.0
 40
2.5
  1

 41
0.7
 51
15.0
  2
DATUM4
 70
     0
  0
ATTRIB
  5
3D
  8
0
 62
     4
 10
257.53501
 20
27.0
 30
0.0
 40
2.5
  1

 41
0.7
 51
15.0
  2
NAME4
 70
     0
  0
ATTRIB
  5
3E
  8
0
 62
     4
 10
204.813733
 20
32.0
 30
0.0
 40
2.5
  1

 41
0.7
 51
15.0
  2
INDEX5
 70
     0
  0
ATTRIB
  5
3F
  8
0
 62
     4
 10
211.651257
 20
32.0
 30
0.0
 40
2.5
  1

 41
0.7
 51
15.0
  2
A5
 70
     0
  0
ATTRIB
  5
40
  8
0
 62
     4
 10
244.651257
 20
32.0
 30
0.0
 40
2.5
  1

 41
0.7
 51
15.0
  2
DATUM5
 70
     0
  0
ATTRIB
  5
41
  8
0
 62
     4
 10
257.53501
 20
32.0
 30
0.0
 40
2.5
  1

 41
0.7
 51
15.0
  2
NAME5
 70
     0
  0
ATTRIB
  5
42
  8
0
 62
     4
 10
204.813733
 20
37.0
 30
0.0
 40
2.5
  1

 41
0.7
 51
15.0
  2
INDEX6
 70
     0
  0
ATTRIB
  5
43
  8
0
 62
     4
 10
211.651257
 20
37.0
 30
0.0
 40
2.5
  1

 41
0.7
 51
15.0
  2
A6
 70
     0
  0
ATTRIB
  5
44
  8
0
 62
     4
 10
244.651257
 20
37.0
 30
0.0
 40
2.5
  1

 41
0.7
 51
15.0
  2
DATUM6
 70
     0
  0
ATTRIB
  5
45
  8
0
 62
     4
 10
257.53501
 20
37.0
 30
0.0
 40
2.5
  1

 41
0.7
 51
15.0
  2
NAME6
 70
     0
  0
ATTRIB
  5
46
  8
0
 62
     4
 10
204.813733
 20
42.0
 30
0.0
 40
2.5
  1

 41
0.7
 51
15.0
  2
INDEX7
 70
     0
  0
ATTRIB
  5
47
  8
0
 62
     4
 10
211.651257
 20
42.0
 30
0.0
 40
2.5
  1

 41
0.7
 51
15.0
  2
A7
 70
     0
  0
ATTRIB
  5
48
  8
0
 62
     4
 10
244.651257
 20
42.0
 30
0.0
 40
2.5
  1

 41
0.7
 51
15.0
  2
DATUM7
 70
     0
  0
ATTRIB
  5
49
  8
0
 62
     4
 10
257.53501
 20
42.0
 30
0.0
 40
2.5
  1

 41
0.7
 51
15.0
  2
NAME7
 70
     0
  0
ATTRIB
  5
4A
  8
0
 62
     4
 10
204.813733
 20
47.0
 30
0.0
 40
2.5
  1

 41
0.7
 51
15.0
  2
INDEX8
 70
     0
  0
ATTRIB
  5
4B
  8
0
 62
     4
 10
211.651257
 20
47.0
 30
0.0
 40
2.5
  1

 41
0.7
 51
15.0
  2
A8
 70
     0
  0
ATTRIB
  5
4C
  8
0
 62
     4
 10
244.651257
 20
47.0
 30
0.0
 40
2.5
  1

 41
0.7
 51
15.0
  2
DATUM8
 70
     0
  0
ATTRIB
  5
4D
  8
0
 62
     4
 10
257.53501
 20
47.0
 30
0.0
 40
2.5
  1

 41
0.7
 51
15.0
  2
NAME8
 70
     0
  0
SEQEND
  5
AB
  8
05
  0
POLYLINE
  5
AC
  8
025
 66
     1
 10
0.0
 20
0.0
 30
0.0
  0
VERTEX
  5
48E
  8
025
 10
234.982071
 20
143.07106
 30
0.0
  0
VERTEX
  5
48F
  8
025
 10
234.771399
 20
143.619595
 30
0.0
  0
VERTEX
  5
490
  8
025
 10
234.142938
 20
145.074787
 30
0.0
  0
SEQEND
  5
491
  8
025
  0
POLYLINE
  5
AE
  8
025
 66
     1
 10
0.0
 20
0.0
 30
0.0
  0
VERTEX
  5
492
  8
025
 10
220.018877
 20
141.751833
 30
0.0
  0
VERTEX
  5
493
  8
025
 10
220.012473
 20
141.765047
 30
0.0
  0
VERTEX
  5
494
  8
025
 10
219.267155
 20
143.129824
 30
0.0
  0
VERTEX
  5
495
  8
025
 10
218.520645
 20
144.328002
 30
0.0
  0
VERTEX
  5
496
  8
025
 10
217.791323
 20
145.330079
 30
0.0
  0
VERTEX
  5
497
  8
025
 10
217.097149
 20
146.111381
 30
0.0
  0
VERTEX
  5
498
  8
025
 10
216.455215
 20
146.652668
 30
0.0
  0
VERTEX
  5
499
  8
025
 10
215.881327
 20
146.940614
 30
0.0
  0
VERTEX
  5
49A
  8
025
 10
215.389618
 20
146.968127
 30
0.0
  0
VERTEX
  5
49B
  8
025
 10
215.298452
 20
146.940811
 30
0.0
  0
SEQEND
  5
49C
  8
025
  0
LINE
  5
AF
  8
05
 10
347.387594
 20
144.540029
 30
0.0
 11
343.644987
 21
139.112341
 31
0.0
  0
LINE
  5
B0
  8
025
 10
339.854905
 20
140.939964
 30
0.0
 11
339.414536
 21
143.706109
 31
0.0
  0
LINE
  5
B1
  8
025
 10
339.220927
 20
143.948665
 30
0.0
 11
336.999644
 21
143.125355
 31
0.0
  0
LINE
  5
B2
  8
025
 10
339.414536
 20
143.706109
 30
0.0
 11
337.193253
 21
142.882799
 31
0.0
  0
LINE
  5
B3
  8
025
 10
339.414536
 20
143.706109
 30
0.0
 11
339.854905
 21
140.939964
 31
0.0
  0
LINE
  5
B4
  8
025
 10
337.193253
 20
142.882799
 30
0.0
 11
339.414536
 21
143.706109
 31
0.0
  0
LINE
  5
B5
  8
025
 10
336.937484
 20
143.293062
 30
0.0
 11
339.158767
 21
144.116372
 31
0.0
  0
LINE
  5
B6
  8
025
 10
340.032761
 20
144.440315
 30
0.0
 11
340.549055
 21
141.197249
 31
0.0
  0
LINE
  5
B7
  8
025
 10
339.886403
 20
144.386067
 30
0.0
 11
340.355446
 21
141.439805
 31
0.0
  0
LINE
  5
B8
  8
025
 10
340.549055
 20
141.197249
 30
0.0
 11
340.032761
 21
144.440315
 31
0.0
  0
LINE
  5
B9
  8
025
 10
334.034857
 20
143.328352
 30
0.0
 11
333.711642
 21
143.511591
 31
0.0
  0
LINE
  5
BA
  8
025
 10
335.468714
 20
143.556768
 30
0.0
 11
334.913394
 21
143.350941
 31
0.0
  0
LINE
  5
BB
  8
025
 10
334.034857
 20
143.328352
 30
0.0
 11
333.841248
 21
143.570909
 31
0.0
  0
LINE
  5
BC
  8
025
 10
334.481718
 20
143.291954
 30
0.0
 11
334.288109
 21
143.534511
 31
0.0
  0
LINE
  5
BD
  8
025
 10
334.913394
 20
143.350941
 30
0.0
 11
334.719784
 21
143.593498
 31
0.0
  0
LINE
  5
BE
  8
025
 10
335.468714
 20
143.556768
 30
0.0
 11
334.913394
 21
143.350941
 31
0.0
  0
LINE
  5
BF
  8
025
 10
334.034857
 20
143.328352
 30
0.0
 11
333.711642
 21
143.511591
 31
0.0
  0
LINE
  5
C0
  8
025
 10
340.032761
 20
144.440315
 30
0.0
 11
336.423177
 21
143.102435
 31
0.0
  0
LINE
  5
C1
  8
035
 10
327.109055
 20
139.701889
 30
0.0
 11
326.258688
 21
145.04341
 31
0.0
  0
POLYLINE
  5
C3
  8
05
 66
     1
 10
0.0
 20
0.0
 30
0.0
  0
VERTEX
  5
49D
  8
05
 10
328.900402
 20
143.314144
 30
0.0
  0
VERTEX
  5
49E
  8
05
 10
328.522387
 20
143.749787
 30
0.0
  0
VERTEX
  5
49F
  8
05
 10
327.427579
 20
144.695496
 30
0.0
  0
VERTEX
  5
4A0
  8
05
 10
326.138111
 20
145.422858
 30
0.0
  0
VERTEX
  5
4A1
  8
05
 10
324.685734
 20
145.913961
 30
0.0
  0
VERTEX
  5
4A2
  8
05
 10
323.10621
 20
146.156714
 30
0.0
  0
VERTEX
  5
4A3
  8
05
 10
321.438432
 20
146.145138
 30
0.0
  0
VERTEX
  5
4A4
  8
05
 10
319.723466
 20
145.87952
 30
0.0
  0
VERTEX
  5
4A5
  8
05
 10
318.003541
 20
145.3664
 30
0.0
  0
SEQEND
  5
4A6
  8
05
  0
LINE
  5
C4
  8
05
 10
314.591227
 20
143.761672
 30
0.0
 11
315.034399
 21
143.206458
 31
0.0
  0
LINE
  5
C5
  8
05
 10
312.871522
 20
142.432031
 30
0.0
 11
314.14995
 21
144.286061
 31
0.0
  0
POLYLINE
  5
C6
  8
05
 66
     1
 10
0.0
 20
0.0
 30
0.0
  0
VERTEX
  5
4A7
  8
05
 10
312.393157
 20
143.002884
 30
0.0
  0
VERTEX
  5
4A8
  8
05
 10
312.98153
 20
143.288457
 30
0.0
  0
VERTEX
  5
4A9
  8
05
 10
313.515455
 20
143.684932
 30
0.0
  0
VERTEX
  5
4AA
  8
05
 10
313.963887
 20
144.169281
 30
0.0
  0
VERTEX
  5
4AB
  8
05
 10
314.085884
 20
144.366323
 30
0.0
  0
SEQEND
  5
4AC
  8
05
  0
LINE
  5
C7
  8
05
 10
295.486311
 20
146.618087
 30
0.0
 11
296.929111
 21
137.55524
 31
0.0
  0
LINE
  5
C8
  8
05
 10
254.241777
 20
144.226019
 30
0.0
 11
246.902032
 21
141.50557
 31
0.0
  0
POLYLINE
  5
C9
  8
035
 66
     1
 10
0.0
 20
0.0
 30
0.0
  0
VERTEX
  5
4AD
  8
035
 10
247.335863
 20
139.399015
 30
0.0
  0
VERTEX
  5
4AE
  8
035
 10
247.056553
 20
140.871803
 30
0.0
  0
VERTEX
  5
4AF
  8
035
 10
246.672088
 20
142.448682
 30
0.0
  0
VERTEX
  5
4B0
  8
035
 10
246.191936
 20
144.090822
 30
0.0
  0
VERTEX
  5
4B1
  8
035
 10
245.62792
 20
145.757789
 30
0.0
  0
VERTEX
  5
4B2
  8
035
 10
244.993928
 20
147.408537
 30
0.0
  0
VERTEX
  5
4B3
  8
035
 10
244.30557
 20
149.00242
 30
0.0
  0
VERTEX
  5
4B4
  8
035
 10
243.579797
 20
150.500189
 30
0.0
  0
VERTEX
  5
4B5
  8
035
 10
242.834479
 20
151.864965
 30
0.0
  0
VERTEX
  5
4B6
  8
035
 10
242.087968
 20
153.063144
 30
0.0
  0
VERTEX
  5
4B7
  8
035
 10
241.358646
 20
154.065221
 30
0.0
  0
VERTEX
  5
4B8
  8
035
 10
240.664472
 20
154.846523
 30
0.0
  0
VERTEX
  5
4B9
  8
035
 10
240.022538
 20
155.38781
 30
0.0
  0
VERTEX
  5
4BA
  8
035
 10
239.448651
 20
155.675755
 30
0.0
  0
VERTEX
  5
4BB
  8
035
 10
239.230814
 20
155.687944
 30
0.0
  0
SEQEND
  5
4BC
  8
035
  0
LINE
  5
CA
  8
035
 10
315.034399
 20
143.206458
 30
0.0
 11
313.865145
 21
150.551049
 31
0.0
  0
LINE
  5
CB
  8
05
 10
259.451455
 20
130.805856
 30
0.0
 11
252.010747
 21
177.54416
 31
0.0
  0
LINE
  5
CC
  8
035
 10
271.068006
 20
116.252454
 30
0.0
 11
264.091884
 21
160.072487
 31
0.0
  0
LINE
  5
CD
  8
05
 10
214.967172
 20
146.707386
 30
0.0
 11
211.771273
 21
143.113627
 31
0.0
  0
POLYLINE
  5
CE
  8
035
 66
     1
 10
0.0
 20
0.0
 30
0.0
  0
VERTEX
  5
4BD
  8
035
 10
234.068325
 20
134.481451
 30
0.0
  0
VERTEX
  5
4BE
  8
035
 10
233.789015
 20
135.954239
 30
0.0
  0
VERTEX
  5
4BF
  8
035
 10
233.40455
 20
137.531117
 30
0.0
  0
VERTEX
  5
4C0
  8
035
 10
232.924398
 20
139.173258
 30
0.0
  0
VERTEX
  5
4C1
  8
035
 10
232.360382
 20
140.840225
 30
0.0
  0
VERTEX
  5
4C2
  8
035
 10
231.72639
 20
142.490973
 30
0.0
  0
VERTEX
  5
4C3
  8
035
 10
231.038032
 20
144.084855
 30
0.0
  0
VERTEX
  5
4C4
  8
035
 10
230.312259
 20
145.582625
 30
0.0
  0
VERTEX
  5
4C5
  8
035
 10
229.566941
 20
146.947401
 30
0.0
  0
VERTEX
  5
4C6
  8
035
 10
228.82043
 20
148.14558
 30
0.0
  0
VERTEX
  5
4C7
  8
035
 10
228.091108
 20
149.147657
 30
0.0
  0
VERTEX
  5
4C8
  8
035
 10
227.396934
 20
149.928958
 30
0.0
  0
VERTEX
  5
4C9
  8
035
 10
226.755
 20
150.470246
 30
0.0
  0
VERTEX
  5
4CA
  8
035
 10
226.459934
 20
150.645821
 30
0.0
  0
SEQEND
  5
4CB
  8
035
  0
POLYLINE
  5
CF
  8
025
 66
     1
 10
0.0
 20
0.0
 30
0.0
  0
VERTEX
  5
4CC
  8
025
 10
234.466622
 20
135.147702
 30
0.0
  0
VERTEX
  5
4CD
  8
025
 10
234.206923
 20
136.517081
 30
0.0
  0
VERTEX
  5
4CE
  8
025
 10
233.849452
 20
137.983243
 30
0.0
  0
VERTEX
  5
4CF
  8
025
 10
233.403014
 20
139.510084
 30
0.0
  0
VERTEX
  5
4D0
  8
025
 10
232.878599
 20
141.060009
 30
0.0
  0
VERTEX
  5
4D1
  8
025
 10
232.289121
 20
142.594853
 30
0.0
  0
VERTEX
  5
4D2
  8
025
 10
231.649094
 20
144.076825
 30
0.0
  0
VERTEX
  5
4D3
  8
025
 10
230.97428
 20
145.469431
 30
0.0
  0
VERTEX
  5
4D4
  8
025
 10
230.281292
 20
146.738383
 30
0.0
  0
VERTEX
  5
4D5
  8
025
 10
229.587196
 20
147.852434
 30
0.0
  0
VERTEX
  5
4D6
  8
025
 10
228.909082
 20
148.784153
 30
0.0
  0
VERTEX
  5
4D7
  8
025
 10
228.263648
 20
149.510597
 30
0.0
  0
VERTEX
  5
4D8
  8
025
 10
227.666786
 20
150.013879
 30
0.0
  0
VERTEX
  5
4D9
  8
025
 10
227.392437
 20
150.177126
 30
0.0
  0
SEQEND
  5
4DA
  8
025
  0
LINE
  5
D0
  8
025
 10
334.720351
 20
139.945974
 30
0.0
 11
335.043568
 21
139.762736
 31
0.0
  0
LINE
  5
D1
  8
025
 10
334.648754
 20
142.242727
 30
0.0
 11
335.173705
 21
142.639323
 31
0.0
  0
LINE
  5
D2
  8
025
 10
334.941069
 20
139.432987
 30
0.0
 11
334.340193
 21
139.513312
 31
0.0
  0
LINE
  5
D3
  8
025
 10
335.264816
 20
142.067018
 30
0.0
 11
334.739865
 21
141.670422
 31
0.0
  0
LINE
  5
D4
  8
025
 10
334.770109
 20
142.082098
 30
0.0
 11
334.546256
 21
141.912978
 31
0.0
  0
LINE
  5
D5
  8
025
 10
334.913394
 20
143.350941
 30
0.0
 11
334.481718
 21
143.291954
 31
0.0
  0
LINE
  5
D6
  8
025
 10
334.913394
 20
143.350941
 30
0.0
 11
334.481718
 21
143.291954
 31
0.0
  0
LINE
  5
D7
  8
025
 10
335.173705
 20
142.639323
 30
0.0
 11
334.648754
 21
142.242727
 31
0.0
  0
LINE
  5
D8
  8
025
 10
334.739865
 20
141.670422
 30
0.0
 11
335.264816
 21
142.067018
 31
0.0
  0
LINE
  5
D9
  8
025
 10
335.043568
 20
139.762736
 30
0.0
 11
334.720351
 21
139.945974
 31
0.0
  0
LINE
  5
DA
  8
025
 10
335.134678
 20
139.19043
 30
0.0
 11
334.533802
 21
139.270755
 31
0.0
  0
LINE
  5
DB
  8
025
 10
334.533802
 20
139.270755
 30
0.0
 11
335.134678
 21
139.19043
 31
0.0
  0
LINE
  5
DC
  8
05
 10
331.247451
 20
134.51724
 30
0.0
 11
343.644987
 21
139.112341
 31
0.0
  0
LINE
  5
DD
  8
05
 10
271.068006
 20
116.252454
 30
0.0
 11
259.451455
 21
130.805856
 31
0.0
  0
LINE
  5
DE
  8
05
 10
246.70632
 20
134.522242
 30
0.0
 11
236.483791
 21
130.7333
 31
0.0
  0
POLYLINE
  5
DF
  8
025
 66
     1
 10
0.0
 20
0.0
 30
0.0
  0
VERTEX
  5
4DB
  8
025
 10
223.76854
 20
130.663873
 30
0.0
  0
VERTEX
  5
4DC
  8
025
 10
223.489229
 20
132.136662
 30
0.0
  0
VERTEX
  5
4DD
  8
025
 10
223.104765
 20
133.71354
 30
0.0
  0
VERTEX
  5
4DE
  8
025
 10
222.624613
 20
135.35568
 30
0.0
  0
VERTEX
  5
4DF
  8
025
 10
222.060597
 20
137.022648
 30
0.0
  0
VERTEX
  5
4E0
  8
025
 10
221.751649
 20
137.827067
 30
0.0
  0
SEQEND
  5
4E1
  8
025
  0
LINE
  5
E0
  8
05
 10
222.735608
 20
125.748224
 30
0.0
 11
217.969493
 21
126.390891
 31
0.0
  0
POLYLINE
  5
E1
  8
05
 66
     1
 10
0.0
 20
0.0
 30
0.0
  0
VERTEX
  5
4E2
  8
05
 10
217.969606
 20
126.390984
 30
0.0
  0
VERTEX
  5
4E3
  8
05
 10
217.664652
 20
126.482725
 30
0.0
  0
VERTEX
  5
4E4
  8
05
 10
217.158657
 20
126.80952
 30
0.0
  0
VERTEX
  5
4E5
  8
05
 10
216.59824
 20
127.355936
 30
0.0
  0
VERTEX
  5
4E6
  8
05
 10
215.998685
 20
128.107068
 30
0.0
  0
VERTEX
  5
4E7
  8
05
 10
215.376348
 20
129.042426
 30
0.0
  0
VERTEX
  5
4E8
  8
05
 10
214.748205
 20
130.136497
 30
0.0
  0
VERTEX
  5
4E9
  8
05
 10
214.131388
 20
131.359437
 30
0.0
  0
VERTEX
  5
4EA
  8
05
 10
213.542724
 20
132.677887
 30
0.0
  0
VERTEX
  5
4EB
  8
05
 10
212.99827
 20
134.055884
 30
0.0
  0
VERTEX
  5
4EC
  8
05
 10
212.512876
 20
135.455839
 30
0.0
  0
VERTEX
  5
4ED
  8
05
 10
212.099784
 20
136.839566
 30
0.0
  0
VERTEX
  5
4EE
  8
05
 10
211.770261
 20
138.16932
 30
0.0
  0
VERTEX
  5
4EF
  8
05
 10
211.533297
 20
139.408828
 30
0.0
  0
SEQEND
  5
4F0
  8
05
  0
POLYLINE
  5
E2
  8
025
 66
     1
 10
0.0
 20
0.0
 30
0.0
  0
VERTEX
  5
4F1
  8
025
 10
218.79364
 20
130.312952
 30
0.0
  0
VERTEX
  5
4F2
  8
025
 10
218.556676
 20
131.552461
 30
0.0
  0
VERTEX
  5
4F3
  8
025
 10
218.227153
 20
132.882214
 30
0.0
  0
VERTEX
  5
4F4
  8
025
 10
217.814061
 20
134.265941
 30
0.0
  0
VERTEX
  5
4F5
  8
025
 10
217.328667
 20
135.665897
 30
0.0
  0
VERTEX
  5
4F6
  8
025
 10
216.799241
 20
137.005859
 30
0.0
  0
SEQEND
  5
4F7
  8
025
  0
POLYLINE
  5
E3
  8
025
 66
     1
 10
0.0
 20
0.0
 30
0.0
  0
VERTEX
  5
4F8
  8
025
 10
218.79364
 20
130.312952
 30
0.0
  0
VERTEX
  5
4F9
  8
025
 10
218.931584
 20
129.1975
 30
0.0
  0
VERTEX
  5
4FA
  8
025
 10
218.966743
 20
128.23653
 30
0.0
  0
VERTEX
  5
4FB
  8
025
 10
218.898158
 20
127.456255
 30
0.0
  0
VERTEX
  5
4FC
  8
025
 10
218.727701
 20
126.87796
 30
0.0
  0
VERTEX
  5
4FD
  8
025
 10
218.460021
 20
126.517418
 30
0.0
  0
VERTEX
  5
4FE
  8
025
 10
218.10242
 20
126.384464
 30
0.0
  0
VERTEX
  5
4FF
  8
025
 10
217.969606
 20
126.390984
 30
0.0
  0
SEQEND
  5
500
  8
025
  0
POLYLINE
  5
E4
  8
025
 66
     1
 10
0.0
 20
0.0
 30
0.0
  0
VERTEX
  5
501
  8
025
 10
216.015311
 20
138.719696
 30
0.0
  0
VERTEX
  5
502
  8
025
 10
215.578732
 20
139.585284
 30
0.0
  0
VERTEX
  5
503
  8
025
 10
214.950589
 20
140.679354
 30
0.0
  0
VERTEX
  5
504
  8
025
 10
214.328252
 20
141.614713
 30
0.0
  0
VERTEX
  5
505
  8
025
 10
213.728697
 20
142.365844
 30
0.0
  0
VERTEX
  5
506
  8
025
 10
213.16828
 20
142.91226
 30
0.0
  0
VERTEX
  5
507
  8
025
 10
212.662285
 20
143.239056
 30
0.0
  0
VERTEX
  5
508
  8
025
 10
212.224517
 20
143.337317
 30
0.0
  0
VERTEX
  5
509
  8
025
 10
211.866916
 20
143.204363
 30
0.0
  0
VERTEX
  5
50A
  8
025
 10
211.77142
 20
143.113633
 30
0.0
  0
SEQEND
  5
50B
  8
025
  0
POLYLINE
  5
E5
  8
05
 66
     1
 10
0.0
 20
0.0
 30
0.0
  0
VERTEX
  5
50C
  8
05
 10
211.77142
 20
143.113633
 30
0.0
  0
VERTEX
  5
50D
  8
05
 10
211.599236
 20
142.843821
 30
0.0
  0
VERTEX
  5
50E
  8
05
 10
211.428779
 20
142.265525
 30
0.0
  0
VERTEX
  5
50F
  8
05
 10
211.360194
 20
141.485251
 30
0.0
  0
VERTEX
  5
510
  8
05
 10
211.395353
 20
140.524281
 30
0.0
  0
VERTEX
  5
511
  8
05
 10
211.533297
 20
139.408828
 30
0.0
  0
SEQEND
  5
512
  8
05
  0
POLYLINE
  5
E6
  8
025
 66
     1
 10
0.0
 20
0.0
 30
0.0
  0
VERTEX
  5
513
  8
025
 10
221.127421
 20
139.366151
 30
0.0
  0
VERTEX
  5
514
  8
025
 10
220.738247
 20
140.267278
 30
0.0
  0
VERTEX
  5
515
  8
025
 10
220.548736
 20
140.658368
 30
0.0
  0
SEQEND
  5
516
  8
025
  0
POLYLINE
  5
E7
  8
05
 66
     1
 10
0.0
 20
0.0
 30
0.0
  0
VERTEX
  5
517
  8
05
 10
234.068325
 20
134.481451
 30
0.0
  0
VERTEX
  5
518
  8
05
 10
234.235604
 20
133.149018
 30
0.0
  0
VERTEX
  5
519
  8
05
 10
234.286733
 20
131.989748
 30
0.0
  0
VERTEX
  5
51A
  8
05
 10
234.220452
 20
131.032188
 30
0.0
  0
VERTEX
  5
51B
  8
05
 10
234.018951
 20
130.251669
 30
0.0
  0
SEQEND
  5
51C
  8
05
  0
POLYLINE
  5
E8
  8
025
 66
     1
 10
0.0
 20
0.0
 30
0.0
  0
VERTEX
  5
51D
  8
025
 10
234.466622
 20
135.147702
 30
0.0
  0
VERTEX
  5
51E
  8
025
 10
234.622156
 20
133.908822
 30
0.0
  0
VERTEX
  5
51F
  8
025
 10
234.669694
 20
132.830948
 30
0.0
  0
VERTEX
  5
520
  8
025
 10
234.608067
 20
131.940621
 30
0.0
  0
VERTEX
  5
521
  8
025
 10
234.420715
 20
131.214904
 30
0.0
  0
SEQEND
  5
522
  8
025
  0
POLYLINE
  5
E9
  8
025
 66
     1
 10
0.0
 20
0.0
 30
0.0
  0
VERTEX
  5
523
  8
025
 10
236.076127
 20
135.744259
 30
0.0
  0
VERTEX
  5
524
  8
025
 10
236.231661
 20
134.505379
 30
0.0
  0
VERTEX
  5
525
  8
025
 10
236.279199
 20
133.427505
 30
0.0
  0
VERTEX
  5
526
  8
025
 10
236.217572
 20
132.537178
 30
0.0
  0
VERTEX
  5
527
  8
025
 10
236.048296
 20
131.85632
 30
0.0
  0
VERTEX
  5
528
  8
025
 10
235.77554
 20
131.401695
 30
0.0
  0
VERTEX
  5
529
  8
025
 10
235.490785
 20
131.209898
 30
0.0
  0
SEQEND
  5
52A
  8
025
  0
POLYLINE
  5
EA
  8
025
 66
     1
 10
0.0
 20
0.0
 30
0.0
  0
VERTEX
  5
52B
  8
025
 10
237.113334
 20
135.610072
 30
0.0
  0
VERTEX
  5
52C
  8
025
 10
237.280613
 20
134.277639
 30
0.0
  0
VERTEX
  5
52D
  8
025
 10
237.331741
 20
133.11837
 30
0.0
  0
VERTEX
  5
52E
  8
025
 10
237.26546
 20
132.160809
 30
0.0
  0
VERTEX
  5
52F
  8
025
 10
237.083402
 20
131.428536
 30
0.0
  0
VERTEX
  5
530
  8
025
 10
236.790049
 20
130.939581
 30
0.0
  0
VERTEX
  5
531
  8
025
 10
236.483791
 20
130.7333
 30
0.0
  0
SEQEND
  5
532
  8
025
  0
LINE
  5
EB
  8
05
 10
233.438782
 20
129.604678
 30
0.0
 11
223.138996
 21
125.787101
 31
0.0
  0
POLYLINE
  5
EC
  8
025
 66
     1
 10
0.0
 20
0.0
 30
0.0
  0
VERTEX
  5
533
  8
025
 10
223.76854
 20
130.663873
 30
0.0
  0
VERTEX
  5
534
  8
025
 10
223.935819
 20
129.33144
 30
0.0
  0
VERTEX
  5
535
  8
025
 10
223.986947
 20
128.172171
 30
0.0
  0
VERTEX
  5
536
  8
025
 10
223.920666
 20
127.21461
 30
0.0
  0
VERTEX
  5
537
  8
025
 10
223.738608
 20
126.482337
 30
0.0
  0
VERTEX
  5
538
  8
025
 10
223.445255
 20
125.993382
 30
0.0
  0
VERTEX
  5
539
  8
025
 10
223.138996
 20
125.787101
 30
0.0
  0
SEQEND
  5
53A
  8
025
  0
POLYLINE
  5
ED
  8
05
 66
     1
 10
0.0
 20
0.0
 30
0.0
  0
VERTEX
  5
53B
  8
05
 10
223.138996
 20
125.787101
 30
0.0
  0
VERTEX
  5
53C
  8
05
 10
223.04783
 20
125.759785
 30
0.0
  0
VERTEX
  5
53D
  8
05
 10
222.735608
 20
125.748224
 30
0.0
  0
SEQEND
  5
53E
  8
05
  0
LINE
  5
EE
  8
05
 10
234.420715
 20
131.214904
 30
0.0
 11
234.018951
 21
130.251669
 31
0.0
  0
POLYLINE
  5
EF
  8
05
 66
     1
 10
0.0
 20
0.0
 30
0.0
  0
VERTEX
  5
53F
  8
05
 10
234.018951
 20
130.251669
 30
0.0
  0
VERTEX
  5
540
  8
05
 10
233.74504
 20
129.81096
 30
0.0
  0
VERTEX
  5
541
  8
05
 10
233.438782
 20
129.604678
 30
0.0
  0
SEQEND
  5
542
  8
05
  0
POLYLINE
  5
F0
  8
05
 66
     1
 10
0.0
 20
0.0
 30
0.0
  0
VERTEX
  5
543
  8
05
 10
236.483791
 20
130.7333
 30
0.0
  0
VERTEX
  5
544
  8
05
 10
236.392625
 20
130.705984
 30
0.0
  0
VERTEX
  5
545
  8
05
 10
235.900915
 20
130.733497
 30
0.0
  0
VERTEX
  5
546
  8
05
 10
235.622094
 20
130.845867
 30
0.0
  0
SEQEND
  5
547
  8
05
  0
LINE
  5
F1
  8
05
 10
235.622094
 20
130.845867
 30
0.0
 11
235.149501
 21
131.083402
 31
0.0
  0
LINE
  5
F2
  8
05
 10
235.490785
 20
131.209898
 30
0.0
 11
234.222565
 21
130.739836
 31
0.0
  0
POLYLINE
  5
F3
  8
025
 66
     1
 10
0.0
 20
0.0
 30
0.0
  0
VERTEX
  5
548
  8
025
 10
237.113334
 20
135.610072
 30
0.0
  0
VERTEX
  5
549
  8
025
 10
236.834023
 20
137.082861
 30
0.0
  0
VERTEX
  5
54A
  8
025
 10
236.449559
 20
138.659739
 30
0.0
  0
VERTEX
  5
54B
  8
025
 10
235.969407
 20
140.301879
 30
0.0
  0
VERTEX
  5
54C
  8
025
 10
235.486477
 20
141.729193
 30
0.0
  0
SEQEND
  5
54D
  8
025
  0
POLYLINE
  5
F4
  8
025
 66
     1
 10
0.0
 20
0.0
 30
0.0
  0
VERTEX
  5
54E
  8
025
 10
236.076127
 20
135.744259
 30
0.0
  0
VERTEX
  5
54F
  8
025
 10
235.816427
 20
137.113638
 30
0.0
  0
VERTEX
  5
550
  8
025
 10
235.458957
 20
138.5798
 30
0.0
  0
VERTEX
  5
551
  8
025
 10
235.012518
 20
140.106641
 30
0.0
  0
VERTEX
  5
552
  8
025
 10
234.488103
 20
141.656566
 30
0.0
  0
VERTEX
  5
553
  8
025
 10
234.15055
 20
142.535466
 30
0.0
  0
SEQEND
  5
554
  8
025
  0
POLYLINE
  5
F5
  8
05
 66
     1
 10
0.0
 20
0.0
 30
0.0
  0
VERTEX
  5
555
  8
05
 10
247.335863
 20
139.399015
 30
0.0
  0
VERTEX
  5
556
  8
05
 10
247.503142
 20
138.066582
 30
0.0
  0
VERTEX
  5
557
  8
05
 10
247.55427
 20
136.907312
 30
0.0
  0
VERTEX
  5
558
  8
05
 10
247.487989
 20
135.949752
 30
0.0
  0
VERTEX
  5
559
  8
05
 10
247.305931
 20
135.217479
 30
0.0
  0
VERTEX
  5
55A
  8
05
 10
247.012578
 20
134.728524
 30
0.0
  0
VERTEX
  5
55B
  8
05
 10
246.706127
 20
134.522246
 30
0.0
  0
SEQEND
  5
55C
  8
05
  0
LINE
  5
F6
  8
025
 10
283.101838
 20
120.207687
 30
0.0
 11
283.364314
 21
120.405985
 31
0.0
  0
LINE
  5
F7
  8
025
 10
283.77158
 20
120.568216
 30
0.0
 11
283.464587
 21
120.293806
 31
0.0
  0
LINE
  5
F8
  8
025
 10
283.96519
 20
120.32566
 30
0.0
 11
283.579069
 21
119.98052
 31
0.0
  0
LINE
  5
F9
  8
025
 10
283.96519
 20
120.32566
 30
0.0
 11
283.579069
 21
119.98052
 31
0.0
  0
LINE
  5
FA
  8
025
 10
283.101838
 20
120.207687
 30
0.0
 11
283.364314
 21
120.405985
 31
0.0
  0
LINE
  5
FB
  8
025
 10
277.89136
 20
119.690619
 30
0.0
 11
277.923894
 21
120.409765
 31
0.0
  0
LINE
  5
FC
  8
025
 10
278.439621
 20
120.814222
 30
0.0
 11
278.376716
 21
120.285844
 31
0.0
  0
LINE
  5
FD
  8
025
 10
278.63323
 20
120.571666
 30
0.0
 11
278.570325
 21
120.043287
 31
0.0
  0
LINE
  5
FE
  8
025
 10
278.63323
 20
120.571666
 30
0.0
 11
278.570325
 21
120.043287
 31
0.0
  0
LINE
  5
FF
  8
025
 10
277.89136
 20
119.690619
 30
0.0
 11
277.923894
 21
120.409765
 31
0.0
  0
LINE
  5
100
  8
05
 10
288.422958
 20
118.644499
 30
0.0
 11
287.572592
 21
123.98602
 31
0.0
  0
LINE
  5
101
  8
05
 10
288.422958
 20
118.644499
 30
0.0
 11
276.025423
 21
114.049399
 31
0.0
  0
LINE
  5
102
  8
025
 10
278.927709
 20
118.671841
 30
0.0
 11
278.311647
 21
118.84755
 31
0.0
  0
LINE
  5
103
  8
025
 10
278.505256
 20
118.604993
 30
0.0
 11
278.166856
 21
118.883617
 31
0.0
  0
LINE
  5
104
  8
025
 10
278.505256
 20
118.604993
 30
0.0
 11
278.311647
 21
118.84755
 31
0.0
  0
LINE
  5
105
  8
025
 10
278.376716
 20
120.285844
 30
0.0
 11
278.437456
 21
119.904307
 31
0.0
  0
LINE
  5
106
  8
025
 10
278.570325
 20
120.043287
 30
0.0
 11
278.376716
 21
120.285844
 31
0.0
  0
LINE
  5
107
  8
025
 10
278.505256
 20
118.604993
 30
0.0
 11
278.166856
 21
118.883617
 31
0.0
  0
LINE
  5
108
  8
05
 10
271.068006
 20
116.252454
 30
0.0
 11
276.025423
 21
114.049399
 31
0.0
  0
LINE
  5
109
  8
025
 10
277.92173
 20
119.49985
 30
0.0
 11
277.89136
 21
119.690619
 31
0.0
  0
LINE
  5
10A
  8
025
 10
278.166856
 20
118.883617
 30
0.0
 11
277.92173
 21
119.49985
 31
0.0
  0
LINE
  5
10B
  8
025
 10
278.311647
 20
118.84755
 30
0.0
 11
278.207656
 21
118.933171
 31
0.0
  0
LINE
  5
10C
  8
025
 10
278.207656
 20
118.933171
 30
0.0
 11
278.117673
 21
119.007259
 31
0.0
  0
LINE
  5
10D
  8
025
 10
278.166856
 20
118.883617
 30
0.0
 11
277.92173
 21
119.49985
 31
0.0
  0
LINE
  5
10E
  8
025
 10
277.92173
 20
119.49985
 30
0.0
 11
277.89136
 21
119.690619
 31
0.0
  0
LINE
  5
10F
  8
025
 10
279.169037
 20
119.053046
 30
0.0
 11
279.615898
 21
119.016649
 31
0.0
  0
LINE
  5
110
  8
025
 10
278.845822
 20
119.236286
 30
0.0
 11
279.169037
 21
119.053046
 31
0.0
  0
LINE
  5
111
  8
025
 10
278.845822
 20
119.236286
 30
0.0
 11
278.652212
 21
119.478842
 31
0.0
  0
LINE
  5
112
  8
025
 10
279.615898
 20
119.016649
 30
0.0
 11
279.691824
 21
118.539727
 31
0.0
  0
LINE
  5
113
  8
025
 10
279.121318
 20
118.429284
 30
0.0
 11
278.505256
 21
118.604993
 31
0.0
  0
LINE
  5
114
  8
025
 10
279.691824
 20
118.539727
 30
0.0
 11
279.121318
 21
118.429284
 31
0.0
  0
LINE
  5
115
  8
025
 10
278.631066
 20
119.66175
 30
0.0
 11
278.845822
 21
119.236286
 31
0.0
  0
LINE
  5
116
  8
025
 10
279.121318
 20
118.429284
 30
0.0
 11
278.927709
 21
118.671841
 31
0.0
  0
LINE
  5
117
  8
025
 10
279.691824
 20
118.539727
 30
0.0
 11
279.498215
 21
118.782284
 31
0.0
  0
LINE
  5
118
  8
025
 10
278.631066
 20
119.66175
 30
0.0
 11
278.437456
 21
119.904307
 31
0.0
  0
LINE
  5
119
  8
025
 10
278.437456
 20
119.904307
 30
0.0
 11
278.652212
 21
119.478842
 31
0.0
  0
LINE
  5
11A
  8
025
 10
279.458868
 20
119.029439
 30
0.0
 11
279.498215
 21
118.782284
 31
0.0
  0
LINE
  5
11B
  8
025
 10
279.498215
 20
118.782284
 30
0.0
 11
278.927709
 21
118.671841
 31
0.0
  0
LINE
  5
11C
  8
025
 10
278.570325
 20
120.043287
 30
0.0
 11
278.631066
 21
119.66175
 31
0.0
  0
LINE
  5
11D
  8
025
 10
278.570325
 20
120.043287
 30
0.0
 11
278.631066
 21
119.66175
 31
0.0
  0
LINE
  5
11E
  8
025
 10
278.631066
 20
119.66175
 30
0.0
 11
278.845822
 21
119.236286
 31
0.0
  0
LINE
  5
11F
  8
025
 10
278.845822
 20
119.236286
 30
0.0
 11
279.169037
 21
119.053046
 31
0.0
  0
LINE
  5
120
  8
025
 10
279.169037
 20
119.053046
 30
0.0
 11
279.615898
 21
119.016649
 31
0.0
  0
LINE
  5
121
  8
025
 10
279.615898
 20
119.016649
 30
0.0
 11
279.691824
 21
118.539727
 31
0.0
  0
LINE
  5
122
  8
025
 10
279.691824
 20
118.539727
 30
0.0
 11
279.121318
 21
118.429284
 31
0.0
  0
LINE
  5
123
  8
025
 10
279.121318
 20
118.429284
 30
0.0
 11
278.505256
 21
118.604993
 31
0.0
  0
LINE
  5
124
  8
025
 10
283.177763
 20
119.730765
 30
0.0
 11
283.101838
 21
120.207687
 31
0.0
  0
LINE
  5
125
  8
025
 10
283.464587
 20
120.293806
 30
0.0
 11
283.385459
 21
120.223077
 31
0.0
  0
LINE
  5
126
  8
025
 10
283.385459
 20
120.223077
 30
0.0
 11
283.174118
 21
120.091547
 31
0.0
  0
LINE
  5
127
  8
025
 10
283.174118
 20
120.091547
 30
0.0
 11
283.125176
 21
120.061088
 31
0.0
  0
LINE
  5
128
  8
025
 10
283.579069
 20
119.98052
 30
0.0
 11
283.177763
 21
119.730765
 31
0.0
  0
LINE
  5
129
  8
025
 10
283.579069
 20
119.98052
 30
0.0
 11
283.385459
 21
120.223077
 31
0.0
  0
LINE
  5
12A
  8
025
 10
283.579069
 20
119.98052
 30
0.0
 11
283.177763
 21
119.730765
 31
0.0
  0
LINE
  5
12B
  8
025
 10
283.177763
 20
119.730765
 30
0.0
 11
283.101838
 21
120.207687
 31
0.0
  0
LINE
  5
12C
  8
025
 10
278.140814
 20
120.894216
 30
0.0
 11
278.635394
 21
121.481581
 31
0.0
  0
LINE
  5
12D
  8
025
 10
278.129957
 20
122.809432
 30
0.0
 11
280.351239
 21
123.632742
 31
0.0
  0
LINE
  5
12E
  8
025
 10
280.413399
 20
123.465036
 30
0.0
 11
278.192116
 21
122.641725
 31
0.0
  0
LINE
  5
12F
  8
025
 10
280.351239
 20
123.632742
 30
0.0
 11
278.129957
 21
122.809432
 31
0.0
  0
LINE
  5
130
  8
025
 10
278.140814
 20
120.894216
 30
0.0
 11
278.635394
 21
121.481581
 31
0.0
  0
LINE
  5
131
  8
025
 10
281.121316
 20
123.413105
 30
0.0
 11
277.511732
 21
122.075226
 31
0.0
  0
LINE
  5
132
  8
025
 10
277.511732
 20
122.075226
 30
0.0
 11
281.121316
 21
123.413105
 31
0.0
  0
LINE
  5
133
  8
025
 10
278.129957
 20
122.809432
 30
0.0
 11
277.936347
 21
123.051989
 31
0.0
  0
LINE
  5
134
  8
025
 10
277.689588
 20
125.575577
 30
0.0
 11
278.129957
 21
122.809432
 31
0.0
  0
LINE
  5
135
  8
025
 10
278.129957
 20
122.809432
 30
0.0
 11
277.689588
 21
125.575577
 31
0.0
  0
LINE
  5
136
  8
025
 10
277.923894
 20
120.409765
 30
0.0
 11
278.140814
 21
120.894216
 31
0.0
  0
LINE
  5
137
  8
025
 10
277.923894
 20
120.409765
 30
0.0
 11
278.140814
 21
120.894216
 31
0.0
  0
LINE
  5
138
  8
025
 10
277.511732
 20
122.075226
 30
0.0
 11
276.995438
 21
125.318292
 31
0.0
  0
LINE
  5
139
  8
025
 10
276.995438
 20
125.318292
 30
0.0
 11
277.511732
 21
122.075226
 31
0.0
  0
LINE
  5
13A
  8
025
 10
276.995438
 20
125.318292
 30
0.0
 11
277.689588
 21
125.575577
 31
0.0
  0
LINE
  5
13B
  8
025
 10
278.192116
 20
122.641725
 30
0.0
 11
277.464481
 21
122.37203
 31
0.0
  0
LINE
  5
13C
  8
025
 10
277.54323
 20
125.521329
 30
0.0
 11
277.936347
 21
123.051989
 31
0.0
  0
LINE
  5
13D
  8
025
 10
277.689588
 20
125.575577
 30
0.0
 11
276.995438
 21
125.318292
 31
0.0
  0
LINE
  5
13E
  8
025
 10
283.114823
 20
125.66718
 30
0.0
 11
283.023712
 21
126.239486
 31
0.0
  0
LINE
  5
13F
  8
025
 10
283.808973
 20
125.924464
 30
0.0
 11
283.615364
 21
126.167021
 31
0.0
  0
LINE
  5
140
  8
025
 10
283.615364
 20
126.167021
 30
0.0
 11
283.55246
 21
125.638643
 31
0.0
  0
LINE
  5
141
  8
025
 10
283.717862
 20
126.49677
 30
0.0
 11
283.808973
 21
125.924464
 31
0.0
  0
LINE
  5
142
  8
025
 10
283.808973
 20
125.924464
 30
0.0
 11
283.717862
 21
126.49677
 31
0.0
  0
LINE
  5
143
  8
025
 10
283.023712
 20
126.239486
 30
0.0
 11
283.114823
 21
125.66718
 31
0.0
  0
LINE
  5
144
  8
025
 10
280.363694
 20
126.274965
 30
0.0
 11
280.131589
 21
125.885898
 31
0.0
  0
LINE
  5
145
  8
025
 10
280.557303
 20
126.032409
 30
0.0
 11
280.363694
 21
126.274965
 31
0.0
  0
LINE
  5
146
  8
025
 10
280.943423
 20
126.377548
 30
0.0
 11
280.557303
 21
126.032409
 31
0.0
  0
LINE
  5
147
  8
025
 10
280.557303
 20
126.032409
 30
0.0
 11
280.943423
 21
126.377548
 31
0.0
  0
LINE
  5
148
  8
025
 10
279.615862
 20
125.481442
 30
0.0
 11
279.956426
 21
126.112734
 31
0.0
  0
LINE
  5
149
  8
025
 10
279.956426
 20
126.112734
 30
0.0
 11
279.615862
 21
125.481442
 31
0.0
  0
LINE
  5
14A
  8
025
 10
282.075779
 20
122.958772
 30
0.0
 11
282.631099
 21
123.1646
 31
0.0
  0
LINE
  5
14B
  8
025
 10
282.279677
 20
124.448523
 30
0.0
 11
282.804628
 21
124.845119
 31
0.0
  0
LINE
  5
14C
  8
025
 10
282.513416
 20
122.930235
 30
0.0
 11
282.137938
 21
122.791066
 31
0.0
  0
LINE
  5
14D
  8
025
 10
282.707025
 20
122.687678
 30
0.0
 11
282.151704
 21
122.481851
 31
0.0
  0
LINE
  5
14E
  8
025
 10
282.702129
 20
124.51537
 30
0.0
 11
282.401032
 21
124.287893
 31
0.0
  0
LINE
  5
14F
  8
025
 10
282.895738
 20
124.272813
 30
0.0
 11
282.370788
 21
123.876217
 31
0.0
  0
LINE
  5
150
  8
025
 10
282.370788
 20
123.876217
 30
0.0
 11
282.895738
 21
124.272813
 31
0.0
  0
LINE
  5
151
  8
025
 10
282.804628
 20
124.845119
 30
0.0
 11
282.279677
 21
124.448523
 31
0.0
  0
LINE
  5
152
  8
025
 10
282.707025
 20
122.687678
 30
0.0
 11
282.151704
 21
122.481851
 31
0.0
  0
LINE
  5
153
  8
025
 10
282.075779
 20
122.958772
 30
0.0
 11
282.631099
 21
123.1646
 31
0.0
  0
LINE
  5
154
  8
025
 10
280.325198
 20
125.643342
 30
0.0
 11
280.131589
 21
125.885898
 31
0.0
  0
LINE
  5
155
  8
025
 10
280.557303
 20
126.032409
 30
0.0
 11
280.325198
 21
125.643342
 31
0.0
  0
LINE
  5
156
  8
025
 10
280.325198
 20
125.643342
 30
0.0
 11
280.557303
 21
126.032409
 31
0.0
  0
LINE
  5
157
  8
025
 10
281.535643
 20
122.65756
 30
0.0
 11
282.075779
 21
122.958772
 31
0.0
  0
LINE
  5
158
  8
025
 10
281.149523
 20
122.312421
 30
0.0
 11
281.535643
 21
122.65756
 31
0.0
  0
LINE
  5
159
  8
025
 10
280.947788
 20
121.732586
 30
0.0
 11
281.149523
 21
122.312421
 31
0.0
  0
LINE
  5
15A
  8
025
 10
282.370788
 20
123.876217
 30
0.0
 11
282.279677
 21
124.448523
 31
0.0
  0
LINE
  5
15B
  8
025
 10
281.121316
 20
123.413105
 30
0.0
 11
280.927707
 21
123.655662
 31
0.0
  0
LINE
  5
15C
  8
025
 10
282.137938
 20
122.791066
 30
0.0
 11
281.958095
 21
122.724407
 31
0.0
  0
LINE
  5
15D
  8
025
 10
281.958095
 20
122.724407
 30
0.0
 11
281.656998
 21
122.496931
 31
0.0
  0
LINE
  5
15E
  8
025
 10
281.656998
 20
122.496931
 30
0.0
 11
281.433144
 21
122.327812
 31
0.0
  0
LINE
  5
15F
  8
025
 10
281.433144
 20
122.327812
 30
0.0
 11
281.351928
 21
122.191673
 31
0.0
  0
LINE
  5
160
  8
025
 10
281.351928
 20
122.191673
 30
0.0
 11
281.201039
 21
121.938744
 31
0.0
  0
LINE
  5
161
  8
025
 10
281.201039
 20
121.938744
 30
0.0
 11
281.15332
 21
121.314982
 31
0.0
  0
LINE
  5
162
  8
025
 10
281.15332
 20
121.314982
 30
0.0
 11
281.214061
 21
120.933445
 31
0.0
  0
LINE
  5
163
  8
025
 10
282.401032
 20
124.287893
 30
0.0
 11
282.315533
 21
124.223299
 31
0.0
  0
LINE
  5
164
  8
025
 10
281.34693
 20
121.072425
 30
0.0
 11
281.15332
 21
121.314982
 31
0.0
  0
LINE
  5
165
  8
025
 10
281.394648
 20
121.696188
 30
0.0
 11
281.201039
 21
121.938744
 31
0.0
  0
LINE
  5
166
  8
025
 10
281.626754
 20
122.085255
 30
0.0
 11
281.433144
 21
122.327812
 31
0.0
  0
LINE
  5
167
  8
025
 10
282.151704
 20
122.481851
 30
0.0
 11
281.958095
 21
122.724407
 31
0.0
  0
LINE
  5
168
  8
025
 10
281.01502
 20
124.080796
 30
0.0
 11
281.121316
 21
123.413105
 31
0.0
  0
LINE
  5
169
  8
025
 10
281.394648
 20
121.696188
 30
0.0
 11
281.34693
 21
121.072425
 31
0.0
  0
LINE
  5
16A
  8
025
 10
281.626754
 20
122.085255
 30
0.0
 11
281.394648
 21
121.696188
 31
0.0
  0
LINE
  5
16B
  8
025
 10
282.151704
 20
122.481851
 30
0.0
 11
281.626754
 21
122.085255
 31
0.0
  0
LINE
  5
16C
  8
025
 10
281.121316
 20
123.413105
 30
0.0
 11
281.01502
 21
124.080796
 31
0.0
  0
LINE
  5
16D
  8
025
 10
282.279677
 20
124.448523
 30
0.0
 11
282.370788
 21
123.876217
 31
0.0
  0
LINE
  5
16E
  8
025
 10
282.151704
 20
122.481851
 30
0.0
 11
281.626754
 21
122.085255
 31
0.0
  0
LINE
  5
16F
  8
025
 10
281.626754
 20
122.085255
 30
0.0
 11
281.394648
 21
121.696188
 31
0.0
  0
LINE
  5
170
  8
025
 10
281.394648
 20
121.696188
 30
0.0
 11
281.34693
 21
121.072425
 31
0.0
  0
LINE
  5
171
  8
025
 10
280.947788
 20
121.732586
 30
0.0
 11
281.149523
 21
122.312421
 31
0.0
  0
LINE
  5
172
  8
025
 10
281.149523
 20
122.312421
 30
0.0
 11
281.535643
 21
122.65756
 31
0.0
  0
LINE
  5
173
  8
025
 10
281.535643
 20
122.65756
 30
0.0
 11
282.075779
 21
122.958772
 31
0.0
  0
LINE
  5
174
  8
025
 10
280.023695
 20
121.99615
 30
0.0
 11
280.470557
 21
121.959752
 31
0.0
  0
LINE
  5
175
  8
025
 10
279.45319
 20
121.885707
 30
0.0
 11
280.023695
 21
121.99615
 31
0.0
  0
LINE
  5
176
  8
025
 10
279.17553
 20
121.782793
 30
0.0
 11
279.45319
 21
121.885707
 31
0.0
  0
LINE
  5
177
  8
025
 10
278.635394
 20
121.481581
 30
0.0
 11
279.17553
 21
121.782793
 31
0.0
  0
LINE
  5
178
  8
025
 10
280.791608
 20
120.866598
 30
0.0
 11
280.422837
 21
121.33599
 31
0.0
  0
LINE
  5
179
  8
025
 10
279.552957
 20
124.953063
 30
0.0
 11
279.615862
 21
125.481442
 31
0.0
  0
LINE
  5
17A
  8
025
 10
279.644068
 20
124.380757
 30
0.0
 11
279.552957
 21
124.953063
 31
0.0
  0
LINE
  5
17B
  8
025
 10
279.858824
 20
123.955293
 30
0.0
 11
279.644068
 21
124.380757
 31
0.0
  0
LINE
  5
17C
  8
025
 10
280.537789
 20
124.307962
 30
0.0
 11
280.34418
 21
124.550519
 31
0.0
  0
LINE
  5
17D
  8
025
 10
280.351239
 20
123.632742
 30
0.0
 11
280.15763
 21
123.875299
 31
0.0
  0
LINE
  5
17E
  8
025
 10
280.422837
 20
121.33599
 30
0.0
 11
280.229228
 21
121.578546
 31
0.0
  0
LINE
  5
17F
  8
025
 10
280.053499
 20
125.452904
 30
0.0
 11
280.144609
 21
124.880598
 31
0.0
  0
LINE
  5
180
  8
025
 10
280.144609
 20
124.880598
 30
0.0
 11
280.34418
 21
124.550519
 31
0.0
  0
LINE
  5
181
  8
025
 10
280.338219
 20
124.638042
 30
0.0
 11
280.144609
 21
124.880598
 31
0.0
  0
LINE
  5
182
  8
025
 10
280.247108
 20
125.210348
 30
0.0
 11
280.053499
 21
125.452904
 31
0.0
  0
LINE
  5
183
  8
025
 10
280.351239
 20
123.632742
 30
0.0
 11
279.858824
 21
123.955293
 31
0.0
  0
LINE
  5
184
  8
025
 10
280.15763
 20
123.875299
 30
0.0
 11
279.911873
 21
124.036279
 31
0.0
  0
LINE
  5
185
  8
025
 10
279.911873
 20
124.036279
 30
0.0
 11
279.771549
 21
124.128196
 31
0.0
  0
LINE
  5
186
  8
025
 10
280.229228
 20
121.578546
 30
0.0
 11
279.921197
 21
121.666401
 31
0.0
  0
LINE
  5
187
  8
025
 10
279.921197
 20
121.666401
 30
0.0
 11
279.335506
 21
121.651342
 31
0.0
  0
LINE
  5
188
  8
025
 10
279.335506
 20
121.651342
 30
0.0
 11
279.057846
 21
121.548428
 31
0.0
  0
LINE
  5
189
  8
025
 10
279.057846
 20
121.548428
 30
0.0
 11
278.789805
 21
121.308836
 31
0.0
  0
LINE
  5
18A
  8
025
 10
278.789805
 20
121.308836
 30
0.0
 11
278.671726
 21
121.203289
 31
0.0
  0
LINE
  5
18B
  8
025
 10
278.865335
 20
120.960733
 30
0.0
 11
278.671726
 21
121.203289
 31
0.0
  0
LINE
  5
18C
  8
025
 10
279.251455
 20
121.305872
 30
0.0
 11
279.057846
 21
121.548428
 31
0.0
  0
LINE
  5
18D
  8
025
 10
279.529115
 20
121.408785
 30
0.0
 11
279.335506
 21
121.651342
 31
0.0
  0
LINE
  5
18E
  8
025
 10
280.114806
 20
121.423845
 30
0.0
 11
279.921197
 21
121.666401
 31
0.0
  0
LINE
  5
18F
  8
025
 10
280.338219
 20
124.638042
 30
0.0
 11
280.537789
 21
124.307962
 31
0.0
  0
LINE
  5
190
  8
025
 10
280.247108
 20
125.210348
 30
0.0
 11
280.338219
 21
124.638042
 31
0.0
  0
LINE
  5
191
  8
025
 10
279.251455
 20
121.305872
 30
0.0
 11
278.865335
 21
120.960733
 31
0.0
  0
LINE
  5
192
  8
025
 10
279.529115
 20
121.408785
 30
0.0
 11
279.251455
 21
121.305872
 31
0.0
  0
LINE
  5
193
  8
025
 10
280.114806
 20
121.423845
 30
0.0
 11
279.529115
 21
121.408785
 31
0.0
  0
LINE
  5
194
  8
025
 10
280.422837
 20
121.33599
 30
0.0
 11
280.114806
 21
121.423845
 31
0.0
  0
LINE
  5
195
  8
025
 10
279.858824
 20
123.955293
 30
0.0
 11
280.351239
 21
123.632742
 31
0.0
  0
LINE
  5
196
  8
025
 10
279.644068
 20
124.380757
 30
0.0
 11
279.858824
 21
123.955293
 31
0.0
  0
LINE
  5
197
  8
025
 10
279.552957
 20
124.953063
 30
0.0
 11
279.644068
 21
124.380757
 31
0.0
  0
LINE
  5
198
  8
025
 10
279.615862
 20
125.481442
 30
0.0
 11
279.552957
 21
124.953063
 31
0.0
  0
LINE
  5
199
  8
025
 10
280.338219
 20
124.638042
 30
0.0
 11
280.247108
 21
125.210348
 31
0.0
  0
LINE
  5
19A
  8
025
 10
280.537789
 20
124.307962
 30
0.0
 11
280.338219
 21
124.638042
 31
0.0
  0
LINE
  5
19B
  8
025
 10
280.791608
 20
120.866598
 30
0.0
 11
280.422837
 21
121.33599
 31
0.0
  0
LINE
  5
19C
  8
025
 10
280.422837
 20
121.33599
 30
0.0
 11
280.114806
 21
121.423845
 31
0.0
  0
LINE
  5
19D
  8
025
 10
280.114806
 20
121.423845
 30
0.0
 11
279.529115
 21
121.408785
 31
0.0
  0
LINE
  5
19E
  8
025
 10
279.529115
 20
121.408785
 30
0.0
 11
279.251455
 21
121.305872
 31
0.0
  0
LINE
  5
19F
  8
025
 10
279.251455
 20
121.305872
 30
0.0
 11
278.865335
 21
120.960733
 31
0.0
  0
LINE
  5
1A0
  8
025
 10
278.635394
 20
121.481581
 30
0.0
 11
279.17553
 21
121.782793
 31
0.0
  0
LINE
  5
1A1
  8
025
 10
279.17553
 20
121.782793
 30
0.0
 11
279.45319
 21
121.885707
 31
0.0
  0
LINE
  5
1A2
  8
025
 10
279.45319
 20
121.885707
 30
0.0
 11
280.023695
 21
121.99615
 31
0.0
  0
LINE
  5
1A3
  8
025
 10
280.023695
 20
121.99615
 30
0.0
 11
280.470557
 21
121.959752
 31
0.0
  0
LINE
  5
1A4
  8
025
 10
280.470557
 20
121.959752
 30
0.0
 11
280.947788
 21
121.732586
 31
0.0
  0
LINE
  5
1A5
  8
025
 10
280.537789
 20
124.307962
 30
0.0
 11
281.01502
 21
124.080796
 31
0.0
  0
LINE
  5
1A6
  8
025
 10
280.847317
 20
124.160624
 30
0.0
 11
280.927707
 21
123.655662
 31
0.0
  0
LINE
  5
1A7
  8
025
 10
280.927707
 20
123.655662
 30
0.0
 11
280.413399
 21
123.465036
 31
0.0
  0
LINE
  5
1A8
  8
025
 10
281.01502
 20
124.080796
 30
0.0
 11
280.537789
 21
124.307962
 31
0.0
  0
LINE
  5
1A9
  8
025
 10
280.470557
 20
121.959752
 30
0.0
 11
280.947788
 21
121.732586
 31
0.0
  0
LINE
  5
1AA
  8
025
 10
280.131589
 20
125.885898
 30
0.0
 11
280.053499
 21
125.452904
 31
0.0
  0
LINE
  5
1AB
  8
025
 10
280.325198
 20
125.643342
 30
0.0
 11
280.247108
 21
125.210348
 31
0.0
  0
LINE
  5
1AC
  8
025
 10
280.247108
 20
125.210348
 30
0.0
 11
280.325198
 21
125.643342
 31
0.0
  0
LINE
  5
1AD
  8
025
 10
278.63323
 20
120.571666
 30
0.0
 11
278.439621
 21
120.814222
 31
0.0
  0
LINE
  5
1AE
  8
025
 10
281.40767
 20
120.690888
 30
0.0
 11
280.852348
 21
120.48506
 31
0.0
  0
LINE
  5
1AF
  8
025
 10
281.40767
 20
120.690888
 30
0.0
 11
280.852348
 21
120.48506
 31
0.0
  0
LINE
  5
1B0
  8
025
 10
280.852348
 20
120.48506
 30
0.0
 11
280.791608
 21
120.866598
 31
0.0
  0
LINE
  5
1B1
  8
025
 10
281.214061
 20
120.933445
 30
0.0
 11
280.82085
 21
120.787703
 31
0.0
  0
LINE
  5
1B2
  8
025
 10
278.671726
 20
121.203289
 30
0.0
 11
278.439621
 21
120.814222
 31
0.0
  0
LINE
  5
1B3
  8
025
 10
281.40767
 20
120.690888
 30
0.0
 11
281.214061
 21
120.933445
 31
0.0
  0
LINE
  5
1B4
  8
025
 10
278.865335
 20
120.960733
 30
0.0
 11
278.63323
 21
120.571666
 31
0.0
  0
LINE
  5
1B5
  8
025
 10
281.34693
 20
121.072425
 30
0.0
 11
281.40767
 21
120.690888
 31
0.0
  0
LINE
  5
1B6
  8
025
 10
281.34693
 20
121.072425
 30
0.0
 11
281.40767
 21
120.690888
 31
0.0
  0
LINE
  5
1B7
  8
025
 10
280.852348
 20
120.48506
 30
0.0
 11
280.791608
 21
120.866598
 31
0.0
  0
LINE
  5
1B8
  8
025
 10
278.865335
 20
120.960733
 30
0.0
 11
278.63323
 21
120.571666
 31
0.0
  0
LINE
  5
1B9
  8
025
 10
284.298694
 20
121.874728
 30
0.0
 11
284.220605
 21
121.441734
 31
0.0
  0
LINE
  5
1BA
  8
025
 10
284.414214
 20
121.199177
 30
0.0
 11
284.220605
 21
121.441734
 31
0.0
  0
LINE
  5
1BB
  8
025
 10
284.492303
 20
121.632171
 30
0.0
 11
284.298694
 21
121.874728
 31
0.0
  0
LINE
  5
1BC
  8
025
 10
284.492303
 20
121.632171
 30
0.0
 11
284.414214
 21
121.199177
 31
0.0
  0
LINE
  5
1BD
  8
025
 10
284.370822
 20
122.395245
 30
0.0
 11
284.492303
 21
121.632171
 31
0.0
  0
LINE
  5
1BE
  8
025
 10
284.370822
 20
122.395245
 30
0.0
 11
284.492303
 21
121.632171
 31
0.0
  0
LINE
  5
1BF
  8
025
 10
284.492303
 20
121.632171
 30
0.0
 11
284.414214
 21
121.199177
 31
0.0
  0
LINE
  5
1C0
  8
025
 10
283.509636
 20
123.187189
 30
0.0
 11
283.832851
 21
123.003949
 31
0.0
  0
LINE
  5
1C1
  8
025
 10
283.062775
 20
123.223586
 30
0.0
 11
283.509636
 21
123.187189
 31
0.0
  0
LINE
  5
1C2
  8
025
 10
282.631099
 20
123.1646
 30
0.0
 11
283.062775
 21
123.223586
 31
0.0
  0
LINE
  5
1C3
  8
025
 10
283.691858
 20
122.042577
 30
0.0
 11
283.477101
 21
122.468041
 31
0.0
  0
LINE
  5
1C4
  8
025
 10
283.782968
 20
121.470271
 30
0.0
 11
283.691858
 21
122.042577
 31
0.0
  0
LINE
  5
1C5
  8
025
 10
283.720063
 20
120.941893
 30
0.0
 11
283.782968
 21
121.470271
 31
0.0
  0
LINE
  5
1C6
  8
025
 10
283.832851
 20
123.003949
 30
0.0
 11
284.171253
 21
122.725326
 31
0.0
  0
LINE
  5
1C7
  8
025
 10
282.804628
 20
124.845119
 30
0.0
 11
283.036733
 21
125.234186
 31
0.0
  0
LINE
  5
1C8
  8
025
 10
283.477101
 20
122.468041
 30
0.0
 11
283.34333
 21
122.635633
 31
0.0
  0
LINE
  5
1C9
  8
025
 10
283.34333
 20
122.635633
 30
0.0
 11
283.283492
 21
122.710598
 31
0.0
  0
LINE
  5
1CA
  8
025
 10
283.307901
 20
122.607353
 30
0.0
 11
282.999871
 21
122.695208
 31
0.0
  0
LINE
  5
1CB
  8
025
 10
282.895738
 20
124.272813
 30
0.0
 11
282.702129
 21
124.51537
 31
0.0
  0
LINE
  5
1CC
  8
025
 10
283.405504
 20
124.764794
 30
0.0
 11
283.211894
 21
125.007351
 31
0.0
  0
LINE
  5
1CD
  8
025
 10
283.477101
 20
122.468041
 30
0.0
 11
283.307901
 21
122.607353
 31
0.0
  0
LINE
  5
1CE
  8
025
 10
283.283492
 20
122.710598
 30
0.0
 11
283.114292
 21
122.84991
 31
0.0
  0
LINE
  5
1CF
  8
025
 10
283.114292
 20
122.84991
 30
0.0
 11
282.806262
 21
122.937765
 31
0.0
  0
LINE
  5
1D0
  8
025
 10
282.806262
 20
122.937765
 30
0.0
 11
282.513416
 21
122.930235
 31
0.0
  0
LINE
  5
1D1
  8
025
 10
282.999871
 20
122.695208
 30
0.0
 11
282.707025
 21
122.687678
 31
0.0
  0
LINE
  5
1D2
  8
025
 10
283.211894
 20
125.007351
 30
0.0
 11
282.919968
 21
124.725609
 31
0.0
  0
LINE
  5
1D3
  8
025
 10
282.919968
 20
124.725609
 30
0.0
 11
282.702129
 21
124.51537
 31
0.0
  0
LINE
  5
1D4
  8
025
 10
284.077749
 20
122.802313
 30
0.0
 11
284.136866
 21
122.704535
 31
0.0
  0
LINE
  5
1D5
  8
025
 10
284.136866
 20
122.704535
 30
0.0
 11
284.177213
 21
122.637802
 31
0.0
  0
LINE
  5
1D6
  8
025
 10
282.707025
 20
122.687678
 30
0.0
 11
282.513416
 21
122.930235
 31
0.0
  0
LINE
  5
1D7
  8
025
 10
282.999871
 20
122.695208
 30
0.0
 11
282.806262
 21
122.937765
 31
0.0
  0
LINE
  5
1D8
  8
025
 10
283.307901
 20
122.607353
 30
0.0
 11
283.114292
 21
122.84991
 31
0.0
  0
LINE
  5
1D9
  8
025
 10
283.405504
 20
124.764794
 30
0.0
 11
282.895738
 21
124.272813
 31
0.0
  0
LINE
  5
1DA
  8
025
 10
283.746069
 20
125.396086
 30
0.0
 11
283.405504
 21
124.764794
 31
0.0
  0
LINE
  5
1DB
  8
025
 10
283.405504
 20
124.764794
 30
0.0
 11
283.746069
 21
125.396086
 31
0.0
  0
LINE
  5
1DC
  8
025
 10
282.895738
 20
124.272813
 30
0.0
 11
283.405504
 21
124.764794
 31
0.0
  0
LINE
  5
1DD
  8
025
 10
283.036733
 20
125.234186
 30
0.0
 11
282.804628
 21
124.845119
 31
0.0
  0
LINE
  5
1DE
  8
025
 10
283.509636
 20
123.187189
 30
0.0
 11
283.832851
 21
123.003949
 31
0.0
  0
LINE
  5
1DF
  8
025
 10
283.832851
 20
123.003949
 30
0.0
 11
284.171253
 21
122.725326
 31
0.0
  0
LINE
  5
1E0
  8
025
 10
283.720063
 20
120.941893
 30
0.0
 11
283.782968
 21
121.470271
 31
0.0
  0
LINE
  5
1E1
  8
025
 10
283.782968
 20
121.470271
 30
0.0
 11
283.691858
 21
122.042577
 31
0.0
  0
LINE
  5
1E2
  8
025
 10
283.691858
 20
122.042577
 30
0.0
 11
283.477101
 21
122.468041
 31
0.0
  0
LINE
  5
1E3
  8
025
 10
283.477101
 20
122.468041
 30
0.0
 11
283.307901
 21
122.607353
 31
0.0
  0
LINE
  5
1E4
  8
025
 10
283.307901
 20
122.607353
 30
0.0
 11
282.999871
 21
122.695208
 31
0.0
  0
LINE
  5
1E5
  8
025
 10
282.999871
 20
122.695208
 30
0.0
 11
282.707025
 21
122.687678
 31
0.0
  0
LINE
  5
1E6
  8
025
 10
282.631099
 20
123.1646
 30
0.0
 11
283.062775
 21
123.223586
 31
0.0
  0
LINE
  5
1E7
  8
025
 10
283.062775
 20
123.223586
 30
0.0
 11
283.509636
 21
123.187189
 31
0.0
  0
LINE
  5
1E8
  8
025
 10
283.036733
 20
125.234186
 30
0.0
 11
283.114823
 21
125.66718
 31
0.0
  0
LINE
  5
1E9
  8
025
 10
283.746069
 20
125.396086
 30
0.0
 11
283.55246
 21
125.638643
 31
0.0
  0
LINE
  5
1EA
  8
025
 10
283.55246
 20
125.638643
 30
0.0
 11
283.211894
 21
125.007351
 31
0.0
  0
LINE
  5
1EB
  8
025
 10
283.808973
 20
125.924464
 30
0.0
 11
283.746069
 21
125.396086
 31
0.0
  0
LINE
  5
1EC
  8
025
 10
283.746069
 20
125.396086
 30
0.0
 11
283.808973
 21
125.924464
 31
0.0
  0
LINE
  5
1ED
  8
025
 10
283.114823
 20
125.66718
 30
0.0
 11
283.036733
 21
125.234186
 31
0.0
  0
LINE
  5
1EE
  8
025
 10
284.220605
 20
121.441734
 30
0.0
 11
284.003685
 21
120.957283
 31
0.0
  0
LINE
  5
1EF
  8
025
 10
284.177213
 20
122.637802
 30
0.0
 11
284.298694
 21
121.874728
 31
0.0
  0
LINE
  5
1F0
  8
025
 10
284.370822
 20
122.395245
 30
0.0
 11
284.177213
 21
122.637802
 31
0.0
  0
LINE
  5
1F1
  8
025
 10
284.171253
 20
122.725326
 30
0.0
 11
284.370822
 21
122.395245
 31
0.0
  0
LINE
  5
1F2
  8
025
 10
284.171253
 20
122.725326
 30
0.0
 11
284.370822
 21
122.395245
 31
0.0
  0
LINE
  5
1F3
  8
025
 10
283.364314
 20
120.405985
 30
0.0
 11
283.611603
 21
120.699667
 31
0.0
  0
LINE
  5
1F4
  8
025
 10
283.922469
 20
120.821144
 30
0.0
 11
283.77158
 21
120.568216
 31
0.0
  0
LINE
  5
1F5
  8
025
 10
283.96519
 20
120.32566
 30
0.0
 11
283.77158
 21
120.568216
 31
0.0
  0
LINE
  5
1F6
  8
025
 10
283.364314
 20
120.405985
 30
0.0
 11
283.611603
 21
120.699667
 31
0.0
  0
LINE
  5
1F7
  8
025
 10
284.197294
 20
120.714726
 30
0.0
 11
283.96519
 21
120.32566
 31
0.0
  0
LINE
  5
1F8
  8
025
 10
284.197294
 20
120.714726
 30
0.0
 11
283.96519
 21
120.32566
 31
0.0
  0
LINE
  5
1F9
  8
025
 10
283.611603
 20
120.699667
 30
0.0
 11
283.720063
 21
120.941893
 31
0.0
  0
LINE
  5
1FA
  8
025
 10
284.003685
 20
120.957283
 30
0.0
 11
283.922469
 21
120.821144
 31
0.0
  0
LINE
  5
1FB
  8
025
 10
284.414214
 20
121.199177
 30
0.0
 11
284.197294
 21
120.714726
 31
0.0
  0
LINE
  5
1FC
  8
025
 10
284.197294
 20
120.714726
 30
0.0
 11
284.003685
 21
120.957283
 31
0.0
  0
LINE
  5
1FD
  8
025
 10
284.414214
 20
121.199177
 30
0.0
 11
284.197294
 21
120.714726
 31
0.0
  0
LINE
  5
1FE
  8
025
 10
283.611603
 20
120.699667
 30
0.0
 11
283.720063
 21
120.941893
 31
0.0
  0
LINE
  5
1FF
  8
025
 10
282.409814
 20
127.325111
 30
0.0
 11
283.01069
 21
127.244786
 31
0.0
  0
LINE
  5
200
  8
025
 10
282.500925
 20
126.752805
 30
0.0
 11
282.307316
 21
126.995362
 31
0.0
  0
LINE
  5
201
  8
025
 10
282.630532
 20
126.812122
 30
0.0
 11
282.307316
 21
126.995362
 31
0.0
  0
LINE
  5
202
  8
025
 10
282.500925
 20
126.752805
 30
0.0
 11
282.054065
 21
126.789203
 31
0.0
  0
LINE
  5
203
  8
025
 10
283.01069
 20
127.244786
 30
0.0
 11
282.409814
 21
127.325111
 31
0.0
  0
LINE
  5
204
  8
025
 10
282.054065
 20
126.789203
 30
0.0
 11
282.500925
 21
126.752805
 31
0.0
  0
LINE
  5
205
  8
025
 10
281.685293
 20
127.258595
 30
0.0
 11
282.409814
 21
127.325111
 31
0.0
  0
LINE
  5
206
  8
025
 10
281.129972
 20
127.052767
 30
0.0
 11
281.685293
 21
127.258595
 31
0.0
  0
LINE
  5
207
  8
025
 10
281.42878
 20
126.972773
 30
0.0
 11
281.192132
 21
126.885061
 31
0.0
  0
LINE
  5
208
  8
025
 10
281.192132
 20
126.885061
 30
0.0
 11
281.151119
 21
126.86986
 31
0.0
  0
LINE
  5
209
  8
025
 10
281.344728
 20
126.627303
 30
0.0
 11
281.151119
 21
126.86986
 31
0.0
  0
LINE
  5
20A
  8
025
 10
281.622389
 20
126.730217
 30
0.0
 11
281.42878
 21
126.972773
 31
0.0
  0
LINE
  5
20B
  8
025
 10
282.054065
 20
126.789203
 30
0.0
 11
281.860456
 21
127.031759
 31
0.0
  0
LINE
  5
20C
  8
025
 10
282.307316
 20
126.995362
 30
0.0
 11
281.860456
 21
127.031759
 31
0.0
  0
LINE
  5
20D
  8
025
 10
281.860456
 20
127.031759
 30
0.0
 11
281.42878
 21
126.972773
 31
0.0
  0
LINE
  5
20E
  8
025
 10
281.344728
 20
126.627303
 30
0.0
 11
280.943423
 21
126.377548
 31
0.0
  0
LINE
  5
20F
  8
025
 10
281.622389
 20
126.730217
 30
0.0
 11
281.344728
 21
126.627303
 31
0.0
  0
LINE
  5
210
  8
025
 10
282.054065
 20
126.789203
 30
0.0
 11
281.622389
 21
126.730217
 31
0.0
  0
LINE
  5
211
  8
025
 10
281.685293
 20
127.258595
 30
0.0
 11
281.129972
 21
127.052767
 31
0.0
  0
LINE
  5
212
  8
025
 10
282.409814
 20
127.325111
 30
0.0
 11
281.685293
 21
127.258595
 31
0.0
  0
LINE
  5
213
  8
025
 10
281.622389
 20
126.730217
 30
0.0
 11
282.054065
 21
126.789203
 31
0.0
  0
LINE
  5
214
  8
025
 10
281.344728
 20
126.627303
 30
0.0
 11
281.622389
 21
126.730217
 31
0.0
  0
LINE
  5
215
  8
025
 10
280.943423
 20
126.377548
 30
0.0
 11
281.344728
 21
126.627303
 31
0.0
  0
LINE
  5
216
  8
025
 10
279.956426
 20
126.112734
 30
0.0
 11
280.466193
 21
126.604715
 31
0.0
  0
LINE
  5
217
  8
025
 10
280.749814
 20
126.620104
 30
0.0
 11
280.584512
 21
126.472346
 31
0.0
  0
LINE
  5
218
  8
025
 10
280.584512
 20
126.472346
 30
0.0
 11
280.363694
 21
126.274965
 31
0.0
  0
LINE
  5
219
  8
025
 10
280.466193
 20
126.604715
 30
0.0
 11
279.956426
 21
126.112734
 31
0.0
  0
LINE
  5
21A
  8
025
 10
280.466193
 20
126.604715
 30
0.0
 11
281.129972
 21
127.052767
 31
0.0
  0
LINE
  5
21B
  8
025
 10
281.151119
 20
126.86986
 30
0.0
 11
280.749814
 21
126.620104
 31
0.0
  0
LINE
  5
21C
  8
025
 10
280.943423
 20
126.377548
 30
0.0
 11
280.749814
 21
126.620104
 31
0.0
  0
LINE
  5
21D
  8
025
 10
281.129972
 20
127.052767
 30
0.0
 11
280.466193
 21
126.604715
 31
0.0
  0
LINE
  5
21E
  8
025
 10
283.023712
 20
126.239486
 30
0.0
 11
282.824141
 21
126.569566
 31
0.0
  0
LINE
  5
21F
  8
025
 10
283.01069
 20
127.244786
 30
0.0
 11
283.503107
 21
126.922235
 31
0.0
  0
LINE
  5
220
  8
025
 10
282.824141
 20
126.569566
 30
0.0
 11
282.630532
 21
126.812122
 31
0.0
  0
LINE
  5
221
  8
025
 10
283.717862
 20
126.49677
 30
0.0
 11
283.524253
 21
126.739327
 31
0.0
  0
LINE
  5
222
  8
025
 10
283.396772
 20
126.991889
 30
0.0
 11
283.446382
 21
126.893603
 31
0.0
  0
LINE
  5
223
  8
025
 10
283.446382
 20
126.893603
 30
0.0
 11
283.524253
 21
126.739327
 31
0.0
  0
LINE
  5
224
  8
025
 10
283.524253
 20
126.739327
 30
0.0
 11
283.615364
 21
126.167021
 31
0.0
  0
LINE
  5
225
  8
025
 10
282.824141
 20
126.569566
 30
0.0
 11
282.500925
 21
126.752805
 31
0.0
  0
LINE
  5
226
  8
025
 10
283.503107
 20
126.922235
 30
0.0
 11
283.717862
 21
126.49677
 31
0.0
  0
LINE
  5
227
  8
025
 10
283.503107
 20
126.922235
 30
0.0
 11
283.01069
 21
127.244786
 31
0.0
  0
LINE
  5
228
  8
025
 10
283.717862
 20
126.49677
 30
0.0
 11
283.503107
 21
126.922235
 31
0.0
  0
LINE
  5
229
  8
025
 10
282.824141
 20
126.569566
 30
0.0
 11
283.023712
 21
126.239486
 31
0.0
  0
LINE
  5
22A
  8
025
 10
282.500925
 20
126.752805
 30
0.0
 11
282.824141
 21
126.569566
 31
0.0
  0
LINE
  5
22B
  8
05
 10
294.168804
 20
131.649551
 30
0.0
 11
292.267242
 21
134.031859
 31
0.0
  0
LINE
  5
22C
  8
05
 10
294.168804
 20
131.649551
 30
0.0
 11
291.801327
 21
132.701648
 31
0.0
  0
POLYLINE
  5
22D
  8
05
 66
     1
 10
0.0
 20
0.0
 30
0.0
  0
VERTEX
  5
55D
  8
05
 10
292.151907
 20
131.480088
 30
0.0
  0
VERTEX
  5
55E
  8
05
 10
292.094391
 20
131.556631
 30
0.0
  0
VERTEX
  5
55F
  8
05
 10
291.868311
 20
132.01668
 30
0.0
  0
VERTEX
  5
560
  8
05
 10
291.784108
 20
132.545597
 30
0.0
  0
VERTEX
  5
561
  8
05
 10
291.846677
 20
133.112632
 30
0.0
  0
VERTEX
  5
562
  8
05
 10
292.052376
 20
133.684821
 30
0.0
  0
VERTEX
  5
563
  8
05
 10
292.389239
 20
134.228901
 30
0.0
  0
VERTEX
  5
564
  8
05
 10
292.837671
 20
134.713251
 30
0.0
  0
VERTEX
  5
565
  8
05
 10
293.371595
 20
135.109725
 30
0.0
  0
VERTEX
  5
566
  8
05
 10
293.959969
 20
135.395298
 30
0.0
  0
SEQEND
  5
567
  8
05
  0
POLYLINE
  5
22E
  8
05
 66
     1
 10
0.0
 20
0.0
 30
0.0
  0
VERTEX
  5
568
  8
05
 10
296.929111
 20
137.55524
 30
0.0
  0
VERTEX
  5
569
  8
05
 10
295.246577
 20
136.807251
 30
0.0
  0
VERTEX
  5
56A
  8
05
 10
293.642863
 20
135.842813
 30
0.0
  0
VERTEX
  5
56B
  8
05
 10
292.157458
 20
134.685672
 30
0.0
  0
VERTEX
  5
56C
  8
05
 10
290.826938
 20
133.364323
 30
0.0
  0
VERTEX
  5
56D
  8
05
 10
289.684065
 20
131.911299
 30
0.0
  0
VERTEX
  5
56E
  8
05
 10
288.756979
 20
130.36238
 30
0.0
  0
VERTEX
  5
56F
  8
05
 10
288.068509
 20
128.755706
 30
0.0
  0
VERTEX
  5
570
  8
05
 10
287.635608
 20
127.130838
 30
0.0
  0
VERTEX
  5
571
  8
05
 10
287.468934
 20
125.527785
 30
0.0
  0
VERTEX
  5
572
  8
05
 10
287.572592
 20
123.98602
 30
0.0
  0
SEQEND
  5
573
  8
05
  0
LINE
  5
22F
  8
05
 10
294.174462
 20
131.614013
 30
0.0
 11
294.658484
 21
131.007621
 31
0.0
  0
POLYLINE
  5
230
  8
05
 66
     1
 10
0.0
 20
0.0
 30
0.0
  0
VERTEX
  5
574
  8
05
 10
294.658484
 20
131.007621
 30
0.0
  0
VERTEX
  5
575
  8
05
 10
294.049818
 20
130.849515
 30
0.0
  0
VERTEX
  5
576
  8
05
 10
293.45619
 20
130.828067
 30
0.0
  0
VERTEX
  5
577
  8
05
 10
292.912106
 20
130.944544
 30
0.0
  0
VERTEX
  5
578
  8
05
 10
292.449201
 20
131.192193
 30
0.0
  0
VERTEX
  5
579
  8
05
 10
292.151907
 20
131.480088
 30
0.0
  0
SEQEND
  5
57A
  8
05
  0
LINE
  5
231
  8
05
 10
295.159593
 20
127.859939
 30
0.0
 11
287.502938
 21
125.022028
 31
0.0
  0
LINE
  5
232
  8
05
 10
294.174462
 20
131.614013
 30
0.0
 11
294.168804
 21
131.649551
 31
0.0
  0
LINE
  5
233
  8
05
 10
291.979143
 20
131.791148
 30
0.0
 11
292.24285
 21
131.650023
 31
0.0
  0
POLYLINE
  5
234
  8
05
 66
     1
 10
0.0
 20
0.0
 30
0.0
  0
VERTEX
  5
57B
  8
05
 10
292.24285
 20
131.650023
 30
0.0
  0
VERTEX
  5
57C
  8
05
 10
292.427836
 20
131.551025
 30
0.0
  0
VERTEX
  5
57D
  8
05
 10
292.971903
 20
131.434481
 30
0.0
  0
VERTEX
  5
57E
  8
05
 10
293.56561
 20
131.455879
 30
0.0
  0
VERTEX
  5
57F
  8
05
 10
294.174462
 20
131.614013
 30
0.0
  0
SEQEND
  5
580
  8
05
  0
LINE
  5
235
  8
05
 10
295.159593
 20
127.859939
 30
0.0
 11
294.658484
 21
131.007621
 31
0.0
  0
LINE
  5
236
  8
05
 10
293.959969
 20
135.395298
 30
0.0
 11
293.867243
 21
135.97775
 31
0.0
  0
LINE
  5
237
  8
05
 10
316.234024
 20
135.671099
 30
0.0
 11
327.109055
 21
139.701889
 31
0.0
  0
LINE
  5
238
  8
05
 10
316.234024
 20
135.671099
 30
0.0
 11
315.732915
 21
138.818781
 31
0.0
  0
LINE
  5
239
  8
05
 10
312.894266
 20
139.855202
 30
0.0
 11
316.234024
 21
135.671099
 31
0.0
  0
LINE
  5
23A
  8
05
 10
312.871522
 20
142.432031
 30
0.0
 11
315.243234
 21
139.460711
 31
0.0
  0
LINE
  5
23B
  8
05
 10
312.87718
 20
142.396492
 30
0.0
 11
312.871522
 21
142.432031
 31
0.0
  0
LINE
  5
23C
  8
05
 10
312.894266
 20
139.855202
 30
0.0
 11
312.393157
 21
143.002884
 31
0.0
  0
LINE
  5
23D
  8
05
 10
312.87718
 20
142.396492
 30
0.0
 11
312.857651
 21
142.420959
 31
0.0
  0
LINE
  5
23E
  8
05
 10
312.857651
 20
142.420959
 30
0.0
 11
312.393157
 21
143.002884
 31
0.0
  0
LINE
  5
23F
  8
05
 10
315.248892
 20
139.425173
 30
0.0
 11
315.243234
 21
139.460711
 31
0.0
  0
LINE
  5
240
  8
05
 10
315.248892
 20
139.425173
 30
0.0
 11
315.732915
 21
138.818781
 31
0.0
  0
LINE
  5
241
  8
05
 10
317.360373
 20
142.531075
 30
0.0
 11
315.543195
 21
143.338622
 31
0.0
  0
POLYLINE
  5
242
  8
05
 66
     1
 10
0.0
 20
0.0
 30
0.0
  0
VERTEX
  5
581
  8
05
 10
315.034399
 20
143.206458
 30
0.0
  0
VERTEX
  5
582
  8
05
 10
315.643066
 20
143.364564
 30
0.0
  0
VERTEX
  5
583
  8
05
 10
316.236694
 20
143.386012
 30
0.0
  0
VERTEX
  5
584
  8
05
 10
316.780777
 20
143.269535
 30
0.0
  0
VERTEX
  5
585
  8
05
 10
317.243683
 20
143.021886
 30
0.0
  0
VERTEX
  5
586
  8
05
 10
317.540977
 20
142.733991
 30
0.0
  0
SEQEND
  5
587
  8
05
  0
LINE
  5
243
  8
05
 10
315.243234
 20
139.460711
 30
0.0
 11
317.360373
 21
142.531075
 31
0.0
  0
POLYLINE
  5
244
  8
05
 66
     1
 10
0.0
 20
0.0
 30
0.0
  0
VERTEX
  5
588
  8
05
 10
315.248892
 20
139.425173
 30
0.0
  0
VERTEX
  5
589
  8
05
 10
315.837439
 20
139.710851
 30
0.0
  0
VERTEX
  5
58A
  8
05
 10
316.371418
 20
140.107424
 30
0.0
  0
VERTEX
  5
58B
  8
05
 10
316.819815
 20
140.591823
 30
0.0
  0
VERTEX
  5
58C
  8
05
 10
317.156599
 20
141.135886
 30
0.0
  0
VERTEX
  5
58D
  8
05
 10
317.362222
 20
141.708
 30
0.0
  0
VERTEX
  5
58E
  8
05
 10
317.424752
 20
142.274929
 30
0.0
  0
VERTEX
  5
58F
  8
05
 10
317.340565
 20
142.803742
 30
0.0
  0
VERTEX
  5
590
  8
05
 10
317.229705
 20
143.029364
 30
0.0
  0
SEQEND
  5
591
  8
05
  0
POLYLINE
  5
245
  8
05
 66
     1
 10
0.0
 20
0.0
 30
0.0
  0
VERTEX
  5
592
  8
05
 10
317.540977
 20
142.733991
 30
0.0
  0
VERTEX
  5
593
  8
05
 10
317.598493
 20
142.657448
 30
0.0
  0
VERTEX
  5
594
  8
05
 10
317.824573
 20
142.197399
 30
0.0
  0
VERTEX
  5
595
  8
05
 10
317.908776
 20
141.668482
 30
0.0
  0
VERTEX
  5
596
  8
05
 10
317.846207
 20
141.101447
 30
0.0
  0
VERTEX
  5
597
  8
05
 10
317.640508
 20
140.529258
 30
0.0
  0
VERTEX
  5
598
  8
05
 10
317.303645
 20
139.985178
 30
0.0
  0
VERTEX
  5
599
  8
05
 10
316.855213
 20
139.500829
 30
0.0
  0
VERTEX
  5
59A
  8
05
 10
316.321289
 20
139.104354
 30
0.0
  0
VERTEX
  5
59B
  8
05
 10
315.732915
 20
138.818781
 30
0.0
  0
SEQEND
  5
59C
  8
05
  0
LINE
  5
246
  8
05
 10
331.247451
 20
134.51724
 30
0.0
 11
330.397084
 21
139.858761
 31
0.0
  0
LINE
  5
247
  8
05
 10
331.247451
 20
134.51724
 30
0.0
 11
327.109055
 21
139.701889
 31
0.0
  0
POLYLINE
  5
248
  8
05
 66
     1
 10
0.0
 20
0.0
 30
0.0
  0
VERTEX
  5
59D
  8
05
 10
330.397084
 20
139.858761
 30
0.0
  0
VERTEX
  5
59E
  8
05
 10
330.025647
 20
141.301274
 30
0.0
  0
VERTEX
  5
59F
  8
05
 10
329.395576
 20
142.609016
 30
0.0
  0
VERTEX
  5
5A0
  8
05
 10
328.900402
 20
143.314144
 30
0.0
  0
SEQEND
  5
5A1
  8
05
  0
LINE
  5
249
  8
025
 10
334.720351
 20
139.945974
 30
0.0
 11
334.526742
 21
140.188531
 31
0.0
  0
LINE
  5
24A
  8
025
 10
334.138989
 20
141.750747
 30
0.0
 11
334.648754
 21
142.242727
 31
0.0
  0
LINE
  5
24B
  8
025
 10
333.798424
 20
141.119454
 30
0.0
 11
334.138989
 21
141.750747
 31
0.0
  0
LINE
  5
24C
  8
025
 10
333.73552
 20
140.591076
 30
0.0
 11
333.798424
 21
141.119454
 31
0.0
  0
LINE
  5
24D
  8
025
 10
333.82663
 20
140.018771
 30
0.0
 11
333.73552
 21
140.591076
 31
0.0
  0
LINE
  5
24E
  8
025
 10
334.041385
 20
139.593306
 30
0.0
 11
333.82663
 21
140.018771
 31
0.0
  0
LINE
  5
24F
  8
025
 10
334.340193
 20
139.513312
 30
0.0
 11
334.094435
 21
139.674292
 31
0.0
  0
LINE
  5
250
  8
025
 10
334.094435
 20
139.674292
 30
0.0
 11
333.954112
 21
139.766209
 31
0.0
  0
LINE
  5
251
  8
025
 10
334.52078
 20
140.276055
 30
0.0
 11
334.720351
 21
139.945974
 31
0.0
  0
LINE
  5
252
  8
025
 10
334.42967
 20
140.84836
 30
0.0
 11
334.52078
 21
140.276055
 31
0.0
  0
LINE
  5
253
  8
025
 10
334.50776
 20
141.281355
 30
0.0
 11
334.42967
 21
140.84836
 31
0.0
  0
LINE
  5
254
  8
025
 10
334.739865
 20
141.670422
 30
0.0
 11
334.50776
 21
141.281355
 31
0.0
  0
LINE
  5
255
  8
025
 10
334.546256
 20
141.912978
 30
0.0
 11
334.314151
 21
141.523911
 31
0.0
  0
LINE
  5
256
  8
025
 10
334.314151
 20
141.523911
 30
0.0
 11
334.236061
 21
141.090917
 31
0.0
  0
LINE
  5
257
  8
025
 10
334.236061
 20
141.090917
 30
0.0
 11
334.327171
 21
140.518611
 31
0.0
  0
LINE
  5
258
  8
025
 10
334.327171
 20
140.518611
 30
0.0
 11
334.526742
 21
140.188531
 31
0.0
  0
LINE
  5
259
  8
025
 10
334.481718
 20
143.291954
 30
0.0
 11
334.034857
 21
143.328352
 31
0.0
  0
LINE
  5
25A
  8
025
 10
334.52078
 20
140.276055
 30
0.0
 11
334.327171
 21
140.518611
 31
0.0
  0
LINE
  5
25B
  8
025
 10
334.42967
 20
140.84836
 30
0.0
 11
334.236061
 21
141.090917
 31
0.0
  0
LINE
  5
25C
  8
025
 10
334.50776
 20
141.281355
 30
0.0
 11
334.314151
 21
141.523911
 31
0.0
  0
LINE
  5
25D
  8
025
 10
334.739865
 20
141.670422
 30
0.0
 11
334.546256
 21
141.912978
 31
0.0
  0
LINE
  5
25E
  8
025
 10
334.481718
 20
143.291954
 30
0.0
 11
334.034857
 21
143.328352
 31
0.0
  0
LINE
  5
25F
  8
025
 10
333.82663
 20
140.018771
 30
0.0
 11
334.041385
 21
139.593306
 31
0.0
  0
LINE
  5
260
  8
025
 10
333.73552
 20
140.591076
 30
0.0
 11
333.82663
 21
140.018771
 31
0.0
  0
LINE
  5
261
  8
025
 10
333.798424
 20
141.119454
 30
0.0
 11
333.73552
 21
140.591076
 31
0.0
  0
LINE
  5
262
  8
025
 10
334.138989
 20
141.750747
 30
0.0
 11
333.798424
 21
141.119454
 31
0.0
  0
LINE
  5
263
  8
025
 10
334.648754
 20
142.242727
 30
0.0
 11
334.138989
 21
141.750747
 31
0.0
  0
LINE
  5
264
  8
025
 10
334.50776
 20
141.281355
 30
0.0
 11
334.739865
 21
141.670422
 31
0.0
  0
LINE
  5
265
  8
025
 10
334.42967
 20
140.84836
 30
0.0
 11
334.50776
 21
141.281355
 31
0.0
  0
LINE
  5
266
  8
025
 10
334.52078
 20
140.276055
 30
0.0
 11
334.42967
 21
140.84836
 31
0.0
  0
LINE
  5
267
  8
025
 10
334.720351
 20
139.945974
 30
0.0
 11
334.52078
 21
140.276055
 31
0.0
  0
LINE
  5
268
  8
025
 10
334.533802
 20
139.270755
 30
0.0
 11
334.041385
 21
139.593306
 31
0.0
  0
LINE
  5
269
  8
025
 10
334.533802
 20
139.270755
 30
0.0
 11
334.340193
 21
139.513312
 31
0.0
  0
LINE
  5
26A
  8
025
 10
334.041385
 20
139.593306
 30
0.0
 11
334.533802
 21
139.270755
 31
0.0
  0
LINE
  5
26B
  8
025
 10
337.006703
 20
142.207579
 30
0.0
 11
336.813094
 21
142.450136
 31
0.0
  0
LINE
  5
26C
  8
025
 10
337.193253
 20
142.882799
 30
0.0
 11
336.999644
 21
143.125355
 31
0.0
  0
LINE
  5
26D
  8
025
 10
337.206274
 20
141.877499
 30
0.0
 11
337.006703
 21
142.207579
 31
0.0
  0
LINE
  5
26E
  8
025
 10
337.297385
 20
141.305193
 30
0.0
 11
337.206274
 21
141.877499
 31
0.0
  0
LINE
  5
26F
  8
025
 10
337.219295
 20
140.872199
 30
0.0
 11
337.297385
 21
141.305193
 31
0.0
  0
LINE
  5
270
  8
025
 10
336.987189
 20
140.483132
 30
0.0
 11
337.219295
 21
140.872199
 31
0.0
  0
LINE
  5
271
  8
025
 10
337.193253
 20
142.882799
 30
0.0
 11
337.685669
 21
142.560248
 31
0.0
  0
LINE
  5
272
  8
025
 10
337.579334
 20
142.629901
 30
0.0
 11
337.628944
 21
142.531615
 31
0.0
  0
LINE
  5
273
  8
025
 10
337.628944
 20
142.531615
 30
0.0
 11
337.706816
 21
142.37734
 31
0.0
  0
LINE
  5
274
  8
025
 10
337.706816
 20
142.37734
 30
0.0
 11
337.797927
 21
141.805034
 31
0.0
  0
LINE
  5
275
  8
025
 10
337.797927
 20
141.805034
 30
0.0
 11
337.735022
 21
141.276656
 31
0.0
  0
LINE
  5
276
  8
025
 10
337.735022
 20
141.276656
 30
0.0
 11
337.394457
 21
140.645364
 31
0.0
  0
LINE
  5
277
  8
025
 10
337.394457
 20
140.645364
 30
0.0
 11
337.10253
 21
140.363622
 31
0.0
  0
LINE
  5
278
  8
025
 10
337.10253
 20
140.363622
 30
0.0
 11
336.884691
 21
140.153383
 31
0.0
  0
LINE
  5
279
  8
025
 10
337.588067
 20
140.402807
 30
0.0
 11
337.0783
 21
139.910826
 31
0.0
  0
LINE
  5
27A
  8
025
 10
337.928631
 20
141.034099
 30
0.0
 11
337.588067
 21
140.402807
 31
0.0
  0
LINE
  5
27B
  8
025
 10
337.991536
 20
141.562477
 30
0.0
 11
337.928631
 21
141.034099
 31
0.0
  0
LINE
  5
27C
  8
025
 10
337.900425
 20
142.134783
 30
0.0
 11
337.991536
 21
141.562477
 31
0.0
  0
LINE
  5
27D
  8
025
 10
337.685669
 20
142.560248
 30
0.0
 11
337.900425
 21
142.134783
 31
0.0
  0
LINE
  5
27E
  8
025
 10
337.0783
 20
139.910826
 30
0.0
 11
336.884691
 21
140.153383
 31
0.0
  0
LINE
  5
27F
  8
025
 10
337.588067
 20
140.402807
 30
0.0
 11
337.394457
 21
140.645364
 31
0.0
  0
LINE
  5
280
  8
025
 10
337.928631
 20
141.034099
 30
0.0
 11
337.735022
 21
141.276656
 31
0.0
  0
LINE
  5
281
  8
025
 10
337.991536
 20
141.562477
 30
0.0
 11
337.797927
 21
141.805034
 31
0.0
  0
LINE
  5
282
  8
025
 10
337.900425
 20
142.134783
 30
0.0
 11
337.706816
 21
142.37734
 31
0.0
  0
LINE
  5
283
  8
025
 10
337.685669
 20
142.560248
 30
0.0
 11
337.193253
 21
142.882799
 31
0.0
  0
LINE
  5
284
  8
025
 10
337.900425
 20
142.134783
 30
0.0
 11
337.685669
 21
142.560248
 31
0.0
  0
LINE
  5
285
  8
025
 10
337.991536
 20
141.562477
 30
0.0
 11
337.900425
 21
142.134783
 31
0.0
  0
LINE
  5
286
  8
025
 10
337.928631
 20
141.034099
 30
0.0
 11
337.991536
 21
141.562477
 31
0.0
  0
LINE
  5
287
  8
025
 10
337.588067
 20
140.402807
 30
0.0
 11
337.928631
 21
141.034099
 31
0.0
  0
LINE
  5
288
  8
025
 10
337.0783
 20
139.910826
 30
0.0
 11
337.588067
 21
140.402807
 31
0.0
  0
LINE
  5
289
  8
025
 10
337.219295
 20
140.872199
 30
0.0
 11
336.987189
 21
140.483132
 31
0.0
  0
LINE
  5
28A
  8
025
 10
337.297385
 20
141.305193
 30
0.0
 11
337.219295
 21
140.872199
 31
0.0
  0
LINE
  5
28B
  8
025
 10
337.206274
 20
141.877499
 30
0.0
 11
337.297385
 21
141.305193
 31
0.0
  0
LINE
  5
28C
  8
025
 10
337.006703
 20
142.207579
 30
0.0
 11
337.206274
 21
141.877499
 31
0.0
  0
LINE
  5
28D
  8
025
 10
336.529473
 20
142.434746
 30
0.0
 11
336.423177
 21
143.102435
 31
0.0
  0
LINE
  5
28E
  8
025
 10
336.199764
 20
139.888238
 30
0.0
 11
336.601069
 21
140.137993
 31
0.0
  0
LINE
  5
28F
  8
025
 10
335.922103
 20
139.785324
 30
0.0
 11
336.199764
 21
139.888238
 31
0.0
  0
LINE
  5
290
  8
025
 10
335.490428
 20
139.726338
 30
0.0
 11
335.922103
 21
139.785324
 31
0.0
  0
LINE
  5
291
  8
025
 10
335.043568
 20
139.762736
 30
0.0
 11
335.490428
 21
139.726338
 31
0.0
  0
LINE
  5
292
  8
025
 10
336.682709
 20
140.017045
 30
0.0
 11
336.291201
 21
139.752776
 31
0.0
  0
LINE
  5
293
  8
025
 10
336.291201
 20
139.752776
 30
0.0
 11
336.220911
 21
139.70533
 31
0.0
  0
LINE
  5
294
  8
025
 10
336.220911
 20
139.70533
 30
0.0
 11
335.984263
 21
139.617617
 31
0.0
  0
LINE
  5
295
  8
025
 10
335.984263
 20
139.617617
 30
0.0
 11
335.66559
 21
139.499502
 31
0.0
  0
LINE
  5
296
  8
025
 10
335.66559
 20
139.499502
 30
0.0
 11
334.941069
 21
139.432987
 31
0.0
  0
LINE
  5
297
  8
025
 10
335.173705
 20
142.639323
 30
0.0
 11
335.264816
 21
142.067018
 31
0.0
  0
LINE
  5
298
  8
025
 10
335.035351
 20
142.534798
 30
0.0
 11
335.071206
 21
142.309574
 31
0.0
  0
LINE
  5
299
  8
025
 10
335.071206
 20
142.309574
 30
0.0
 11
334.770109
 21
142.082098
 31
0.0
  0
LINE
  5
29A
  8
025
 10
336.587838
 20
142.55736
 30
0.0
 11
336.503566
 21
142.597474
 31
0.0
  0
LINE
  5
29B
  8
025
 10
335.264816
 20
142.067018
 30
0.0
 11
335.071206
 21
142.309574
 31
0.0
  0
LINE
  5
29C
  8
025
 10
336.41452
 20
139.462773
 30
0.0
 11
336.220911
 21
139.70533
 31
0.0
  0
LINE
  5
29D
  8
025
 10
336.423177
 20
143.102435
 30
0.0
 11
336.529473
 21
142.434746
 31
0.0
  0
LINE
  5
29E
  8
025
 10
335.264816
 20
142.067018
 30
0.0
 11
335.173705
 21
142.639323
 31
0.0
  0
LINE
  5
29F
  8
025
 10
335.490428
 20
139.726338
 30
0.0
 11
335.043568
 21
139.762736
 31
0.0
  0
LINE
  5
2A0
  8
025
 10
335.922103
 20
139.785324
 30
0.0
 11
335.490428
 21
139.726338
 31
0.0
  0
LINE
  5
2A1
  8
025
 10
336.199764
 20
139.888238
 30
0.0
 11
335.922103
 21
139.785324
 31
0.0
  0
LINE
  5
2A2
  8
025
 10
336.601069
 20
140.137993
 30
0.0
 11
336.199764
 21
139.888238
 31
0.0
  0
LINE
  5
2A3
  8
025
 10
336.423177
 20
143.102435
 30
0.0
 11
336.937484
 21
143.293062
 31
0.0
  0
LINE
  5
2A4
  8
025
 10
336.601069
 20
140.137993
 30
0.0
 11
336.987189
 21
140.483132
 31
0.0
  0
LINE
  5
2A5
  8
025
 10
337.006703
 20
142.207579
 30
0.0
 11
336.529473
 21
142.434746
 31
0.0
  0
LINE
  5
2A6
  8
025
 10
336.884691
 20
140.153383
 30
0.0
 11
336.682709
 21
140.017045
 31
0.0
  0
LINE
  5
2A7
  8
025
 10
337.0783
 20
139.910826
 30
0.0
 11
336.41452
 21
139.462773
 31
0.0
  0
LINE
  5
2A8
  8
025
 10
336.813094
 20
142.450136
 30
0.0
 11
336.587838
 21
142.55736
 31
0.0
  0
LINE
  5
2A9
  8
025
 10
336.41452
 20
139.462773
 30
0.0
 11
337.0783
 21
139.910826
 31
0.0
  0
LINE
  5
2AA
  8
025
 10
336.987189
 20
140.483132
 30
0.0
 11
336.601069
 21
140.137993
 31
0.0
  0
LINE
  5
2AB
  8
025
 10
336.529473
 20
142.434746
 30
0.0
 11
337.006703
 21
142.207579
 31
0.0
  0
LINE
  5
2AC
  8
025
 10
335.8592
 20
139.256946
 30
0.0
 11
335.134678
 21
139.19043
 31
0.0
  0
LINE
  5
2AD
  8
025
 10
335.134678
 20
139.19043
 30
0.0
 11
335.8592
 21
139.256946
 31
0.0
  0
LINE
  5
2AE
  8
025
 10
336.41452
 20
139.462773
 30
0.0
 11
335.8592
 21
139.256946
 31
0.0
  0
LINE
  5
2AF
  8
025
 10
335.134678
 20
139.19043
 30
0.0
 11
334.941069
 21
139.432987
 31
0.0
  0
LINE
  5
2B0
  8
025
 10
335.8592
 20
139.256946
 30
0.0
 11
335.66559
 21
139.499502
 31
0.0
  0
LINE
  5
2B1
  8
025
 10
335.8592
 20
139.256946
 30
0.0
 11
336.41452
 21
139.462773
 31
0.0
  0
LINE
  5
2B2
  8
025
 10
340.549055
 20
141.197249
 30
0.0
 11
340.355446
 21
141.439805
 31
0.0
  0
LINE
  5
2B3
  8
025
 10
340.355446
 20
141.439805
 30
0.0
 11
339.807654
 21
141.236768
 31
0.0
  0
LINE
  5
2B4
  8
025
 10
340.549055
 20
141.197249
 30
0.0
 11
339.854905
 21
140.939964
 31
0.0
  0
LINE
  5
2B5
  8
025
 10
339.854905
 20
140.939964
 30
0.0
 11
340.549055
 21
141.197249
 31
0.0
  0
POLYLINE
  5
2B6
  8
035
 66
     1
 10
0.0
 20
0.0
 30
0.0
  0
VERTEX
  5
5A2
  8
035
 10
333.097864
 20
196.877867
 30
0.0
  0
VERTEX
  5
5A3
  8
035
 10
333.274539
 20
196.908433
 30
0.0
  0
VERTEX
  5
5A4
  8
035
 10
333.684212
 20
196.86365
 30
0.0
  0
VERTEX
  5
5A5
  8
035
 10
334.284499
 20
196.692924
 30
0.0
  0
VERTEX
  5
5A6
  8
035
 10
335.07736
 20
196.377035
 30
0.0
  0
SEQEND
  5
5A7
  8
035
  0
LINE
  5
2B7
  8
035
 10
332.51076
 20
194.582916
 30
0.0
 11
339.946886
 21
191.278333
 31
0.0
  0
POLYLINE
  5
2B8
  8
05
 66
     1
 10
0.0
 20
0.0
 30
0.0
  0
VERTEX
  5
5A8
  8
05
 10
337.497474
 20
193.345076
 30
0.0
  0
VERTEX
  5
5A9
  8
05
 10
336.615976
 20
193.773141
 30
0.0
  0
VERTEX
  5
5AA
  8
05
 10
335.780277
 20
194.240127
 30
0.0
  0
VERTEX
  5
5AB
  8
05
 10
335.03186
 20
194.709545
 30
0.0
  0
VERTEX
  5
5AC
  8
05
 10
334.388951
 20
195.159617
 30
0.0
  0
VERTEX
  5
5AD
  8
05
 10
333.867391
 20
195.570269
 30
0.0
  0
VERTEX
  5
5AE
  8
05
 10
333.470907
 20
195.92926
 30
0.0
  0
VERTEX
  5
5AF
  8
05
 10
333.190013
 20
196.236736
 30
0.0
  0
VERTEX
  5
5B0
  8
05
 10
333.018205
 20
196.495555
 30
0.0
  0
VERTEX
  5
5B1
  8
05
 10
332.961272
 20
196.70366
 30
0.0
  0
VERTEX
  5
5B2
  8
05
 10
333.039131
 20
196.848285
 30
0.0
  0
VERTEX
  5
5B3
  8
05
 10
333.097864
 20
196.877867
 30
0.0
  0
SEQEND
  5
5B4
  8
05
  0
LINE
  5
2B9
  8
05
 10
328.330335
 20
205.831735
 30
0.0
 11
336.417735
 21
195.69971
 31
0.0
  0
LINE
  5
2BA
  8
025
 10
334.544622
 20
143.820333
 30
0.0
 11
334.837468
 21
143.827862
 31
0.0
  0
LINE
  5
2BB
  8
025
 10
334.899628
 20
143.660156
 30
0.0
 11
334.719784
 21
143.593498
 31
0.0
  0
LINE
  5
2BC
  8
025
 10
334.544622
 20
143.820333
 30
0.0
 11
334.837468
 21
143.827862
 31
0.0
  0
LINE
  5
2BD
  8
035
 10
270.009446
 20
185.875626
 30
0.0
 11
281.432747
 21
190.109631
 31
0.0
  0
LINE
  5
2BE
  8
035
 10
269.241209
 20
171.13229
 30
0.0
 11
270.4037
 21
171.563163
 31
0.0
  0
LINE
  5
2BF
  8
05
 10
257.624659
 20
185.685692
 30
0.0
 11
278.722219
 21
193.505425
 31
0.0
  0
LINE
  5
2C0
  8
05
 10
263.432934
 20
178.408991
 30
0.0
 11
284.530494
 21
186.228724
 31
0.0
  0
LINE
  5
2C1
  8
035
 10
282.012819
 20
186.465951
 30
0.0
 11
256.760997
 21
177.106456
 31
0.0
  0
LINE
  5
2C2
  8
05
 10
249.444776
 20
165.872589
 30
0.0
 11
231.720908
 21
159.303302
 31
0.0
  0
LINE
  5
2C3
  8
05
 10
251.530027
 20
160.246602
 30
0.0
 11
233.806159
 21
153.677316
 31
0.0
  0
LINE
  5
2C4
  8
05
 10
225.598237
 20
150.758388
 30
0.0
 11
215.298452
 21
146.940811
 31
0.0
  0
LINE
  5
2C5
  8
05
 10
215.298452
 20
146.940811
 30
0.0
 11
214.967172
 21
146.707386
 31
0.0
  0
POLYLINE
  5
2C6
  8
05
 66
     1
 10
0.0
 20
0.0
 30
0.0
  0
VERTEX
  5
5B5
  8
05
 10
230.145098
 20
156.855644
 30
0.0
  0
VERTEX
  5
5B6
  8
05
 10
230.216751
 20
156.495981
 30
0.0
  0
VERTEX
  5
5B7
  8
05
 10
230.321234
 20
156.106984
 30
0.0
  0
VERTEX
  5
5B8
  8
05
 10
230.453981
 20
155.705653
 30
0.0
  0
VERTEX
  5
5B9
  8
05
 10
230.609191
 20
155.309528
 30
0.0
  0
VERTEX
  5
5BA
  8
05
 10
230.780079
 20
154.935922
 30
0.0
  0
VERTEX
  5
5BB
  8
05
 10
230.959178
 20
154.601163
 30
0.0
  0
VERTEX
  5
5BC
  8
05
 10
231.13866
 20
154.319883
 30
0.0
  0
VERTEX
  5
5BD
  8
05
 10
231.31068
 20
154.104373
 30
0.0
  0
VERTEX
  5
5BE
  8
05
 10
231.423935
 20
153.99679
 30
0.0
  0
SEQEND
  5
5BF
  8
05
  0
POLYLINE
  5
2C7
  8
025
 66
     1
 10
0.0
 20
0.0
 30
0.0
  0
VERTEX
  5
5C0
  8
025
 10
230.12265
 20
157.509785
 30
0.0
  0
VERTEX
  5
5C1
  8
025
 10
230.150511
 20
157.611879
 30
0.0
  0
VERTEX
  5
5C2
  8
025
 10
230.22551
 20
157.719596
 30
0.0
  0
VERTEX
  5
5C3
  8
025
 10
230.332956
 20
157.7445
 30
0.0
  0
VERTEX
  5
5C4
  8
025
 10
230.468153
 20
157.685502
 30
0.0
  0
VERTEX
  5
5C5
  8
025
 10
230.625194
 20
157.545183
 30
0.0
  0
VERTEX
  5
5C6
  8
025
 10
230.797214
 20
157.329673
 30
0.0
  0
VERTEX
  5
5C7
  8
025
 10
230.976696
 20
157.048392
 30
0.0
  0
VERTEX
  5
5C8
  8
025
 10
231.155795
 20
156.713634
 30
0.0
  0
VERTEX
  5
5C9
  8
025
 10
231.326683
 20
156.340028
 30
0.0
  0
VERTEX
  5
5CA
  8
025
 10
231.481893
 20
155.943903
 30
0.0
  0
VERTEX
  5
5CB
  8
025
 10
231.61464
 20
155.542572
 30
0.0
  0
VERTEX
  5
5CC
  8
025
 10
231.719123
 20
155.153574
 30
0.0
  0
VERTEX
  5
5CD
  8
025
 10
231.790776
 20
154.793912
 30
0.0
  0
SEQEND
  5
5CE
  8
025
  0
POLYLINE
  5
2C8
  8
025
 66
     1
 10
0.0
 20
0.0
 30
0.0
  0
VERTEX
  5
5CF
  8
025
 10
230.846138
 20
158.67984
 30
0.0
  0
VERTEX
  5
5D0
  8
025
 10
230.940139
 20
158.714502
 30
0.0
  0
VERTEX
  5
5D1
  8
025
 10
231.098377
 20
158.676578
 30
0.0
  0
VERTEX
  5
5D2
  8
025
 10
231.285036
 20
158.541452
 30
0.0
  0
VERTEX
  5
5D3
  8
025
 10
231.492942
 20
158.314318
 30
0.0
  0
VERTEX
  5
5D4
  8
025
 10
231.714107
 20
158.003905
 30
0.0
  0
VERTEX
  5
5D5
  8
025
 10
231.94003
 20
157.622141
 30
0.0
  0
VERTEX
  5
5D6
  8
025
 10
232.16203
 20
157.183698
 30
0.0
  0
VERTEX
  5
5D7
  8
025
 10
232.371576
 20
156.705424
 30
0.0
  0
VERTEX
  5
5D8
  8
025
 10
232.560614
 20
156.205699
 30
0.0
  0
VERTEX
  5
5D9
  8
025
 10
232.72188
 20
155.703728
 30
0.0
  0
VERTEX
  5
5DA
  8
025
 10
232.849177
 20
155.218801
 30
0.0
  0
VERTEX
  5
5DB
  8
025
 10
232.937612
 20
154.769553
 30
0.0
  0
SEQEND
  5
5DC
  8
025
  0
POLYLINE
  5
2C9
  8
025
 66
     1
 10
0.0
 20
0.0
 30
0.0
  0
VERTEX
  5
5DD
  8
025
 10
231.720908
 20
159.303302
 30
0.0
  0
VERTEX
  5
5DE
  8
025
 10
231.884335
 20
159.300652
 30
0.0
  0
VERTEX
  5
5DF
  8
025
 10
232.06725
 20
159.198753
 30
0.0
  0
VERTEX
  5
5E0
  8
025
 10
232.273875
 20
159.004621
 30
0.0
  0
VERTEX
  5
5E1
  8
025
 10
232.497175
 20
158.724867
 30
0.0
  0
VERTEX
  5
5E2
  8
025
 10
232.729545
 20
158.369018
 30
0.0
  0
VERTEX
  5
5E3
  8
025
 10
232.963073
 20
157.949192
 30
0.0
  0
VERTEX
  5
5E4
  8
025
 10
233.189806
 20
157.479685
 30
0.0
  0
VERTEX
  5
5E5
  8
025
 10
233.402023
 20
156.976486
 30
0.0
  0
VERTEX
  5
5E6
  8
025
 10
233.592497
 20
156.456731
 30
0.0
  0
VERTEX
  5
5E7
  8
025
 10
233.754741
 20
155.93812
 30
0.0
  0
VERTEX
  5
5E8
  8
025
 10
233.883231
 20
155.438313
 30
0.0
  0
VERTEX
  5
5E9
  8
025
 10
233.973591
 20
154.97433
 30
0.0
  0
SEQEND
  5
5EA
  8
025
  0
POLYLINE
  5
2CA
  8
025
 66
     1
 10
0.0
 20
0.0
 30
0.0
  0
VERTEX
  5
5EB
  8
025
 10
233.610729
 20
143.858029
 30
0.0
  0
VERTEX
  5
5EC
  8
025
 10
233.258599
 20
144.673381
 30
0.0
  0
VERTEX
  5
5ED
  8
025
 10
232.583784
 20
146.065988
 30
0.0
  0
VERTEX
  5
5EE
  8
025
 10
231.890797
 20
147.33494
 30
0.0
  0
VERTEX
  5
5EF
  8
025
 10
231.196701
 20
148.448991
 30
0.0
  0
VERTEX
  5
5F0
  8
025
 10
230.518587
 20
149.38071
 30
0.0
  0
VERTEX
  5
5F1
  8
025
 10
229.873152
 20
150.107154
 30
0.0
  0
VERTEX
  5
5F2
  8
025
 10
229.27629
 20
150.610436
 30
0.0
  0
VERTEX
  5
5F3
  8
025
 10
228.742697
 20
150.878164
 30
0.0
  0
VERTEX
  5
5F4
  8
025
 10
228.285512
 20
150.903745
 30
0.0
  0
VERTEX
  5
5F5
  8
025
 10
228.200747
 20
150.878347
 30
0.0
  0
SEQEND
  5
5F6
  8
025
  0
POLYLINE
  5
2CB
  8
025
 66
     1
 10
0.0
 20
0.0
 30
0.0
  0
VERTEX
  5
5F7
  8
025
 10
233.713229
 20
145.976654
 30
0.0
  0
VERTEX
  5
5F8
  8
025
 10
233.357268
 20
146.711246
 30
0.0
  0
VERTEX
  5
5F9
  8
025
 10
232.611949
 20
148.076023
 30
0.0
  0
VERTEX
  5
5FA
  8
025
 10
231.865439
 20
149.274201
 30
0.0
  0
VERTEX
  5
5FB
  8
025
 10
231.136117
 20
150.276278
 30
0.0
  0
VERTEX
  5
5FC
  8
025
 10
230.441943
 20
151.05758
 30
0.0
  0
VERTEX
  5
5FD
  8
025
 10
229.800009
 20
151.598867
 30
0.0
  0
VERTEX
  5
5FE
  8
025
 10
229.226121
 20
151.886813
 30
0.0
  0
VERTEX
  5
5FF
  8
025
 10
228.734412
 20
151.914325
 30
0.0
  0
VERTEX
  5
600
  8
025
 10
228.643246
 20
151.88701
 30
0.0
  0
SEQEND
  5
601
  8
025
  0
LINE
  5
2CC
  8
05
 10
233.35019
 20
153.631621
 30
0.0
 11
228.643246
 21
151.88701
 31
0.0
  0
POLYLINE
  5
2CD
  8
05
 66
     1
 10
0.0
 20
0.0
 30
0.0
  0
VERTEX
  5
602
  8
05
 10
226.459934
 20
150.645821
 30
0.0
  0
VERTEX
  5
603
  8
05
 10
226.181113
 20
150.758191
 30
0.0
  0
VERTEX
  5
604
  8
05
 10
225.689403
 20
150.785704
 30
0.0
  0
VERTEX
  5
605
  8
05
 10
225.598237
 20
150.758388
 30
0.0
  0
SEQEND
  5
606
  8
05
  0
LINE
  5
2CE
  8
05
 10
227.392437
 20
150.177126
 30
0.0
 11
226.459934
 21
150.645821
 31
0.0
  0
LINE
  5
2CF
  8
05
 10
228.200747
 20
150.878347
 30
0.0
 11
226.932527
 21
150.408286
 31
0.0
  0
LINE
  5
2D0
  8
05
 10
228.063076
 20
151.240019
 30
0.0
 11
227.859463
 21
150.751852
 31
0.0
  0
POLYLINE
  5
2D1
  8
05
 66
     1
 10
0.0
 20
0.0
 30
0.0
  0
VERTEX
  5
607
  8
05
 10
228.643246
 20
151.88701
 30
0.0
  0
VERTEX
  5
608
  8
05
 10
228.336988
 20
151.680728
 30
0.0
  0
VERTEX
  5
609
  8
05
 10
228.063076
 20
151.240019
 30
0.0
  0
SEQEND
  5
60A
  8
05
  0
LINE
  5
2D2
  8
05
 10
233.75214
 20
153.665404
 30
0.0
 11
232.736363
 21
153.580031
 31
0.0
  0
LINE
  5
2D3
  8
05
 10
233.75214
 20
153.665404
 30
0.0
 11
233.806159
 21
153.677316
 31
0.0
  0
POLYLINE
  5
2D4
  8
025
 66
     1
 10
0.0
 20
0.0
 30
0.0
  0
VERTEX
  5
60B
  8
025
 10
232.736363
 20
153.580031
 30
0.0
  0
VERTEX
  5
60C
  8
025
 10
232.859476
 20
153.640714
 30
0.0
  0
VERTEX
  5
60D
  8
025
 10
232.943954
 20
153.797772
 30
0.0
  0
VERTEX
  5
60E
  8
025
 10
232.98593
 20
154.045119
 30
0.0
  0
VERTEX
  5
60F
  8
025
 10
232.983788
 20
154.373249
 30
0.0
  0
VERTEX
  5
610
  8
025
 10
232.937612
 20
154.769553
 30
0.0
  0
SEQEND
  5
611
  8
025
  0
POLYLINE
  5
2D5
  8
025
 66
     1
 10
0.0
 20
0.0
 30
0.0
  0
VERTEX
  5
612
  8
025
 10
233.806159
 20
153.677316
 30
0.0
  0
VERTEX
  5
613
  8
025
 10
233.91353
 20
153.763487
 30
0.0
  0
VERTEX
  5
614
  8
025
 10
233.992193
 20
153.946063
 30
0.0
  0
VERTEX
  5
615
  8
025
 10
234.029016
 20
154.215281
 30
0.0
  0
VERTEX
  5
616
  8
025
 10
234.022744
 20
154.561972
 30
0.0
  0
VERTEX
  5
617
  8
025
 10
233.973591
 20
154.97433
 30
0.0
  0
SEQEND
  5
618
  8
025
  0
POLYLINE
  5
2D6
  8
05
 66
     1
 10
0.0
 20
0.0
 30
0.0
  0
VERTEX
  5
619
  8
05
 10
231.423949
 20
153.996734
 30
0.0
  0
VERTEX
  5
61A
  8
05
 10
231.549168
 20
153.903287
 30
0.0
  0
VERTEX
  5
61B
  8
05
 10
231.732593
 20
153.791397
 30
0.0
  0
VERTEX
  5
61C
  8
05
 10
231.969741
 20
153.684736
 30
0.0
  0
VERTEX
  5
61D
  8
05
 10
232.285039
 20
153.600026
 30
0.0
  0
VERTEX
  5
61E
  8
05
 10
232.569658
 20
153.573941
 30
0.0
  0
VERTEX
  5
61F
  8
05
 10
232.736343
 20
153.58003
 30
0.0
  0
SEQEND
  5
620
  8
05
  0
POLYLINE
  5
2D7
  8
025
 66
     1
 10
0.0
 20
0.0
 30
0.0
  0
VERTEX
  5
621
  8
025
 10
231.423935
 20
153.99679
 30
0.0
  0
VERTEX
  5
622
  8
025
 10
231.467721
 20
153.964053
 30
0.0
  0
VERTEX
  5
623
  8
025
 10
231.602918
 20
153.905056
 30
0.0
  0
VERTEX
  5
624
  8
025
 10
231.710364
 20
153.92996
 30
0.0
  0
VERTEX
  5
625
  8
025
 10
231.785363
 20
154.037677
 30
0.0
  0
VERTEX
  5
626
  8
025
 10
231.824636
 20
154.223498
 30
0.0
  0
VERTEX
  5
627
  8
025
 10
231.826467
 20
154.479303
 30
0.0
  0
VERTEX
  5
628
  8
025
 10
231.790776
 20
154.793912
 30
0.0
  0
SEQEND
  5
629
  8
025
  0
POLYLINE
  5
2D8
  8
05
 66
     1
 10
0.0
 20
0.0
 30
0.0
  0
VERTEX
  5
62A
  8
05
 10
230.84599
 20
158.679734
 30
0.0
  0
VERTEX
  5
62B
  8
05
 10
230.578263
 20
158.441175
 30
0.0
  0
VERTEX
  5
62C
  8
05
 10
230.331026
 20
158.097317
 30
0.0
  0
VERTEX
  5
62D
  8
05
 10
230.18128
 20
157.747058
 30
0.0
  0
VERTEX
  5
62E
  8
05
 10
230.122615
 20
157.509855
 30
0.0
  0
SEQEND
  5
62F
  8
05
  0
POLYLINE
  5
2D9
  8
05
 66
     1
 10
0.0
 20
0.0
 30
0.0
  0
VERTEX
  5
630
  8
05
 10
230.145098
 20
156.855644
 30
0.0
  0
VERTEX
  5
631
  8
05
 10
230.109407
 20
157.170253
 30
0.0
  0
VERTEX
  5
632
  8
05
 10
230.111238
 20
157.426058
 30
0.0
  0
VERTEX
  5
633
  8
05
 10
230.12265
 20
157.509785
 30
0.0
  0
SEQEND
  5
634
  8
05
  0
LINE
  5
2DA
  8
05
 10
231.672175
 20
159.277129
 30
0.0
 11
230.846138
 21
158.67984
 31
0.0
  0
LINE
  5
2DB
  8
05
 10
231.672175
 20
159.277129
 30
0.0
 11
231.720908
 21
159.303302
 31
0.0
  0
POLYLINE
  5
2DC
  8
05
 66
     1
 10
0.0
 20
0.0
 30
0.0
  0
VERTEX
  5
635
  8
05
 10
262.09799
 20
164.163705
 30
0.0
  0
VERTEX
  5
636
  8
05
 10
261.992153
 20
164.153031
 30
0.0
  0
VERTEX
  5
637
  8
05
 10
261.792551
 20
164.238675
 30
0.0
  0
VERTEX
  5
638
  8
05
 10
261.560231
 20
164.445617
 30
0.0
  0
VERTEX
  5
639
  8
05
 10
261.305469
 20
164.764787
 30
0.0
  0
VERTEX
  5
63A
  8
05
 10
261.039696
 20
165.181865
 30
0.0
  0
VERTEX
  5
63B
  8
05
 10
260.774699
 20
165.678277
 30
0.0
  0
VERTEX
  5
63C
  8
05
 10
260.522187
 20
166.232025
 30
0.0
  0
VERTEX
  5
63D
  8
05
 10
260.293304
 20
166.818615
 30
0.0
  0
VERTEX
  5
63E
  8
05
 10
260.098147
 20
167.412135
 30
0.0
  0
SEQEND
  5
63F
  8
05
  0
POLYLINE
  5
2DD
  8
05
 66
     1
 10
0.0
 20
0.0
 30
0.0
  0
VERTEX
  5
640
  8
05
 10
263.249567
 20
170.988842
 30
0.0
  0
VERTEX
  5
641
  8
05
 10
263.41085
 20
171.041211
 30
0.0
  0
VERTEX
  5
642
  8
05
 10
263.858822
 20
171.092793
 30
0.0
  0
VERTEX
  5
643
  8
05
 10
264.213557
 20
170.996045
 30
0.0
  0
VERTEX
  5
644
  8
05
 10
264.480983
 20
170.773172
 30
0.0
  0
VERTEX
  5
645
  8
05
 10
264.665999
 20
170.431386
 30
0.0
  0
VERTEX
  5
646
  8
05
 10
264.764393
 20
169.962848
 30
0.0
  0
VERTEX
  5
647
  8
05
 10
264.75994
 20
169.357129
 30
0.0
  0
VERTEX
  5
648
  8
05
 10
264.632161
 20
168.620914
 30
0.0
  0
VERTEX
  5
649
  8
05
 10
264.364489
 20
167.77373
 30
0.0
  0
VERTEX
  5
64A
  8
05
 10
263.940413
 20
166.837597
 30
0.0
  0
VERTEX
  5
64B
  8
05
 10
263.352892
 20
165.86366
 30
0.0
  0
SEQEND
  5
64C
  8
05
  0
POLYLINE
  5
2DE
  8
05
 66
     1
 10
0.0
 20
0.0
 30
0.0
  0
VERTEX
  5
64D
  8
05
 10
254.488657
 20
144.501334
 30
0.0
  0
VERTEX
  5
64E
  8
05
 10
254.372099
 20
144.313799
 30
0.0
  0
VERTEX
  5
64F
  8
05
 10
254.241777
 20
144.226019
 30
0.0
  0
SEQEND
  5
650
  8
05
  0
POLYLINE
  5
2DF
  8
05
 66
     1
 10
0.0
 20
0.0
 30
0.0
  0
VERTEX
  5
651
  8
05
 10
255.113147
 20
147.310713
 30
0.0
  0
VERTEX
  5
652
  8
05
 10
254.986701
 20
147.945411
 30
0.0
  0
VERTEX
  5
653
  8
05
 10
254.802319
 20
148.631877
 30
0.0
  0
VERTEX
  5
654
  8
05
 10
254.568059
 20
149.340109
 30
0.0
  0
VERTEX
  5
655
  8
05
 10
254.29416
 20
150.039152
 30
0.0
  0
VERTEX
  5
656
  8
05
 10
253.992592
 20
150.698457
 30
0.0
  0
VERTEX
  5
657
  8
05
 10
253.676535
 20
151.289207
 30
0.0
  0
VERTEX
  5
658
  8
05
 10
253.359803
 20
151.785585
 30
0.0
  0
VERTEX
  5
659
  8
05
 10
253.056238
 20
152.165896
 30
0.0
  0
VERTEX
  5
65A
  8
05
 10
252.779108
 20
152.413519
 30
0.0
  0
VERTEX
  5
65B
  8
05
 10
252.685082
 20
152.469369
 30
0.0
  0
SEQEND
  5
65C
  8
05
  0
POLYLINE
  5
2E0
  8
025
 66
     1
 10
0.0
 20
0.0
 30
0.0
  0
VERTEX
  5
65D
  8
025
 10
254.509667
 20
146.301242
 30
0.0
  0
VERTEX
  5
65E
  8
025
 10
254.353967
 20
147.09219
 30
0.0
  0
VERTEX
  5
65F
  8
025
 10
254.129847
 20
147.945957
 30
0.0
  0
VERTEX
  5
660
  8
025
 10
253.845921
 20
148.82973
 30
0.0
  0
VERTEX
  5
661
  8
025
 10
253.513099
 20
149.709549
 30
0.0
  0
VERTEX
  5
662
  8
025
 10
253.48865
 20
149.765352
 30
0.0
  0
SEQEND
  5
663
  8
025
  0
LINE
  5
2E1
  8
05
 10
250.905374
 20
153.227598
 30
0.0
 11
243.574251
 21
150.510344
 31
0.0
  0
POLYLINE
  5
2E2
  8
025
 66
     1
 10
0.0
 20
0.0
 30
0.0
  0
VERTEX
  5
664
  8
025
 10
252.999042
 20
150.838228
 30
0.0
  0
VERTEX
  5
665
  8
025
 10
252.753317
 20
151.323528
 30
0.0
  0
VERTEX
  5
666
  8
025
 10
252.355555
 20
151.995665
 30
0.0
  0
VERTEX
  5
667
  8
025
 10
251.966171
 20
152.542181
 30
0.0
  0
VERTEX
  5
668
  8
025
 10
251.600129
 20
152.942074
 30
0.0
  0
VERTEX
  5
669
  8
025
 10
251.272054
 20
153.179697
 30
0.0
  0
SEQEND
  5
66A
  8
025
  0
POLYLINE
  5
2E3
  8
05
 66
     1
 10
0.0
 20
0.0
 30
0.0
  0
VERTEX
  5
66B
  8
05
 10
251.272054
 20
153.179697
 30
0.0
  0
VERTEX
  5
66C
  8
05
 10
250.992902
 20
153.246747
 30
0.0
  0
VERTEX
  5
66D
  8
05
 10
250.905374
 20
153.227598
 30
0.0
  0
SEQEND
  5
66E
  8
05
  0
LINE
  5
2E4
  8
05
 10
252.684937
 20
152.469554
 30
0.0
 11
251.272054
 21
153.179697
 31
0.0
  0
POLYLINE
  5
2E5
  8
05
 66
     1
 10
0.0
 20
0.0
 30
0.0
  0
VERTEX
  5
66F
  8
05
 10
252.404945
 20
160.870171
 30
0.0
  0
VERTEX
  5
670
  8
05
 10
252.672672
 20
161.10873
 30
0.0
  0
VERTEX
  5
671
  8
05
 10
252.919909
 20
161.452587
 30
0.0
  0
VERTEX
  5
672
  8
05
 10
253.069656
 20
161.802847
 30
0.0
  0
VERTEX
  5
673
  8
05
 10
253.12832
 20
162.04005
 30
0.0
  0
SEQEND
  5
674
  8
05
  0
POLYLINE
  5
2E6
  8
025
 66
     1
 10
0.0
 20
0.0
 30
0.0
  0
VERTEX
  5
675
  8
025
 10
251.57876
 20
160.272775
 30
0.0
  0
VERTEX
  5
676
  8
025
 10
251.637399
 20
160.332774
 30
0.0
  0
VERTEX
  5
677
  8
025
 10
251.716062
 20
160.51535
 30
0.0
  0
VERTEX
  5
678
  8
025
 10
251.752884
 20
160.784567
 30
0.0
  0
VERTEX
  5
679
  8
025
 10
251.746612
 20
161.131258
 30
0.0
  0
VERTEX
  5
67A
  8
025
 10
251.697459
 20
161.543616
 30
0.0
  0
SEQEND
  5
67B
  8
025
  0
POLYLINE
  5
2E7
  8
025
 66
     1
 10
0.0
 20
0.0
 30
0.0
  0
VERTEX
  5
67C
  8
025
 10
252.404945
 20
160.870171
 30
0.0
  0
VERTEX
  5
67D
  8
025
 10
252.434532
 20
160.896136
 30
0.0
  0
VERTEX
  5
67E
  8
025
 10
252.51901
 20
161.053194
 30
0.0
  0
VERTEX
  5
67F
  8
025
 10
252.560986
 20
161.300541
 30
0.0
  0
VERTEX
  5
680
  8
025
 10
252.558844
 20
161.628672
 30
0.0
  0
VERTEX
  5
681
  8
025
 10
252.512668
 20
162.024976
 30
0.0
  0
SEQEND
  5
682
  8
025
  0
LINE
  5
2E8
  8
05
 10
251.530027
 20
160.246602
 30
0.0
 11
251.57876
 21
160.272775
 31
0.0
  0
LINE
  5
2E9
  8
05
 10
252.404798
 20
160.870064
 30
0.0
 11
251.57876
 21
160.272775
 31
0.0
  0
LINE
  5
2EA
  8
05
 10
252.404798
 20
160.870064
 30
0.0
 11
252.404945
 21
160.870171
 31
0.0
  0
LINE
  5
2EB
  8
05
 10
250.514572
 20
165.969873
 30
0.0
 11
249.498795
 21
165.884501
 31
0.0
  0
POLYLINE
  5
2EC
  8
025
 66
     1
 10
0.0
 20
0.0
 30
0.0
  0
VERTEX
  5
683
  8
025
 10
249.498795
 20
165.884501
 30
0.0
  0
VERTEX
  5
684
  8
025
 10
249.608204
 20
165.869939
 30
0.0
  0
VERTEX
  5
685
  8
025
 10
249.791118
 20
165.76804
 30
0.0
  0
VERTEX
  5
686
  8
025
 10
249.997743
 20
165.573908
 30
0.0
  0
VERTEX
  5
687
  8
025
 10
250.221043
 20
165.294154
 30
0.0
  0
VERTEX
  5
688
  8
025
 10
250.453414
 20
164.938305
 30
0.0
  0
VERTEX
  5
689
  8
025
 10
250.686942
 20
164.518478
 30
0.0
  0
VERTEX
  5
68A
  8
025
 10
250.913675
 20
164.048972
 30
0.0
  0
VERTEX
  5
68B
  8
025
 10
251.125891
 20
163.545773
 30
0.0
  0
VERTEX
  5
68C
  8
025
 10
251.316365
 20
163.026018
 30
0.0
  0
VERTEX
  5
68D
  8
025
 10
251.478609
 20
162.507406
 30
0.0
  0
VERTEX
  5
68E
  8
025
 10
251.607099
 20
162.007599
 30
0.0
  0
VERTEX
  5
68F
  8
025
 10
251.697459
 20
161.543616
 30
0.0
  0
SEQEND
  5
690
  8
025
  0
LINE
  5
2ED
  8
05
 10
249.444776
 20
165.872589
 30
0.0
 11
249.498795
 21
165.884501
 31
0.0
  0
POLYLINE
  5
2EE
  8
05
 66
     1
 10
0.0
 20
0.0
 30
0.0
  0
VERTEX
  5
691
  8
05
 10
251.827
 20
165.553115
 30
0.0
  0
VERTEX
  5
692
  8
05
 10
251.940255
 20
165.445532
 30
0.0
  0
VERTEX
  5
693
  8
05
 10
252.112275
 20
165.230022
 30
0.0
  0
VERTEX
  5
694
  8
05
 10
252.291757
 20
164.948741
 30
0.0
  0
VERTEX
  5
695
  8
05
 10
252.470856
 20
164.613983
 30
0.0
  0
VERTEX
  5
696
  8
05
 10
252.641744
 20
164.240377
 30
0.0
  0
VERTEX
  5
697
  8
05
 10
252.796954
 20
163.844252
 30
0.0
  0
VERTEX
  5
698
  8
05
 10
252.929701
 20
163.442921
 30
0.0
  0
VERTEX
  5
699
  8
05
 10
253.034184
 20
163.053923
 30
0.0
  0
VERTEX
  5
69A
  8
05
 10
253.105837
 20
162.694261
 30
0.0
  0
SEQEND
  5
69B
  8
05
  0
POLYLINE
  5
2EF
  8
05
 66
     1
 10
0.0
 20
0.0
 30
0.0
  0
VERTEX
  5
69C
  8
05
 10
253.128285
 20
162.04012
 30
0.0
  0
VERTEX
  5
69D
  8
05
 10
253.139697
 20
162.123847
 30
0.0
  0
VERTEX
  5
69E
  8
05
 10
253.141528
 20
162.379652
 30
0.0
  0
VERTEX
  5
69F
  8
05
 10
253.105837
 20
162.694261
 30
0.0
  0
SEQEND
  5
6A0
  8
05
  0
LINE
  5
2F0
  8
05
 10
250.514572
 20
165.969873
 30
0.0
 11
250.514592
 21
165.969875
 31
0.0
  0
POLYLINE
  5
2F1
  8
05
 66
     1
 10
0.0
 20
0.0
 30
0.0
  0
VERTEX
  5
6A1
  8
05
 10
251.826986
 20
165.553171
 30
0.0
  0
VERTEX
  5
6A2
  8
05
 10
251.701767
 20
165.646618
 30
0.0
  0
VERTEX
  5
6A3
  8
05
 10
251.518342
 20
165.758508
 30
0.0
  0
VERTEX
  5
6A4
  8
05
 10
251.281194
 20
165.865169
 30
0.0
  0
VERTEX
  5
6A5
  8
05
 10
250.965897
 20
165.949878
 30
0.0
  0
VERTEX
  5
6A6
  8
05
 10
250.681277
 20
165.975964
 30
0.0
  0
VERTEX
  5
6A7
  8
05
 10
250.514592
 20
165.969875
 30
0.0
  0
SEQEND
  5
6A8
  8
05
  0
POLYLINE
  5
2F2
  8
025
 66
     1
 10
0.0
 20
0.0
 30
0.0
  0
VERTEX
  5
6A9
  8
025
 10
250.514592
 20
165.969875
 30
0.0
  0
VERTEX
  5
6AA
  8
025
 10
250.673433
 20
165.932
 30
0.0
  0
VERTEX
  5
6AB
  8
025
 10
250.860092
 20
165.796875
 30
0.0
  0
VERTEX
  5
6AC
  8
025
 10
251.067998
 20
165.569741
 30
0.0
  0
VERTEX
  5
6AD
  8
025
 10
251.289163
 20
165.259327
 30
0.0
  0
VERTEX
  5
6AE
  8
025
 10
251.515086
 20
164.877564
 30
0.0
  0
VERTEX
  5
6AF
  8
025
 10
251.737086
 20
164.43912
 30
0.0
  0
VERTEX
  5
6B0
  8
025
 10
251.946632
 20
163.960846
 30
0.0
  0
VERTEX
  5
6B1
  8
025
 10
252.13567
 20
163.461122
 30
0.0
  0
VERTEX
  5
6B2
  8
025
 10
252.296936
 20
162.959151
 30
0.0
  0
VERTEX
  5
6B3
  8
025
 10
252.424233
 20
162.474223
 30
0.0
  0
VERTEX
  5
6B4
  8
025
 10
252.512668
 20
162.024976
 30
0.0
  0
SEQEND
  5
6B5
  8
025
  0
POLYLINE
  5
2F3
  8
025
 66
     1
 10
0.0
 20
0.0
 30
0.0
  0
VERTEX
  5
6B6
  8
025
 10
259.0246
 20
152.100857
 30
0.0
  0
VERTEX
  5
6B7
  8
025
 10
258.819596
 20
152.738971
 30
0.0
  0
VERTEX
  5
6B8
  8
025
 10
258.539446
 20
153.806179
 30
0.0
  0
VERTEX
  5
6B9
  8
025
 10
258.344821
 20
154.794865
 30
0.0
  0
VERTEX
  5
6BA
  8
025
 10
258.243199
 20
155.667034
 30
0.0
  0
VERTEX
  5
6BB
  8
025
 10
258.238486
 20
156.38917
 30
0.0
  0
VERTEX
  5
6BC
  8
025
 10
258.330863
 20
156.933521
 30
0.0
  0
VERTEX
  5
6BD
  8
025
 10
258.516781
 20
157.279169
 30
0.0
  0
VERTEX
  5
6BE
  8
025
 10
258.789093
 20
157.412829
 30
0.0
  0
VERTEX
  5
6BF
  8
025
 10
259.138029
 20
157.329019
 30
0.0
  0
SEQEND
  5
6C0
  8
025
  0
POLYLINE
  5
2F4
  8
05
 66
     1
 10
0.0
 20
0.0
 30
0.0
  0
VERTEX
  5
6C1
  8
05
 10
260.005679
 20
156.532121
 30
0.0
  0
VERTEX
  5
6C2
  8
05
 10
260.492409
 20
155.848976
 30
0.0
  0
VERTEX
  5
6C3
  8
05
 10
260.989612
 20
155.008806
 30
0.0
  0
VERTEX
  5
6C4
  8
05
 10
261.478181
 20
154.043897
 30
0.0
  0
VERTEX
  5
6C5
  8
05
 10
261.93934
 20
152.991332
 30
0.0
  0
VERTEX
  5
6C6
  8
05
 10
262.355367
 20
151.891558
 30
0.0
  0
VERTEX
  5
6C7
  8
05
 10
262.710275
 20
150.786841
 30
0.0
  0
VERTEX
  5
6C8
  8
05
 10
262.990425
 20
149.719633
 30
0.0
  0
VERTEX
  5
6C9
  8
05
 10
263.18505
 20
148.730947
 30
0.0
  0
VERTEX
  5
6CA
  8
05
 10
263.286672
 20
147.858778
 30
0.0
  0
VERTEX
  5
6CB
  8
05
 10
263.291384
 20
147.136642
 30
0.0
  0
VERTEX
  5
6CC
  8
05
 10
263.199007
 20
146.592291
 30
0.0
  0
VERTEX
  5
6CD
  8
05
 10
263.158834
 20
146.481407
 30
0.0
  0
SEQEND
  5
6CE
  8
05
  0
POLYLINE
  5
2F5
  8
025
 66
     1
 10
0.0
 20
0.0
 30
0.0
  0
VERTEX
  5
6CF
  8
025
 10
259.96003
 20
156.441215
 30
0.0
  0
VERTEX
  5
6D0
  8
025
 10
259.844537
 20
156.006773
 30
0.0
  0
VERTEX
  5
6D1
  8
025
 10
259.829728
 20
155.379738
 30
0.0
  0
VERTEX
  5
6D2
  8
025
 10
259.916347
 20
154.591552
 30
0.0
  0
VERTEX
  5
6D3
  8
025
 10
260.100049
 20
153.681738
 30
0.0
  0
VERTEX
  5
6D4
  8
025
 10
260.371623
 20
152.695918
 30
0.0
  0
VERTEX
  5
6D5
  8
025
 10
260.717452
 20
151.683524
 30
0.0
  0
VERTEX
  5
6D6
  8
025
 10
261.120193
 20
150.695324
 30
0.0
  0
VERTEX
  5
6D7
  8
025
 10
261.559652
 20
149.780868
 30
0.0
  0
VERTEX
  5
6D8
  8
025
 10
262.013793
 20
148.986012
 30
0.0
  0
VERTEX
  5
6D9
  8
025
 10
262.459843
 20
148.350613
 30
0.0
  0
SEQEND
  5
6DA
  8
025
  0
POLYLINE
  5
2F6
  8
05
 66
     1
 10
0.0
 20
0.0
 30
0.0
  0
VERTEX
  5
6DB
  8
05
 10
263.158834
 20
146.481407
 30
0.0
  0
VERTEX
  5
6DC
  8
05
 10
263.01309
 20
146.246643
 30
0.0
  0
VERTEX
  5
6DD
  8
05
 10
262.740777
 20
146.112983
 30
0.0
  0
VERTEX
  5
6DE
  8
05
 10
262.392534
 20
146.196446
 30
0.0
  0
VERTEX
  5
6DF
  8
05
 10
261.981743
 20
146.493825
 30
0.0
  0
VERTEX
  5
6E0
  8
05
 10
261.524191
 20
146.993691
 30
0.0
  0
SEQEND
  5
6E1
  8
05
  0
POLYLINE
  5
2F7
  8
025
 66
     1
 10
0.0
 20
0.0
 30
0.0
  0
VERTEX
  5
6E2
  8
025
 10
261.524191
 20
146.993691
 30
0.0
  0
VERTEX
  5
6E3
  8
025
 10
261.037461
 20
147.676836
 30
0.0
  0
VERTEX
  5
6E4
  8
025
 10
260.540259
 20
148.517007
 30
0.0
  0
VERTEX
  5
6E5
  8
025
 10
260.05169
 20
149.481915
 30
0.0
  0
VERTEX
  5
6E6
  8
025
 10
259.590531
 20
150.534481
 30
0.0
  0
VERTEX
  5
6E7
  8
025
 10
259.554694
 20
150.629217
 30
0.0
  0
SEQEND
  5
6E8
  8
025
  0
POLYLINE
  5
2F8
  8
05
 66
     1
 10
0.0
 20
0.0
 30
0.0
  0
VERTEX
  5
6E9
  8
05
 10
255.113147
 20
147.310713
 30
0.0
  0
VERTEX
  5
6EA
  8
05
 10
255.176131
 20
146.755521
 30
0.0
  0
VERTEX
  5
6EB
  8
05
 10
255.1729
 20
146.3041
 30
0.0
  0
VERTEX
  5
6EC
  8
05
 10
255.097425
 20
145.960881
 30
0.0
  0
SEQEND
  5
6ED
  8
05
  0
POLYLINE
  5
2F9
  8
025
 66
     1
 10
0.0
 20
0.0
 30
0.0
  0
VERTEX
  5
6EE
  8
025
 10
254.509667
 20
146.301242
 30
0.0
  0
VERTEX
  5
6EF
  8
025
 10
254.590965
 20
145.603506
 30
0.0
  0
VERTEX
  5
6F0
  8
025
 10
254.594735
 20
145.025798
 30
0.0
  0
VERTEX
  5
6F1
  8
025
 10
254.520833
 20
144.590317
 30
0.0
  0
VERTEX
  5
6F2
  8
025
 10
254.488657
 20
144.501334
 30
0.0
  0
SEQEND
  5
6F3
  8
025
  0
LINE
  5
2FA
  8
05
 10
255.09739
 20
145.960782
 30
0.0
 11
254.488657
 21
144.501334
 31
0.0
  0
POLYLINE
  5
2FB
  8
05
 66
     1
 10
0.0
 20
0.0
 30
0.0
  0
VERTEX
  5
6F4
  8
05
 10
263.287876
 20
147.674181
 30
0.0
  0
VERTEX
  5
6F5
  8
05
 10
263.23973
 20
147.67604
 30
0.0
  0
VERTEX
  5
6F6
  8
05
 10
262.875435
 20
147.906533
 30
0.0
  0
VERTEX
  5
6F7
  8
05
 10
262.459843
 20
148.350613
 30
0.0
  0
SEQEND
  5
6F8
  8
05
  0
POLYLINE
  5
2FC
  8
05
 66
     1
 10
0.0
 20
0.0
 30
0.0
  0
VERTEX
  5
6F9
  8
05
 10
263.352892
 20
165.86366
 30
0.0
  0
VERTEX
  5
6FA
  8
05
 10
262.840023
 20
165.191376
 30
0.0
  0
VERTEX
  5
6FB
  8
05
 10
262.316219
 20
164.633299
 30
0.0
  0
SEQEND
  5
6FC
  8
05
  0
LINE
  5
2FD
  8
035
 10
263.627297
 20
162.990758
 30
0.0
 11
262.316219
 21
164.633299
 31
0.0
  0
POLYLINE
  5
2FE
  8
05
 66
     1
 10
0.0
 20
0.0
 30
0.0
  0
VERTEX
  5
6FD
  8
05
 10
259.138029
 20
157.329019
 30
0.0
  0
VERTEX
  5
6FE
  8
05
 10
259.548127
 20
157.031987
 30
0.0
  0
VERTEX
  5
6FF
  8
05
 10
260.005679
 20
156.532121
 30
0.0
  0
SEQEND
  5
700
  8
05
  0
LINE
  5
2FF
  8
05
 10
260.024347
 20
156.50592
 30
0.0
 11
259.96003
 21
156.441215
 31
0.0
  0
POLYLINE
  5
300
  8
05
 66
     1
 10
0.0
 20
0.0
 30
0.0
  0
VERTEX
  5
701
  8
05
 10
262.316219
 20
164.633299
 30
0.0
  0
VERTEX
  5
702
  8
05
 10
262.259876
 20
164.354863
 30
0.0
  0
VERTEX
  5
703
  8
05
 10
262.150247
 20
164.192366
 30
0.0
  0
VERTEX
  5
704
  8
05
 10
262.09799
 20
164.163705
 30
0.0
  0
SEQEND
  5
705
  8
05
  0
LINE
  5
301
  8
035
 10
263.874518
 20
161.437856
 30
0.0
 11
263.627297
 21
162.990758
 31
0.0
  0
LINE
  5
302
  8
035
 10
266.107881
 20
166.588206
 30
0.0
 11
263.627297
 21
162.990758
 31
0.0
  0
LINE
  5
303
  8
05
 10
257.624659
 20
185.685692
 30
0.0
 11
252.010747
 21
177.54416
 31
0.0
  0
LINE
  5
304
  8
035
 10
260.098147
 20
167.412135
 30
0.0
 11
252.010747
 21
177.54416
 31
0.0
  0
LINE
  5
305
  8
035
 10
258.538585
 20
179.684391
 30
0.0
 11
256.760997
 21
177.106456
 31
0.0
  0
LINE
  5
306
  8
05
 10
263.432934
 20
178.408991
 30
0.0
 11
259.858743
 21
173.225549
 31
0.0
  0
LINE
  5
307
  8
035
 10
269.241209
 20
171.13229
 30
0.0
 11
263.432934
 21
178.408991
 31
0.0
  0
POLYLINE
  5
308
  8
05
 66
     1
 10
0.0
 20
0.0
 30
0.0
  0
VERTEX
  5
706
  8
05
 10
260.932777
 20
168.895618
 30
0.0
  0
VERTEX
  5
707
  8
05
 10
261.609278
 20
169.755232
 30
0.0
  0
VERTEX
  5
708
  8
05
 10
262.269169
 20
170.392566
 30
0.0
  0
VERTEX
  5
709
  8
05
 10
262.875662
 20
170.814636
 30
0.0
  0
VERTEX
  5
70A
  8
05
 10
263.249567
 20
170.988842
 30
0.0
  0
SEQEND
  5
70B
  8
05
  0
POLYLINE
  5
309
  8
025
 66
     1
 10
0.0
 20
0.0
 30
0.0
  0
VERTEX
  5
70C
  8
025
 10
260.098147
 20
167.412135
 30
0.0
  0
VERTEX
  5
70D
  8
025
 10
260.472816
 20
168.157064
 30
0.0
  0
VERTEX
  5
70E
  8
025
 10
260.932777
 20
168.895618
 30
0.0
  0
SEQEND
  5
70F
  8
025
  0
LINE
  5
30A
  8
035
 10
259.858743
 20
173.225549
 30
0.0
 11
256.760997
 21
177.106456
 31
0.0
  0
LINE
  5
30B
  8
035
 10
267.624089
 20
168.787074
 30
0.0
 11
266.652509
 21
167.378048
 31
0.0
  0
LINE
  5
30C
  8
035
 10
269.241209
 20
171.13229
 30
0.0
 11
268.393554
 21
169.902985
 31
0.0
  0
LINE
  5
30D
  8
035
 10
260.335187
 20
182.289898
 30
0.0
 11
262.940969
 21
183.255722
 31
0.0
  0
LINE
  5
30E
  8
035
 10
260.335187
 20
182.289898
 30
0.0
 11
257.624659
 21
185.685692
 31
0.0
  0
LINE
  5
30F
  8
035
 10
260.335187
 20
182.289898
 30
0.0
 11
259.344475
 21
180.853126
 31
0.0
  0
LINE
  5
310
  8
035
 10
264.105923
 20
183.687507
 30
0.0
 11
267.250369
 21
184.852985
 31
0.0
  0
LINE
  5
311
  8
035
 10
332.51076
 20
194.582916
 30
0.0
 11
315.002812
 21
188.09366
 31
0.0
  0
LINE
  5
312
  8
05
 10
299.796649
 20
201.316585
 30
0.0
 11
302.363148
 21
185.1953
 31
0.0
  0
LINE
  5
313
  8
05
 10
281.432747
 20
190.109631
 30
0.0
 11
282.012819
 21
186.465951
 31
0.0
  0
LINE
  5
314
  8
05
 10
302.363148
 20
185.1953
 30
0.0
 11
313.979698
 21
170.641898
 31
0.0
  0
LINE
  5
315
  8
05
 10
290.338769
 20
178.952023
 30
0.0
 11
292.905268
 21
162.830738
 31
0.0
  0
LINE
  5
316
  8
05
 10
285.546506
 20
155.810914
 30
0.0
 11
292.905268
 21
162.830738
 31
0.0
  0
LINE
  5
317
  8
05
 10
286.837028
 20
147.704588
 30
0.0
 11
285.546506
 21
155.810914
 31
0.0
  0
LINE
  5
318
  8
05
 10
295.486311
 20
146.618087
 30
0.0
 11
287.023751
 21
157.220119
 31
0.0
  0
LINE
  5
319
  8
035
 10
295.486311
 20
146.618087
 30
0.0
 11
286.837028
 21
147.704588
 31
0.0
  0
LINE
  5
31A
  8
035
 10
272.983984
 20
172.519536
 30
0.0
 11
290.338769
 21
178.952023
 31
0.0
  0
LINE
  5
31B
  8
05
 10
290.338769
 20
178.952023
 30
0.0
 11
284.530494
 21
186.228724
 31
0.0
  0
LINE
  5
31C
  8
05
 10
282.733744
 20
185.562765
 30
0.0
 11
282.012819
 21
186.465951
 31
0.0
  0
LINE
  5
31D
  8
05
 10
323.919504
 20
161.449071
 30
0.0
 11
322.628982
 21
169.555397
 31
0.0
  0
LINE
  5
31E
  8
05
 10
304.944191
 20
168.982649
 30
0.0
 11
306.386991
 21
159.919801
 31
0.0
  0
LINE
  5
31F
  8
035
 10
304.944191
 20
168.982649
 30
0.0
 11
316.560742
 21
154.429247
 31
0.0
  0
LINE
  5
320
  8
035
 10
323.919504
 20
161.449071
 30
0.0
 11
316.871754
 21
170.278605
 31
0.0
  0
LINE
  5
321
  8
035
 10
316.560742
 20
154.429247
 30
0.0
 11
323.919504
 21
161.449071
 31
0.0
  0
LINE
  5
322
  8
05
 10
310.525387
 20
154.735152
 30
0.0
 11
306.386991
 21
159.919801
 31
0.0
  0
LINE
  5
323
  8
05
 10
311.694641
 20
147.390561
 30
0.0
 11
310.525387
 21
154.735152
 31
0.0
  0
LINE
  5
324
  8
05
 10
313.865145
 20
150.551049
 30
0.0
 11
318.003541
 21
145.3664
 31
0.0
  0
LINE
  5
325
  8
035
 10
316.560742
 20
154.429247
 30
0.0
 11
318.003541
 21
145.3664
 31
0.0
  0
LINE
  5
326
  8
05
 10
312.184322
 20
146.748631
 30
0.0
 11
312.178664
 21
146.78417
 31
0.0
  0
LINE
  5
327
  8
05
 10
312.178664
 20
146.78417
 30
0.0
 11
311.694641
 21
147.390561
 31
0.0
  0
LINE
  5
328
  8
05
 10
314.550377
 20
143.81285
 30
0.0
 11
314.569906
 21
143.788384
 31
0.0
  0
LINE
  5
329
  8
05
 10
314.569906
 20
143.788384
 30
0.0
 11
314.591227
 21
143.761672
 31
0.0
  0
LINE
  5
32A
  8
05
 10
314.591227
 20
143.761672
 30
0.0
 11
314.556034
 21
143.777312
 31
0.0
  0
LINE
  5
32B
  8
05
 10
314.556034
 20
143.777312
 30
0.0
 11
314.550377
 21
143.81285
 31
0.0
  0
LINE
  5
32C
  8
05
 10
312.184322
 20
146.748631
 30
0.0
 11
314.556034
 21
143.777312
 31
0.0
  0
LINE
  5
32D
  8
05
 10
326.258688
 20
145.04341
 30
0.0
 11
326.159975
 21
145.410525
 31
0.0
  0
LINE
  5
32E
  8
025
 10
334.067391
 20
144.047499
 30
0.0
 11
333.873782
 21
144.290055
 31
0.0
  0
LINE
  5
32F
  8
025
 10
333.965424
 20
146.53502
 30
0.0
 11
334.366729
 21
146.784775
 31
0.0
  0
LINE
  5
330
  8
025
 10
333.579303
 20
146.189881
 30
0.0
 11
333.965424
 21
146.53502
 31
0.0
  0
LINE
  5
331
  8
025
 10
333.824429
 20
145.573648
 30
0.0
 11
333.63082
 21
145.816205
 31
0.0
  0
LINE
  5
332
  8
025
 10
333.93289
 20
145.815873
 30
0.0
 11
333.73928
 21
146.05843
 31
0.0
  0
LINE
  5
333
  8
025
 10
334.180179
 20
146.109555
 30
0.0
 11
333.98657
 21
146.352112
 31
0.0
  0
LINE
  5
334
  8
025
 10
334.442655
 20
146.307854
 30
0.0
 11
334.249046
 21
146.550411
 31
0.0
  0
LINE
  5
335
  8
025
 10
334.225707
 20
146.697009
 30
0.0
 11
334.249046
 21
146.550411
 31
0.0
  0
LINE
  5
336
  8
025
 10
333.852635
 20
144.472963
 30
0.0
 11
334.067391
 21
144.047499
 31
0.0
  0
LINE
  5
337
  8
025
 10
333.761525
 20
145.045269
 30
0.0
 11
333.852635
 21
144.472963
 31
0.0
  0
LINE
  5
338
  8
025
 10
333.824429
 20
145.573648
 30
0.0
 11
333.761525
 21
145.045269
 31
0.0
  0
LINE
  5
339
  8
025
 10
333.93289
 20
145.815873
 30
0.0
 11
333.824429
 21
145.573648
 31
0.0
  0
LINE
  5
33A
  8
025
 10
334.180179
 20
146.109555
 30
0.0
 11
333.93289
 21
145.815873
 31
0.0
  0
LINE
  5
33B
  8
025
 10
334.442655
 20
146.307854
 30
0.0
 11
334.180179
 21
146.109555
 31
0.0
  0
LINE
  5
33C
  8
025
 10
334.366729
 20
146.784775
 30
0.0
 11
334.442655
 21
146.307854
 31
0.0
  0
LINE
  5
33D
  8
025
 10
334.249046
 20
146.550411
 30
0.0
 11
334.061081
 21
146.408405
 31
0.0
  0
LINE
  5
33E
  8
025
 10
334.061081
 20
146.408405
 30
0.0
 11
333.98657
 21
146.352112
 31
0.0
  0
LINE
  5
33F
  8
025
 10
333.98657
 20
146.352112
 30
0.0
 11
333.73928
 21
146.05843
 31
0.0
  0
LINE
  5
340
  8
025
 10
333.73928
 20
146.05843
 30
0.0
 11
333.63082
 21
145.816205
 31
0.0
  0
LINE
  5
341
  8
025
 10
333.63082
 20
145.816205
 30
0.0
 11
333.567915
 21
145.287826
 31
0.0
  0
LINE
  5
342
  8
025
 10
333.567915
 20
145.287826
 30
0.0
 11
333.659026
 21
144.71552
 31
0.0
  0
LINE
  5
343
  8
025
 10
333.659026
 20
144.71552
 30
0.0
 11
333.873782
 21
144.290055
 31
0.0
  0
LINE
  5
344
  8
025
 10
333.852635
 20
144.472963
 30
0.0
 11
333.659026
 21
144.71552
 31
0.0
  0
LINE
  5
345
  8
025
 10
333.761525
 20
145.045269
 30
0.0
 11
333.567915
 21
145.287826
 31
0.0
  0
LINE
  5
346
  8
025
 10
333.93289
 20
145.815873
 30
0.0
 11
333.824429
 21
145.573648
 31
0.0
  0
LINE
  5
347
  8
025
 10
333.824429
 20
145.573648
 30
0.0
 11
333.761525
 21
145.045269
 31
0.0
  0
LINE
  5
348
  8
025
 10
333.761525
 20
145.045269
 30
0.0
 11
333.852635
 21
144.472963
 31
0.0
  0
LINE
  5
349
  8
025
 10
333.852635
 20
144.472963
 30
0.0
 11
334.067391
 21
144.047499
 31
0.0
  0
LINE
  5
34A
  8
025
 10
333.579303
 20
146.189881
 30
0.0
 11
333.965424
 21
146.53502
 31
0.0
  0
LINE
  5
34B
  8
025
 10
333.965424
 20
146.53502
 30
0.0
 11
334.366729
 21
146.784775
 31
0.0
  0
LINE
  5
34C
  8
025
 10
334.366729
 20
146.784775
 30
0.0
 11
334.442655
 21
146.307854
 31
0.0
  0
LINE
  5
34D
  8
025
 10
334.442655
 20
146.307854
 30
0.0
 11
334.180179
 21
146.109555
 31
0.0
  0
LINE
  5
34E
  8
025
 10
334.180179
 20
146.109555
 30
0.0
 11
333.93289
 21
145.815873
 31
0.0
  0
LINE
  5
34F
  8
025
 10
333.130278
 20
145.316363
 30
0.0
 11
333.347199
 21
145.800814
 31
0.0
  0
LINE
  5
350
  8
025
 10
333.052189
 20
144.88337
 30
0.0
 11
333.130278
 21
145.316363
 31
0.0
  0
LINE
  5
351
  8
025
 10
333.17367
 20
144.120295
 30
0.0
 11
333.052189
 21
144.88337
 31
0.0
  0
LINE
  5
352
  8
025
 10
333.17367
 20
144.120295
 30
0.0
 11
333.052189
 21
144.88337
 31
0.0
  0
LINE
  5
353
  8
025
 10
333.052189
 20
144.88337
 30
0.0
 11
333.130278
 21
145.316363
 31
0.0
  0
LINE
  5
354
  8
025
 10
333.130278
 20
145.316363
 30
0.0
 11
333.347199
 21
145.800814
 31
0.0
  0
LINE
  5
355
  8
025
 10
333.347199
 20
145.800814
 30
0.0
 11
333.579303
 21
146.189881
 31
0.0
  0
LINE
  5
356
  8
025
 10
333.347199
 20
145.800814
 30
0.0
 11
333.579303
 21
146.189881
 31
0.0
  0
LINE
  5
357
  8
025
 10
334.236592
 20
143.908187
 30
0.0
 11
334.544622
 21
143.820333
 31
0.0
  0
LINE
  5
358
  8
025
 10
334.719784
 20
143.593498
 30
0.0
 11
334.288109
 21
143.534511
 31
0.0
  0
LINE
  5
359
  8
025
 10
334.288109
 20
143.534511
 30
0.0
 11
333.841248
 21
143.570909
 31
0.0
  0
LINE
  5
35A
  8
025
 10
333.711642
 20
143.511591
 30
0.0
 11
333.518032
 21
143.754148
 31
0.0
  0
LINE
  5
35B
  8
025
 10
333.841248
 20
143.570909
 30
0.0
 11
333.518032
 21
143.754148
 31
0.0
  0
LINE
  5
35C
  8
025
 10
333.518032
 20
143.754148
 30
0.0
 11
333.414041
 21
143.839769
 31
0.0
  0
LINE
  5
35D
  8
025
 10
334.236592
 20
143.908187
 30
0.0
 11
334.544622
 21
143.820333
 31
0.0
  0
LINE
  5
35E
  8
025
 10
333.414041
 20
143.839769
 30
0.0
 11
333.273135
 21
143.955784
 31
0.0
  0
LINE
  5
35F
  8
025
 10
333.711642
 20
143.511591
 30
0.0
 11
333.37324
 21
143.790214
 31
0.0
  0
LINE
  5
360
  8
025
 10
333.711642
 20
143.511591
 30
0.0
 11
333.37324
 21
143.790214
 31
0.0
  0
LINE
  5
361
  8
025
 10
334.067391
 20
144.047499
 30
0.0
 11
334.236592
 21
143.908187
 31
0.0
  0
LINE
  5
362
  8
025
 10
333.37324
 20
143.790214
 30
0.0
 11
333.17367
 21
144.120295
 31
0.0
  0
LINE
  5
363
  8
025
 10
334.067391
 20
144.047499
 30
0.0
 11
334.236592
 21
143.908187
 31
0.0
  0
LINE
  5
364
  8
025
 10
333.37324
 20
143.790214
 30
0.0
 11
333.17367
 21
144.120295
 31
0.0
  0
LINE
  5
365
  8
05
 10
322.628982
 20
169.555397
 30
0.0
 11
313.979698
 21
170.641898
 31
0.0
  0
LINE
  5
366
  8
035
 10
312.184458
 20
181.918575
 30
0.0
 11
313.979698
 21
170.641898
 31
0.0
  0
LINE
  5
367
  8
05
 10
304.944191
 20
168.982649
 30
0.0
 11
310.825708
 21
174.593268
 31
0.0
  0
LINE
  5
368
  8
035
 10
309.381056
 20
189.309085
 30
0.0
 11
311.4132
 21
186.763183
 31
0.0
  0
POLYLINE
  5
369
  8
05
 66
     1
 10
0.0
 20
0.0
 30
0.0
  0
VERTEX
  5
710
  8
05
 10
311.252812
 20
183.146113
 30
0.0
  0
VERTEX
  5
711
  8
05
 10
311.096556
 20
183.908372
 30
0.0
  0
VERTEX
  5
712
  8
05
 10
310.862179
 20
184.73558
 30
0.0
  0
VERTEX
  5
713
  8
05
 10
310.563302
 20
185.579662
 30
0.0
  0
VERTEX
  5
714
  8
05
 10
310.217295
 20
186.391563
 30
0.0
  0
VERTEX
  5
715
  8
05
 10
309.844267
 20
187.124098
 30
0.0
  0
VERTEX
  5
716
  8
05
 10
309.465896
 20
187.734695
 30
0.0
  0
VERTEX
  5
717
  8
05
 10
309.104173
 20
188.187868
 30
0.0
  0
VERTEX
  5
718
  8
05
 10
308.780118
 20
188.45728
 30
0.0
  0
VERTEX
  5
719
  8
05
 10
308.743908
 20
188.476748
 30
0.0
  0
SEQEND
  5
71A
  8
05
  0
POLYLINE
  5
36A
  8
025
 66
     1
 10
0.0
 20
0.0
 30
0.0
  0
VERTEX
  5
71B
  8
025
 10
309.194785
 20
186.783754
 30
0.0
  0
VERTEX
  5
71C
  8
025
 10
309.334272
 20
186.114916
 30
0.0
  0
VERTEX
  5
71D
  8
025
 10
309.546716
 20
185.388348
 30
0.0
  0
VERTEX
  5
71E
  8
025
 10
309.817641
 20
184.653562
 30
0.0
  0
VERTEX
  5
71F
  8
025
 10
310.128582
 20
183.960634
 30
0.0
  0
VERTEX
  5
720
  8
025
 10
310.458349
 20
183.356785
 30
0.0
  0
VERTEX
  5
721
  8
025
 10
310.784471
 20
182.883167
 30
0.0
  0
VERTEX
  5
722
  8
025
 10
311.084721
 20
182.572057
 30
0.0
  0
VERTEX
  5
723
  8
025
 10
311.32015
 20
182.453931
 30
0.0
  0
SEQEND
  5
724
  8
025
  0
POLYLINE
  5
36B
  8
025
 66
     1
 10
0.0
 20
0.0
 30
0.0
  0
VERTEX
  5
725
  8
025
 10
308.25187
 20
186.905742
 30
0.0
  0
VERTEX
  5
726
  8
025
 10
308.408126
 20
186.143482
 30
0.0
  0
VERTEX
  5
727
  8
025
 10
308.642503
 20
185.316274
 30
0.0
  0
VERTEX
  5
728
  8
025
 10
308.94138
 20
184.472192
 30
0.0
  0
VERTEX
  5
729
  8
025
 10
309.287387
 20
183.660292
 30
0.0
  0
VERTEX
  5
72A
  8
025
 10
309.660415
 20
182.927757
 30
0.0
  0
VERTEX
  5
72B
  8
025
 10
310.038786
 20
182.31716
 30
0.0
  0
VERTEX
  5
72C
  8
025
 10
310.400509
 20
181.863987
 30
0.0
  0
VERTEX
  5
72D
  8
025
 10
310.724564
 20
181.594574
 30
0.0
  0
VERTEX
  5
72E
  8
025
 10
310.992116
 20
181.524579
 30
0.0
  0
VERTEX
  5
72F
  8
025
 10
311.187617
 20
181.65807
 30
0.0
  0
VERTEX
  5
730
  8
025
 10
311.236347
 20
181.751196
 30
0.0
  0
SEQEND
  5
731
  8
025
  0
POLYLINE
  5
36C
  8
05
 66
     1
 10
0.0
 20
0.0
 30
0.0
  0
VERTEX
  5
732
  8
05
 10
309.263722
 20
187.987982
 30
0.0
  0
VERTEX
  5
733
  8
05
 10
309.167088
 20
187.772955
 30
0.0
  0
VERTEX
  5
734
  8
05
 10
309.137762
 20
187.34928
 30
0.0
  0
VERTEX
  5
735
  8
05
 10
309.194785
 20
186.783754
 30
0.0
  0
SEQEND
  5
736
  8
05
  0
POLYLINE
  5
36D
  8
025
 66
     1
 10
0.0
 20
0.0
 30
0.0
  0
VERTEX
  5
737
  8
025
 10
308.743908
 20
188.476748
 30
0.0
  0
VERTEX
  5
738
  8
025
 10
308.512566
 20
188.527275
 30
0.0
  0
VERTEX
  5
739
  8
025
 10
308.317065
 20
188.393785
 30
0.0
  0
VERTEX
  5
73A
  8
025
 10
308.204977
 20
188.064566
 30
0.0
  0
VERTEX
  5
73B
  8
025
 10
308.182816
 20
187.558753
 30
0.0
  0
VERTEX
  5
73C
  8
025
 10
308.25187
 20
186.905742
 30
0.0
  0
SEQEND
  5
73D
  8
025
  0
LINE
  5
36E
  8
035
 10
311.4132
 20
186.763183
 30
0.0
 11
311.930703
 21
183.512521
 31
0.0
  0
POLYLINE
  5
36F
  8
05
 66
     1
 10
0.0
 20
0.0
 30
0.0
  0
VERTEX
  5
73E
  8
05
 10
311.236347
 20
181.751196
 30
0.0
  0
VERTEX
  5
73F
  8
05
 10
311.299705
 20
181.987288
 30
0.0
  0
VERTEX
  5
740
  8
05
 10
311.321866
 20
182.493101
 30
0.0
  0
VERTEX
  5
741
  8
05
 10
311.252812
 20
183.146113
 30
0.0
  0
SEQEND
  5
742
  8
05
  0
LINE
  5
370
  8
035
 10
313.48313
 20
187.530395
 30
0.0
 11
311.4132
 21
186.763183
 31
0.0
  0
LINE
  5
371
  8
035
 10
303.849622
 20
198.418363
 30
0.0
 11
302.507178
 21
197.920791
 31
0.0
  0
LINE
  5
372
  8
035
 10
302.507178
 20
197.920791
 30
0.0
 11
303.087249
 21
194.277111
 31
0.0
  0
LINE
  5
373
  8
05
 10
320.89421
 20
209.136318
 30
0.0
 11
299.796649
 21
201.316585
 31
0.0
  0
LINE
  5
374
  8
05
 10
281.432747
 20
190.109631
 30
0.0
 11
278.722219
 21
193.505425
 31
0.0
  0
LINE
  5
375
  8
035
 10
299.796649
 20
201.316585
 30
0.0
 11
302.507178
 21
197.920791
 31
0.0
  0
LINE
  5
376
  8
05
 10
326.702485
 20
201.859617
 30
0.0
 11
305.604924
 21
194.039884
 31
0.0
  0
LINE
  5
377
  8
035
 10
323.604738
 20
205.740524
 30
0.0
 11
308.83784
 21
200.267228
 31
0.0
  0
LINE
  5
378
  8
035
 10
303.087249
 20
194.277111
 30
0.0
 11
328.339072
 21
203.636606
 31
0.0
  0
LINE
  5
379
  8
035
 10
305.604924
 20
194.039884
 30
0.0
 11
308.202329
 21
190.785814
 31
0.0
  0
LINE
  5
37A
  8
05
 10
305.604924
 20
194.039884
 30
0.0
 11
306.184996
 21
190.396204
 31
0.0
  0
LINE
  5
37B
  8
035
 10
303.087249
 20
194.277111
 30
0.0
 11
306.184996
 21
190.396204
 31
0.0
  0
LINE
  5
37C
  8
035
 10
307.804292
 20
199.884147
 30
0.0
 11
305.855439
 21
199.161812
 31
0.0
  0
LINE
  5
37D
  8
05
 10
326.702485
 20
201.859617
 30
0.0
 11
331.436818
 21
199.755699
 31
0.0
  0
LINE
  5
37E
  8
035
 10
326.702485
 20
201.859617
 30
0.0
 11
332.51076
 21
194.582916
 31
0.0
  0
LINE
  5
37F
  8
05
 10
328.339072
 20
203.636606
 30
0.0
 11
331.436818
 21
199.755699
 31
0.0
  0
LINE
  5
380
  8
05
 10
320.89421
 20
209.136318
 30
0.0
 11
328.330335
 21
205.831735
 31
0.0
  0
LINE
  5
381
  8
035
 10
323.604738
 20
205.740524
 30
0.0
 11
328.339072
 21
203.636606
 31
0.0
  0
LINE
  5
382
  8
035
 10
320.89421
 20
209.136318
 30
0.0
 11
323.604738
 21
205.740524
 31
0.0
  0
POLYLINE
  5
383
  8
025
 66
     1
 10
0.0
 20
0.0
 30
0.0
  0
VERTEX
  5
743
  8
025
 10
377.220506
 20
194.670649
 30
0.0
  0
VERTEX
  5
744
  8
025
 10
377.267088
 20
194.549362
 30
0.0
  0
VERTEX
  5
745
  8
025
 10
377.831104
 20
192.882395
 30
0.0
  0
VERTEX
  5
746
  8
025
 10
378.311255
 20
191.240255
 30
0.0
  0
VERTEX
  5
747
  8
025
 10
378.69572
 20
189.663376
 30
0.0
  0
VERTEX
  5
748
  8
025
 10
378.97503
 20
188.190588
 30
0.0
  0
SEQEND
  5
749
  8
025
  0
POLYLINE
  5
384
  8
035
 66
     1
 10
0.0
 20
0.0
 30
0.0
  0
VERTEX
  5
74A
  8
035
 10
373.728318
 20
194.706364
 30
0.0
  0
VERTEX
  5
74B
  8
035
 10
374.222079
 20
193.420741
 30
0.0
  0
VERTEX
  5
74C
  8
035
 10
374.786095
 20
191.753774
 30
0.0
  0
VERTEX
  5
74D
  8
035
 10
375.266247
 20
190.111633
 30
0.0
  0
VERTEX
  5
74E
  8
035
 10
375.650711
 20
188.534755
 30
0.0
  0
VERTEX
  5
74F
  8
035
 10
375.930022
 20
187.061967
 30
0.0
  0
SEQEND
  5
750
  8
035
  0
POLYLINE
  5
385
  8
035
 66
     1
 10
0.0
 20
0.0
 30
0.0
  0
VERTEX
  5
751
  8
035
 10
363.475706
 20
190.995749
 30
0.0
  0
VERTEX
  5
752
  8
035
 10
363.99955
 20
189.631798
 30
0.0
  0
VERTEX
  5
753
  8
035
 10
364.563566
 20
187.964831
 30
0.0
  0
VERTEX
  5
754
  8
035
 10
365.043717
 20
186.32269
 30
0.0
  0
VERTEX
  5
755
  8
035
 10
365.428182
 20
184.745812
 30
0.0
  0
VERTEX
  5
756
  8
035
 10
365.707493
 20
183.273024
 30
0.0
  0
SEQEND
  5
757
  8
035
  0
LINE
  5
386
  8
05
 10
388.976552
 20
187.364818
 30
0.0
 11
392.172452
 21
190.958577
 31
0.0
  0
POLYLINE
  5
387
  8
025
 66
     1
 10
0.0
 20
0.0
 30
0.0
  0
VERTEX
  5
758
  8
025
 10
388.976552
 20
187.364818
 30
0.0
  0
VERTEX
  5
759
  8
025
 10
389.244884
 20
187.826629
 30
0.0
  0
VERTEX
  5
75A
  8
025
 10
389.426942
 20
188.558903
 30
0.0
  0
VERTEX
  5
75B
  8
025
 10
389.493223
 20
189.516463
 30
0.0
  0
VERTEX
  5
75C
  8
025
 10
389.442095
 20
190.675732
 30
0.0
  0
VERTEX
  5
75D
  8
025
 10
389.274816
 20
192.008166
 30
0.0
  0
SEQEND
  5
75E
  8
025
  0
POLYLINE
  5
388
  8
025
 66
     1
 10
0.0
 20
0.0
 30
0.0
  0
VERTEX
  5
75F
  8
025
 10
370.062444
 20
203.458863
 30
0.0
  0
VERTEX
  5
760
  8
025
 10
370.147209
 20
203.484261
 30
0.0
  0
VERTEX
  5
761
  8
025
 10
370.604394
 20
203.45868
 30
0.0
  0
VERTEX
  5
762
  8
025
 10
371.137987
 20
203.190952
 30
0.0
  0
VERTEX
  5
763
  8
025
 10
371.734849
 20
202.68767
 30
0.0
  0
VERTEX
  5
764
  8
025
 10
372.380283
 20
201.961226
 30
0.0
  0
VERTEX
  5
765
  8
025
 10
373.058397
 20
201.029507
 30
0.0
  0
VERTEX
  5
766
  8
025
 10
373.752493
 20
199.915456
 30
0.0
  0
VERTEX
  5
767
  8
025
 10
374.445481
 20
198.646504
 30
0.0
  0
VERTEX
  5
768
  8
025
 10
375.120296
 20
197.253897
 30
0.0
  0
VERTEX
  5
769
  8
025
 10
375.760322
 20
195.771926
 30
0.0
  0
VERTEX
  5
76A
  8
025
 10
376.3498
 20
194.237082
 30
0.0
  0
VERTEX
  5
76B
  8
025
 10
376.874215
 20
192.687157
 30
0.0
  0
VERTEX
  5
76C
  8
025
 10
377.320654
 20
191.160315
 30
0.0
  0
VERTEX
  5
76D
  8
025
 10
377.678124
 20
189.694154
 30
0.0
  0
VERTEX
  5
76E
  8
025
 10
377.937823
 20
188.324775
 30
0.0
  0
SEQEND
  5
76F
  8
025
  0
POLYLINE
  5
389
  8
025
 66
     1
 10
0.0
 20
0.0
 30
0.0
  0
VERTEX
  5
770
  8
025
 10
358.838444
 20
193.232589
 30
0.0
  0
VERTEX
  5
771
  8
025
 10
358.998717
 20
193.249814
 30
0.0
  0
VERTEX
  5
772
  8
025
 10
359.265288
 20
193.150285
 30
0.0
  0
VERTEX
  5
773
  8
025
 10
359.568763
 20
192.911812
 30
0.0
  0
VERTEX
  5
774
  8
025
 10
359.899583
 20
192.544358
 30
0.0
  0
VERTEX
  5
775
  8
025
 10
360.249262
 20
192.05826
 30
0.0
  0
VERTEX
  5
776
  8
025
 10
360.609179
 20
191.464616
 30
0.0
  0
VERTEX
  5
777
  8
025
 10
360.968868
 20
190.778635
 30
0.0
  0
VERTEX
  5
778
  8
025
 10
361.306999
 20
190.04259
 30
0.0
  0
VERTEX
  5
779
  8
025
 10
361.60143
 20
189.316315
 30
0.0
  0
VERTEX
  5
77A
  8
025
 10
361.844374
 20
188.639546
 30
0.0
  0
VERTEX
  5
77B
  8
025
 10
362.038426
 20
188.028445
 30
0.0
  0
VERTEX
  5
77C
  8
025
 10
362.188736
 20
187.490314
 30
0.0
  0
VERTEX
  5
77D
  8
025
 10
362.301614
 20
187.026299
 30
0.0
  0
VERTEX
  5
77E
  8
025
 10
362.383679
 20
186.633309
 30
0.0
  0
VERTEX
  5
77F
  8
025
 10
362.441267
 20
186.305692
 30
0.0
  0
SEQEND
  5
780
  8
025
  0
POLYLINE
  5
38A
  8
025
 66
     1
 10
0.0
 20
0.0
 30
0.0
  0
VERTEX
  5
781
  8
025
 10
358.848126
 20
193.351377
 30
0.0
  0
VERTEX
  5
782
  8
025
 10
358.892813
 20
193.638003
 30
0.0
  0
VERTEX
  5
783
  8
025
 10
359.002495
 20
193.929232
 30
0.0
  0
VERTEX
  5
784
  8
025
 10
359.178407
 20
194.11984
 30
0.0
  0
VERTEX
  5
785
  8
025
 10
359.425121
 20
194.169459
 30
0.0
  0
VERTEX
  5
786
  8
025
 10
359.731692
 20
194.055054
 30
0.0
  0
VERTEX
  5
787
  8
025
 10
360.080726
 20
193.780815
 30
0.0
  0
VERTEX
  5
788
  8
025
 10
360.461222
 20
193.358201
 30
0.0
  0
VERTEX
  5
789
  8
025
 10
360.863416
 20
192.799099
 30
0.0
  0
VERTEX
  5
78A
  8
025
 10
361.277383
 20
192.116286
 30
0.0
  0
VERTEX
  5
78B
  8
025
 10
361.691076
 20
191.327279
 30
0.0
  0
VERTEX
  5
78C
  8
025
 10
362.079942
 20
190.480746
 30
0.0
  0
VERTEX
  5
78D
  8
025
 10
362.418523
 20
189.645517
 30
0.0
  0
VERTEX
  5
78E
  8
025
 10
362.697884
 20
188.867255
 30
0.0
  0
VERTEX
  5
78F
  8
025
 10
362.921018
 20
188.164523
 30
0.0
  0
VERTEX
  5
790
  8
025
 10
363.093852
 20
187.545712
 30
0.0
  0
VERTEX
  5
791
  8
025
 10
363.223642
 20
187.012135
 30
0.0
  0
VERTEX
  5
792
  8
025
 10
363.318001
 20
186.560234
 30
0.0
  0
VERTEX
  5
793
  8
025
 10
363.384182
 20
186.183704
 30
0.0
  0
SEQEND
  5
794
  8
025
  0
LINE
  5
38B
  8
05
 10
349.701948
 20
189.846185
 30
0.0
 11
358.836974
 21
193.232048
 31
0.0
  0
POLYLINE
  5
38C
  8
025
 66
     1
 10
0.0
 20
0.0
 30
0.0
  0
VERTEX
  5
795
  8
025
 10
369.254134
 20
202.757642
 30
0.0
  0
VERTEX
  5
796
  8
025
 10
369.528482
 20
202.594395
 30
0.0
  0
VERTEX
  5
797
  8
025
 10
370.125344
 20
202.091113
 30
0.0
  0
VERTEX
  5
798
  8
025
 10
370.770779
 20
201.364669
 30
0.0
  0
VERTEX
  5
799
  8
025
 10
371.448893
 20
200.43295
 30
0.0
  0
VERTEX
  5
79A
  8
025
 10
372.142989
 20
199.318899
 30
0.0
  0
VERTEX
  5
79B
  8
025
 10
372.835976
 20
198.049947
 30
0.0
  0
VERTEX
  5
79C
  8
025
 10
373.510791
 20
196.65734
 30
0.0
  0
VERTEX
  5
79D
  8
025
 10
374.150817
 20
195.175369
 30
0.0
  0
VERTEX
  5
79E
  8
025
 10
374.740295
 20
193.640525
 30
0.0
  0
VERTEX
  5
79F
  8
025
 10
375.26471
 20
192.0906
 30
0.0
  0
VERTEX
  5
7A0
  8
025
 10
375.711149
 20
190.563759
 30
0.0
  0
VERTEX
  5
7A1
  8
025
 10
376.068619
 20
189.097597
 30
0.0
  0
VERTEX
  5
7A2
  8
025
 10
376.328319
 20
187.728218
 30
0.0
  0
SEQEND
  5
7A3
  8
025
  0
LINE
  5
38D
  8
05
 10
347.387594
 20
144.540029
 30
0.0
 11
339.946886
 21
191.278333
 31
0.0
  0
LINE
  5
38E
  8
05
 10
365.077949
 20
178.396251
 30
0.0
 11
375.300479
 21
182.185194
 31
0.0
  0
LINE
  5
38F
  8
025
 10
338.423175
 20
148.086257
 30
0.0
 11
339.039236
 21
147.910547
 31
0.0
  0
LINE
  5
390
  8
025
 10
338.913427
 20
146.85379
 30
0.0
 11
338.698671
 21
147.279255
 31
0.0
  0
LINE
  5
391
  8
025
 10
338.679158
 20
145.554808
 30
0.0
 11
338.911263
 21
145.943875
 31
0.0
  0
LINE
  5
392
  8
025
 10
338.909098
 20
145.033959
 30
0.0
 11
338.368963
 21
144.732747
 31
0.0
  0
LINE
  5
393
  8
025
 10
338.909098
 20
145.033959
 30
0.0
 11
338.715489
 21
145.276516
 31
0.0
  0
LINE
  5
394
  8
025
 10
338.837531
 20
145.421453
 30
0.0
 11
338.715489
 21
145.276516
 31
0.0
  0
LINE
  5
395
  8
025
 10
338.679158
 20
145.554808
 30
0.0
 11
338.911263
 21
145.943875
 31
0.0
  0
LINE
  5
396
  8
025
 10
338.913427
 20
146.85379
 30
0.0
 11
338.698671
 21
147.279255
 31
0.0
  0
LINE
  5
397
  8
025
 10
338.423175
 20
148.086257
 30
0.0
 11
339.039236
 21
147.910547
 31
0.0
  0
LINE
  5
398
  8
025
 10
338.909098
 20
145.033959
 30
0.0
 11
338.368963
 21
144.732747
 31
0.0
  0
LINE
  5
399
  8
025
 10
338.698671
 20
147.279255
 30
0.0
 11
338.505062
 21
147.521811
 31
0.0
  0
LINE
  5
39A
  8
025
 10
337.852669
 20
147.975813
 30
0.0
 11
338.423175
 21
148.086257
 31
0.0
  0
LINE
  5
39B
  8
025
 10
337.928595
 20
147.498892
 30
0.0
 11
337.852669
 21
147.975813
 31
0.0
  0
LINE
  5
39C
  8
025
 10
338.293037
 20
145.209669
 30
0.0
 11
338.679158
 21
145.554808
 31
0.0
  0
LINE
  5
39D
  8
025
 10
338.015377
 20
145.106755
 30
0.0
 11
338.293037
 21
145.209669
 31
0.0
  0
LINE
  5
39E
  8
025
 10
337.429687
 20
145.091696
 30
0.0
 11
338.015377
 21
145.106755
 31
0.0
  0
LINE
  5
39F
  8
025
 10
337.121656
 20
145.179551
 30
0.0
 11
337.429687
 21
145.091696
 31
0.0
  0
LINE
  5
3A0
  8
025
 10
338.375455
 20
147.462494
 30
0.0
 11
338.181846
 21
147.705051
 31
0.0
  0
LINE
  5
3A1
  8
025
 10
337.520797
 20
144.51939
 30
0.0
 11
337.073936
 21
144.555788
 31
0.0
  0
LINE
  5
3A2
  8
025
 10
338.091303
 20
144.629834
 30
0.0
 11
337.520797
 21
144.51939
 31
0.0
  0
LINE
  5
3A3
  8
025
 10
338.368963
 20
144.732747
 30
0.0
 11
338.091303
 21
144.629834
 31
0.0
  0
LINE
  5
3A4
  8
025
 10
338.375455
 20
147.462494
 30
0.0
 11
337.928595
 21
147.498892
 31
0.0
  0
LINE
  5
3A5
  8
025
 10
338.698671
 20
147.279255
 30
0.0
 11
338.375455
 21
147.462494
 31
0.0
  0
LINE
  5
3A6
  8
025
 10
337.073936
 20
144.555788
 30
0.0
 11
336.880327
 21
144.798345
 31
0.0
  0
LINE
  5
3A7
  8
025
 10
336.752885
 20
145.648943
 30
0.0
 11
337.121656
 21
145.179551
 31
0.0
  0
LINE
  5
3A8
  8
025
 10
336.692145
 20
146.03048
 30
0.0
 11
336.752885
 21
145.648943
 31
0.0
  0
LINE
  5
3A9
  8
025
 10
337.520797
 20
144.51939
 30
0.0
 11
337.327188
 21
144.761947
 31
0.0
  0
LINE
  5
3AA
  8
025
 10
338.091303
 20
144.629834
 30
0.0
 11
337.897694
 21
144.872391
 31
0.0
  0
LINE
  5
3AB
  8
025
 10
338.368963
 20
144.732747
 30
0.0
 11
338.175354
 21
144.975304
 31
0.0
  0
LINE
  5
3AC
  8
025
 10
338.505062
 20
147.521811
 30
0.0
 11
338.181846
 21
147.705051
 31
0.0
  0
LINE
  5
3AD
  8
025
 10
338.181846
 20
147.705051
 30
0.0
 11
337.892016
 21
147.728658
 31
0.0
  0
LINE
  5
3AE
  8
025
 10
338.715489
 20
145.276516
 30
0.0
 11
338.364814
 21
145.080958
 31
0.0
  0
LINE
  5
3AF
  8
025
 10
338.364814
 20
145.080958
 30
0.0
 11
338.175354
 21
144.975304
 31
0.0
  0
LINE
  5
3B0
  8
025
 10
338.175354
 20
144.975304
 30
0.0
 11
337.897694
 21
144.872391
 31
0.0
  0
LINE
  5
3B1
  8
025
 10
337.897694
 20
144.872391
 30
0.0
 11
337.327188
 21
144.761947
 31
0.0
  0
LINE
  5
3B2
  8
025
 10
337.327188
 20
144.761947
 30
0.0
 11
336.880327
 21
144.798345
 31
0.0
  0
LINE
  5
3B3
  8
025
 10
336.692145
 20
146.03048
 30
0.0
 11
336.752885
 21
145.648943
 31
0.0
  0
LINE
  5
3B4
  8
025
 10
336.752885
 20
145.648943
 30
0.0
 11
337.121656
 21
145.179551
 31
0.0
  0
LINE
  5
3B5
  8
025
 10
337.121656
 20
145.179551
 30
0.0
 11
337.429687
 21
145.091696
 31
0.0
  0
LINE
  5
3B6
  8
025
 10
337.429687
 20
145.091696
 30
0.0
 11
338.015377
 21
145.106755
 31
0.0
  0
LINE
  5
3B7
  8
025
 10
338.015377
 20
145.106755
 30
0.0
 11
338.293037
 21
145.209669
 31
0.0
  0
LINE
  5
3B8
  8
025
 10
338.293037
 20
145.209669
 30
0.0
 11
338.679158
 21
145.554808
 31
0.0
  0
LINE
  5
3B9
  8
025
 10
338.698671
 20
147.279255
 30
0.0
 11
338.375455
 21
147.462494
 31
0.0
  0
LINE
  5
3BA
  8
025
 10
338.375455
 20
147.462494
 30
0.0
 11
337.928595
 21
147.498892
 31
0.0
  0
LINE
  5
3BB
  8
025
 10
337.928595
 20
147.498892
 30
0.0
 11
337.852669
 21
147.975813
 31
0.0
  0
LINE
  5
3BC
  8
025
 10
337.852669
 20
147.975813
 30
0.0
 11
338.423175
 21
148.086257
 31
0.0
  0
LINE
  5
3BD
  8
025
 10
338.368963
 20
144.732747
 30
0.0
 11
338.091303
 21
144.629834
 31
0.0
  0
LINE
  5
3BE
  8
025
 10
338.091303
 20
144.629834
 30
0.0
 11
337.520797
 21
144.51939
 31
0.0
  0
LINE
  5
3BF
  8
025
 10
337.520797
 20
144.51939
 30
0.0
 11
337.073936
 21
144.555788
 31
0.0
  0
LINE
  5
3C0
  8
025
 10
336.197563
 20
145.443115
 30
0.0
 11
336.136823
 21
145.824652
 31
0.0
  0
LINE
  5
3C1
  8
025
 10
336.149845
 20
144.819352
 30
0.0
 11
336.197563
 21
145.443115
 31
0.0
  0
LINE
  5
3C2
  8
025
 10
335.917739
 20
144.430286
 30
0.0
 11
336.149845
 21
144.819352
 31
0.0
  0
LINE
  5
3C3
  8
025
 10
336.596705
 20
144.782955
 30
0.0
 11
336.39497
 21
144.203119
 31
0.0
  0
LINE
  5
3C4
  8
025
 10
336.39497
 20
144.203119
 30
0.0
 11
336.201361
 21
144.445676
 31
0.0
  0
LINE
  5
3C5
  8
025
 10
336.596705
 20
144.782955
 30
0.0
 11
336.403096
 21
145.025511
 31
0.0
  0
LINE
  5
3C6
  8
025
 10
336.403096
 20
145.025511
 30
0.0
 11
336.311769
 21
144.763016
 31
0.0
  0
LINE
  5
3C7
  8
025
 10
336.311769
 20
144.763016
 30
0.0
 11
336.201361
 21
144.445676
 31
0.0
  0
LINE
  5
3C8
  8
025
 10
336.201361
 20
144.445676
 30
0.0
 11
336.036058
 21
144.297918
 31
0.0
  0
LINE
  5
3C9
  8
025
 10
336.036058
 20
144.297918
 30
0.0
 11
335.815241
 21
144.100537
 31
0.0
  0
LINE
  5
3CA
  8
025
 10
336.545786
 20
145.976233
 30
0.0
 11
336.559276
 21
145.8915
 31
0.0
  0
LINE
  5
3CB
  8
025
 10
335.917739
 20
144.430286
 30
0.0
 11
336.149845
 21
144.819352
 31
0.0
  0
LINE
  5
3CC
  8
025
 10
336.149845
 20
144.819352
 30
0.0
 11
336.197563
 21
145.443115
 31
0.0
  0
LINE
  5
3CD
  8
025
 10
336.197563
 20
145.443115
 30
0.0
 11
336.136823
 21
145.824652
 31
0.0
  0
LINE
  5
3CE
  8
025
 10
336.596705
 20
144.782955
 30
0.0
 11
336.39497
 21
144.203119
 31
0.0
  0
LINE
  5
3CF
  8
025
 10
334.837468
 20
143.827862
 30
0.0
 11
335.392789
 21
144.03369
 31
0.0
  0
LINE
  5
3D0
  8
025
 10
335.464565
 20
143.904979
 30
0.0
 11
335.275105
 21
143.799325
 31
0.0
  0
LINE
  5
3D1
  8
025
 10
335.275105
 20
143.799325
 30
0.0
 11
334.899628
 21
143.660156
 31
0.0
  0
LINE
  5
3D2
  8
025
 10
336.00885
 20
143.85798
 30
0.0
 11
335.468714
 21
143.556768
 31
0.0
  0
LINE
  5
3D3
  8
025
 10
335.468714
 20
143.556768
 30
0.0
 11
335.275105
 21
143.799325
 31
0.0
  0
LINE
  5
3D4
  8
025
 10
334.837468
 20
143.827862
 30
0.0
 11
335.392789
 21
144.03369
 31
0.0
  0
LINE
  5
3D5
  8
025
 10
336.00885
 20
143.85798
 30
0.0
 11
335.468714
 21
143.556768
 31
0.0
  0
LINE
  5
3D6
  8
025
 10
335.392789
 20
144.03369
 30
0.0
 11
335.917739
 21
144.430286
 31
0.0
  0
LINE
  5
3D7
  8
025
 10
335.815241
 20
144.100537
 30
0.0
 11
335.464565
 21
143.904979
 31
0.0
  0
LINE
  5
3D8
  8
025
 10
336.39497
 20
144.203119
 30
0.0
 11
336.00885
 21
143.85798
 31
0.0
  0
LINE
  5
3D9
  8
025
 10
336.00885
 20
143.85798
 30
0.0
 11
335.815241
 21
144.100537
 31
0.0
  0
LINE
  5
3DA
  8
025
 10
335.392789
 20
144.03369
 30
0.0
 11
335.917739
 21
144.430286
 31
0.0
  0
LINE
  5
3DB
  8
025
 10
336.39497
 20
144.203119
 30
0.0
 11
336.00885
 21
143.85798
 31
0.0
  0
LINE
  5
3DC
  8
025
 10
336.136823
 20
145.824652
 30
0.0
 11
336.692145
 21
146.03048
 31
0.0
  0
LINE
  5
3DD
  8
025
 10
337.073936
 20
144.555788
 30
0.0
 11
336.596705
 21
144.782955
 31
0.0
  0
LINE
  5
3DE
  8
025
 10
336.752885
 20
145.648943
 30
0.0
 11
336.559276
 21
145.8915
 31
0.0
  0
LINE
  5
3DF
  8
025
 10
336.880327
 20
144.798345
 30
0.0
 11
336.403096
 21
145.025511
 31
0.0
  0
LINE
  5
3E0
  8
025
 10
336.136823
 20
145.824652
 30
0.0
 11
336.692145
 21
146.03048
 31
0.0
  0
LINE
  5
3E1
  8
025
 10
337.073936
 20
144.555788
 30
0.0
 11
336.596705
 21
144.782955
 31
0.0
  0
LINE
  5
3E2
  8
025
 10
339.039236
 20
147.910547
 30
0.0
 11
339.377637
 21
147.631924
 31
0.0
  0
LINE
  5
3E3
  8
025
 10
338.974168
 20
146.472253
 30
0.0
 11
338.913427
 21
146.85379
 31
0.0
  0
LINE
  5
3E4
  8
025
 10
338.911263
 20
145.943875
 30
0.0
 11
338.974168
 21
146.472253
 31
0.0
  0
LINE
  5
3E5
  8
025
 10
339.403679
 20
145.621324
 30
0.0
 11
338.909098
 21
145.033959
 31
0.0
  0
LINE
  5
3E6
  8
025
 10
339.620599
 20
146.105775
 30
0.0
 11
339.403679
 21
145.621324
 31
0.0
  0
LINE
  5
3E7
  8
025
 10
339.653133
 20
146.824922
 30
0.0
 11
339.620599
 21
146.105775
 31
0.0
  0
LINE
  5
3E8
  8
025
 10
339.622763
 20
147.015691
 30
0.0
 11
339.653133
 21
146.824922
 31
0.0
  0
LINE
  5
3E9
  8
025
 10
339.377637
 20
147.631924
 30
0.0
 11
339.622763
 21
147.015691
 31
0.0
  0
LINE
  5
3EA
  8
025
 10
339.403679
 20
145.621324
 30
0.0
 11
339.21007
 21
145.863881
 31
0.0
  0
LINE
  5
3EB
  8
025
 10
339.620599
 20
146.105775
 30
0.0
 11
339.42699
 21
146.348332
 31
0.0
  0
LINE
  5
3EC
  8
025
 10
339.653133
 20
146.824922
 30
0.0
 11
339.459524
 21
147.067479
 31
0.0
  0
LINE
  5
3ED
  8
025
 10
339.622763
 20
147.015691
 30
0.0
 11
339.429154
 21
147.258247
 31
0.0
  0
LINE
  5
3EE
  8
025
 10
339.233211
 20
147.750838
 30
0.0
 11
339.293781
 21
147.598567
 31
0.0
  0
LINE
  5
3EF
  8
025
 10
339.293781
 20
147.598567
 30
0.0
 11
339.429154
 21
147.258247
 31
0.0
  0
LINE
  5
3F0
  8
025
 10
339.429154
 20
147.258247
 30
0.0
 11
339.459524
 21
147.067479
 31
0.0
  0
LINE
  5
3F1
  8
025
 10
339.459524
 20
147.067479
 30
0.0
 11
339.42699
 21
146.348332
 31
0.0
  0
LINE
  5
3F2
  8
025
 10
339.42699
 20
146.348332
 30
0.0
 11
339.21007
 21
145.863881
 31
0.0
  0
LINE
  5
3F3
  8
025
 10
339.21007
 20
145.863881
 30
0.0
 11
338.837531
 21
145.421453
 31
0.0
  0
LINE
  5
3F4
  8
025
 10
338.911263
 20
145.943875
 30
0.0
 11
338.974168
 21
146.472253
 31
0.0
  0
LINE
  5
3F5
  8
025
 10
338.974168
 20
146.472253
 30
0.0
 11
338.913427
 21
146.85379
 31
0.0
  0
LINE
  5
3F6
  8
025
 10
339.039236
 20
147.910547
 30
0.0
 11
339.377637
 21
147.631924
 31
0.0
  0
LINE
  5
3F7
  8
025
 10
339.377637
 20
147.631924
 30
0.0
 11
339.622763
 21
147.015691
 31
0.0
  0
LINE
  5
3F8
  8
025
 10
339.622763
 20
147.015691
 30
0.0
 11
339.653133
 21
146.824922
 31
0.0
  0
LINE
  5
3F9
  8
025
 10
339.653133
 20
146.824922
 30
0.0
 11
339.620599
 21
146.105775
 31
0.0
  0
LINE
  5
3FA
  8
025
 10
339.620599
 20
146.105775
 30
0.0
 11
339.403679
 21
145.621324
 31
0.0
  0
LINE
  5
3FB
  8
025
 10
339.403679
 20
145.621324
 30
0.0
 11
338.909098
 21
145.033959
 31
0.0
  0
LINE
  5
3FC
  8
025
 10
339.158767
 20
144.116372
 30
0.0
 11
340.032761
 21
144.440315
 31
0.0
  0
LINE
  5
3FD
  8
025
 10
339.414536
 20
143.706109
 30
0.0
 11
339.220927
 21
143.948665
 31
0.0
  0
POLYLINE
  5
3FE
  8
05
 66
     1
 10
0.0
 20
0.0
 30
0.0
  0
VERTEX
  5
7A4
  8
05
 10
348.830577
 20
186.761491
 30
0.0
  0
VERTEX
  5
7A5
  8
05
 10
348.957023
 20
186.126793
 30
0.0
  0
VERTEX
  5
7A6
  8
05
 10
349.141405
 20
185.440327
 30
0.0
  0
VERTEX
  5
7A7
  8
05
 10
349.375665
 20
184.732095
 30
0.0
  0
VERTEX
  5
7A8
  8
05
 10
349.649564
 20
184.033052
 30
0.0
  0
VERTEX
  5
7A9
  8
05
 10
349.951132
 20
183.373747
 30
0.0
  0
VERTEX
  5
7AA
  8
05
 10
350.267189
 20
182.782997
 30
0.0
  0
VERTEX
  5
7AB
  8
05
 10
350.583921
 20
182.286619
 30
0.0
  0
VERTEX
  5
7AC
  8
05
 10
350.887486
 20
181.906307
 30
0.0
  0
VERTEX
  5
7AD
  8
05
 10
351.164617
 20
181.658684
 30
0.0
  0
VERTEX
  5
7AE
  8
05
 10
351.258642
 20
181.602835
 30
0.0
  0
SEQEND
  5
7AF
  8
05
  0
POLYLINE
  5
3FF
  8
025
 66
     1
 10
0.0
 20
0.0
 30
0.0
  0
VERTEX
  5
7B0
  8
025
 10
349.701948
 20
189.846185
 30
0.0
  0
VERTEX
  5
7B1
  8
025
 10
349.789475
 20
189.865334
 30
0.0
  0
VERTEX
  5
7B2
  8
025
 10
350.06807
 20
189.798563
 30
0.0
  0
VERTEX
  5
7B3
  8
025
 10
350.396703
 20
189.56066
 30
0.0
  0
VERTEX
  5
7B4
  8
025
 10
350.762744
 20
189.160767
 30
0.0
  0
VERTEX
  5
7B5
  8
025
 10
351.152128
 20
188.614251
 30
0.0
  0
VERTEX
  5
7B6
  8
025
 10
351.54989
 20
187.942115
 30
0.0
  0
VERTEX
  5
7B7
  8
025
 10
351.600528
 20
187.842107
 30
0.0
  0
SEQEND
  5
7B8
  8
025
  0
POLYLINE
  5
400
  8
025
 66
     1
 10
0.0
 20
0.0
 30
0.0
  0
VERTEX
  5
7B9
  8
025
 10
348.8463
 20
188.111323
 30
0.0
  0
VERTEX
  5
7BA
  8
025
 10
348.97248
 20
188.286112
 30
0.0
  0
VERTEX
  5
7BB
  8
025
 10
349.16209
 20
188.33006
 30
0.0
  0
VERTEX
  5
7BC
  8
025
 10
349.400675
 20
188.225948
 30
0.0
  0
VERTEX
  5
7BD
  8
025
 10
349.677805
 20
187.978325
 30
0.0
  0
VERTEX
  5
7BE
  8
025
 10
349.98137
 20
187.598014
 30
0.0
  0
VERTEX
  5
7BF
  8
025
 10
350.298103
 20
187.101636
 30
0.0
  0
VERTEX
  5
7C0
  8
025
 10
350.614159
 20
186.510885
 30
0.0
  0
VERTEX
  5
7C1
  8
025
 10
350.915727
 20
185.851581
 30
0.0
  0
VERTEX
  5
7C2
  8
025
 10
351.189626
 20
185.152537
 30
0.0
  0
VERTEX
  5
7C3
  8
025
 10
351.423886
 20
184.444306
 30
0.0
  0
VERTEX
  5
7C4
  8
025
 10
351.608269
 20
183.75784
 30
0.0
  0
VERTEX
  5
7C5
  8
025
 10
351.734715
 20
183.123141
 30
0.0
  0
SEQEND
  5
7C6
  8
025
  0
POLYLINE
  5
401
  8
05
 66
     1
 10
0.0
 20
0.0
 30
0.0
  0
VERTEX
  5
7C7
  8
05
 10
348.830577
 20
186.761491
 30
0.0
  0
VERTEX
  5
7C8
  8
05
 10
348.767593
 20
187.316683
 30
0.0
  0
VERTEX
  5
7C9
  8
05
 10
348.770825
 20
187.768104
 30
0.0
  0
VERTEX
  5
7CA
  8
05
 10
348.8463
 20
188.111323
 30
0.0
  0
SEQEND
  5
7CB
  8
05
  0
LINE
  5
402
  8
05
 10
348.846335
 20
188.111422
 30
0.0
 11
349.455067
 21
189.57087
 31
0.0
  0
POLYLINE
  5
403
  8
05
 66
     1
 10
0.0
 20
0.0
 30
0.0
  0
VERTEX
  5
7CC
  8
05
 10
349.455067
 20
189.57087
 30
0.0
  0
VERTEX
  5
7CD
  8
05
 10
349.571625
 20
189.758405
 30
0.0
  0
VERTEX
  5
7CE
  8
05
 10
349.701948
 20
189.846185
 30
0.0
  0
SEQEND
  5
7CF
  8
05
  0
LINE
  5
404
  8
05
 10
353.03835
 20
180.844606
 30
0.0
 11
362.173376
 21
184.23047
 31
0.0
  0
POLYLINE
  5
405
  8
025
 66
     1
 10
0.0
 20
0.0
 30
0.0
  0
VERTEX
  5
7D0
  8
025
 10
352.698877
 20
185.272816
 30
0.0
  0
VERTEX
  5
7D1
  8
025
 10
352.926421
 20
184.564543
 30
0.0
  0
VERTEX
  5
7D2
  8
025
 10
353.15054
 20
183.710777
 30
0.0
  0
VERTEX
  5
7D3
  8
025
 10
353.306241
 20
182.919828
 30
0.0
  0
SEQEND
  5
7D4
  8
025
  0
POLYLINE
  5
406
  8
025
 66
     1
 10
0.0
 20
0.0
 30
0.0
  0
VERTEX
  5
7D5
  8
025
 10
351.258642
 20
181.602835
 30
0.0
  0
VERTEX
  5
7D6
  8
025
 10
351.403201
 20
181.554572
 30
0.0
  0
VERTEX
  5
7D7
  8
025
 10
351.592812
 20
181.59852
 30
0.0
  0
VERTEX
  5
7D8
  8
025
 10
351.725162
 20
181.788608
 30
0.0
  0
VERTEX
  5
7D9
  8
025
 10
351.794467
 20
182.116528
 30
0.0
  0
VERTEX
  5
7DA
  8
025
 10
351.797698
 20
182.567949
 30
0.0
  0
VERTEX
  5
7DB
  8
025
 10
351.734715
 20
183.123141
 30
0.0
  0
SEQEND
  5
7DC
  8
025
  0
POLYLINE
  5
407
  8
05
 66
     1
 10
0.0
 20
0.0
 30
0.0
  0
VERTEX
  5
7DD
  8
05
 10
352.67167
 20
180.892507
 30
0.0
  0
VERTEX
  5
7DE
  8
05
 10
352.950822
 20
180.825457
 30
0.0
  0
VERTEX
  5
7DF
  8
05
 10
353.03835
 20
180.844606
 30
0.0
  0
SEQEND
  5
7E0
  8
05
  0
LINE
  5
408
  8
05
 10
351.258787
 20
181.60265
 30
0.0
 11
352.67167
 21
180.892507
 31
0.0
  0
POLYLINE
  5
409
  8
025
 66
     1
 10
0.0
 20
0.0
 30
0.0
  0
VERTEX
  5
7E1
  8
025
 10
353.03835
 20
180.844606
 30
0.0
  0
VERTEX
  5
7E2
  8
025
 10
353.168673
 20
180.932385
 30
0.0
  0
VERTEX
  5
7E3
  8
025
 10
353.317406
 20
181.208903
 30
0.0
  0
VERTEX
  5
7E4
  8
025
 10
353.391308
 20
181.644384
 30
0.0
  0
VERTEX
  5
7E5
  8
025
 10
353.387538
 20
182.222093
 30
0.0
  0
VERTEX
  5
7E6
  8
025
 10
353.306241
 20
182.919828
 30
0.0
  0
SEQEND
  5
7E7
  8
025
  0
POLYLINE
  5
40A
  8
025
 66
     1
 10
0.0
 20
0.0
 30
0.0
  0
VERTEX
  5
7E8
  8
025
 10
351.952526
 20
187.143299
 30
0.0
  0
VERTEX
  5
7E9
  8
025
 10
352.309673
 20
186.328136
 30
0.0
  0
VERTEX
  5
7EA
  8
025
 10
352.417241
 20
186.043776
 30
0.0
  0
SEQEND
  5
7EB
  8
025
  0
POLYLINE
  5
40B
  8
025
 66
     1
 10
0.0
 20
0.0
 30
0.0
  0
VERTEX
  5
7EC
  8
025
 10
363.384182
 20
186.183704
 30
0.0
  0
VERTEX
  5
7ED
  8
025
 10
363.434894
 20
185.825767
 30
0.0
  0
VERTEX
  5
7EE
  8
025
 10
363.473269
 20
185.443197
 30
0.0
  0
VERTEX
  5
7EF
  8
025
 10
363.490916
 20
185.049323
 30
0.0
  0
VERTEX
  5
7F0
  8
025
 10
363.477814
 20
184.662732
 30
0.0
  0
VERTEX
  5
7F1
  8
025
 10
363.422541
 20
184.30821
 30
0.0
  0
VERTEX
  5
7F2
  8
025
 10
363.312859
 20
184.016981
 30
0.0
  0
VERTEX
  5
7F3
  8
025
 10
363.136947
 20
183.826373
 30
0.0
  0
VERTEX
  5
7F4
  8
025
 10
362.890233
 20
183.776754
 30
0.0
  0
VERTEX
  5
7F5
  8
025
 10
362.583662
 20
183.891159
 30
0.0
  0
VERTEX
  5
7F6
  8
025
 10
362.234628
 20
184.165397
 30
0.0
  0
SEQEND
  5
7F7
  8
025
  0
POLYLINE
  5
40C
  8
05
 66
     1
 10
0.0
 20
0.0
 30
0.0
  0
VERTEX
  5
7F8
  8
05
 10
360.369474
 20
183.56186
 30
0.0
  0
VERTEX
  5
7F9
  8
05
 10
361.109246
 20
182.207238
 30
0.0
  0
VERTEX
  5
7FA
  8
05
 10
361.855757
 20
181.00906
 30
0.0
  0
VERTEX
  5
7FB
  8
05
 10
362.585078
 20
180.006983
 30
0.0
  0
VERTEX
  5
7FC
  8
05
 10
363.279252
 20
179.225681
 30
0.0
  0
VERTEX
  5
7FD
  8
05
 10
363.921186
 20
178.684394
 30
0.0
  0
VERTEX
  5
7FE
  8
05
 10
364.495074
 20
178.396449
 30
0.0
  0
VERTEX
  5
7FF
  8
05
 10
364.986783
 20
178.368936
 30
0.0
  0
VERTEX
  5
800
  8
05
 10
365.077756
 20
178.396254
 30
0.0
  0
SEQEND
  5
801
  8
05
  0
POLYLINE
  5
40D
  8
05
 66
     1
 10
0.0
 20
0.0
 30
0.0
  0
VERTEX
  5
802
  8
05
 10
365.077756
 20
178.396254
 30
0.0
  0
VERTEX
  5
803
  8
05
 10
365.384207
 20
178.602533
 30
0.0
  0
VERTEX
  5
804
  8
05
 10
365.67756
 20
179.091488
 30
0.0
  0
VERTEX
  5
805
  8
05
 10
365.859619
 20
179.823761
 30
0.0
  0
VERTEX
  5
806
  8
05
 10
365.9259
 20
180.781321
 30
0.0
  0
VERTEX
  5
807
  8
05
 10
365.874771
 20
181.940591
 30
0.0
  0
VERTEX
  5
808
  8
05
 10
365.707493
 20
183.273024
 30
0.0
  0
SEQEND
  5
809
  8
05
  0
POLYLINE
  5
40E
  8
05
 66
     1
 10
0.0
 20
0.0
 30
0.0
  0
VERTEX
  5
80A
  8
05
 10
362.171906
 20
184.229929
 30
0.0
  0
VERTEX
  5
80B
  8
05
 10
362.303213
 20
184.251626
 30
0.0
  0
VERTEX
  5
80C
  8
05
 10
362.3409
 20
184.246435
 30
0.0
  0
SEQEND
  5
80D
  8
05
  0
LINE
  5
40F
  8
05
 10
362.274324
 20
184.307913
 30
0.0
 11
362.226183
 21
184.255779
 31
0.0
  0
LINE
  5
410
  8
05
 10
362.226183
 20
184.255779
 30
0.0
 11
362.1744
 21
184.230851
 31
0.0
  0
LINE
  5
411
  8
05
 10
362.234628
 20
184.165397
 30
0.0
 11
362.174459
 21
184.232227
 31
0.0
  0
POLYLINE
  5
412
  8
025
 66
     1
 10
0.0
 20
0.0
 30
0.0
  0
VERTEX
  5
80E
  8
025
 10
362.441267
 20
186.305692
 30
0.0
  0
VERTEX
  5
80F
  8
025
 10
362.485387
 20
185.994257
 30
0.0
  0
VERTEX
  5
810
  8
025
 10
362.518748
 20
185.661582
 30
0.0
  0
VERTEX
  5
811
  8
025
 10
362.534081
 20
185.319083
 30
0.0
  0
VERTEX
  5
812
  8
025
 10
362.52267
 20
184.982926
 30
0.0
  0
VERTEX
  5
813
  8
025
 10
362.474584
 20
184.674669
 30
0.0
  0
VERTEX
  5
814
  8
025
 10
362.37918
 20
184.421465
 30
0.0
  0
VERTEX
  5
815
  8
025
 10
362.274324
 20
184.307913
 30
0.0
  0
SEQEND
  5
816
  8
025
  0
LINE
  5
413
  8
05
 10
378.345487
 20
183.313815
 30
0.0
 11
388.645273
 21
187.131393
 31
0.0
  0
POLYLINE
  5
414
  8
05
 66
     1
 10
0.0
 20
0.0
 30
0.0
  0
VERTEX
  5
817
  8
05
 10
376.282412
 20
183.79542
 30
0.0
  0
VERTEX
  5
818
  8
05
 10
376.469764
 20
184.521137
 30
0.0
  0
VERTEX
  5
819
  8
05
 10
376.531391
 20
185.411464
 30
0.0
  0
VERTEX
  5
81A
  8
05
 10
376.483853
 20
186.489338
 30
0.0
  0
VERTEX
  5
81B
  8
05
 10
376.328319
 20
187.728218
 30
0.0
  0
SEQEND
  5
81C
  8
05
  0
POLYLINE
  5
415
  8
05
 66
     1
 10
0.0
 20
0.0
 30
0.0
  0
VERTEX
  5
81D
  8
05
 10
375.880648
 20
182.832184
 30
0.0
  0
VERTEX
  5
81E
  8
05
 10
376.082148
 20
183.612704
 30
0.0
  0
VERTEX
  5
81F
  8
05
 10
376.148429
 20
184.570264
 30
0.0
  0
VERTEX
  5
820
  8
05
 10
376.097301
 20
185.729534
 30
0.0
  0
VERTEX
  5
821
  8
05
 10
375.930022
 20
187.061967
 30
0.0
  0
SEQEND
  5
822
  8
05
  0
POLYLINE
  5
416
  8
025
 66
     1
 10
0.0
 20
0.0
 30
0.0
  0
VERTEX
  5
823
  8
025
 10
378.345487
 20
183.313815
 30
0.0
  0
VERTEX
  5
824
  8
025
 10
378.651745
 20
183.520097
 30
0.0
  0
VERTEX
  5
825
  8
025
 10
378.945098
 20
184.009052
 30
0.0
  0
VERTEX
  5
826
  8
025
 10
379.127157
 20
184.741325
 30
0.0
  0
VERTEX
  5
827
  8
025
 10
379.193438
 20
185.698885
 30
0.0
  0
VERTEX
  5
828
  8
025
 10
379.142309
 20
186.858155
 30
0.0
  0
VERTEX
  5
829
  8
025
 10
378.97503
 20
188.190588
 30
0.0
  0
SEQEND
  5
82A
  8
025
  0
POLYLINE
  5
417
  8
025
 66
     1
 10
0.0
 20
0.0
 30
0.0
  0
VERTEX
  5
82B
  8
025
 10
377.352482
 20
183.790414
 30
0.0
  0
VERTEX
  5
82C
  8
025
 10
377.637237
 20
183.982211
 30
0.0
  0
VERTEX
  5
82D
  8
025
 10
377.909993
 20
184.436835
 30
0.0
  0
VERTEX
  5
82E
  8
025
 10
378.079268
 20
185.117694
 30
0.0
  0
VERTEX
  5
82F
  8
025
 10
378.140896
 20
186.008021
 30
0.0
  0
VERTEX
  5
830
  8
025
 10
378.093357
 20
187.085895
 30
0.0
  0
VERTEX
  5
831
  8
025
 10
377.937823
 20
188.324775
 30
0.0
  0
SEQEND
  5
832
  8
025
  0
LINE
  5
418
  8
05
 10
377.011198
 20
183.663918
 30
0.0
 11
377.48379
 21
183.426383
 31
0.0
  0
POLYLINE
  5
419
  8
05
 66
     1
 10
0.0
 20
0.0
 30
0.0
  0
VERTEX
  5
833
  8
05
 10
377.48379
 20
183.426383
 30
0.0
  0
VERTEX
  5
834
  8
05
 10
377.762612
 20
183.314013
 30
0.0
  0
VERTEX
  5
835
  8
05
 10
378.254321
 20
183.2865
 30
0.0
  0
VERTEX
  5
836
  8
05
 10
378.345487
 20
183.313815
 30
0.0
  0
SEQEND
  5
837
  8
05
  0
LINE
  5
41A
  8
05
 10
376.084262
 20
183.320352
 30
0.0
 11
377.352482
 21
183.790414
 31
0.0
  0
POLYLINE
  5
41B
  8
05
 66
     1
 10
0.0
 20
0.0
 30
0.0
  0
VERTEX
  5
838
  8
05
 10
375.300479
 20
182.185194
 30
0.0
  0
VERTEX
  5
839
  8
05
 10
375.606737
 20
182.391476
 30
0.0
  0
VERTEX
  5
83A
  8
05
 10
375.880648
 20
182.832184
 30
0.0
  0
SEQEND
  5
83B
  8
05
  0
LINE
  5
41C
  8
05
 10
375.880648
 20
182.832184
 30
0.0
 11
376.282412
 21
183.79542
 31
0.0
  0
LINE
  5
41D
  8
05
 10
388.645273
 20
187.131393
 30
0.0
 11
388.976552
 21
187.364818
 31
0.0
  0
LINE
  5
41E
  8
05
 10
357.237405
 20
199.549962
 30
0.0
 11
367.459934
 21
203.338904
 31
0.0
  0
POLYLINE
  5
41F
  8
035
 66
     1
 10
0.0
 20
0.0
 30
0.0
  0
VERTEX
  5
83C
  8
035
 10
335.07736
 20
196.377035
 30
0.0
  0
VERTEX
  5
83D
  8
035
 10
335.748114
 20
196.05757
 30
0.0
  0
VERTEX
  5
83E
  8
035
 10
336.417735
 20
195.69971
 30
0.0
  0
SEQEND
  5
83F
  8
035
  0
LINE
  5
420
  8
05
 10
338.635807
 20
192.920874
 30
0.0
 11
339.946886
 21
191.278333
 31
0.0
  0
LINE
  5
421
  8
05
 10
337.359284
 20
193.469439
 30
0.0
 11
337.412119
 21
193.386525
 31
0.0
  0
POLYLINE
  5
422
  8
05
 66
     1
 10
0.0
 20
0.0
 30
0.0
  0
VERTEX
  5
840
  8
05
 10
338.635807
 20
192.920874
 30
0.0
  0
VERTEX
  5
841
  8
05
 10
338.115319
 20
193.091892
 30
0.0
  0
VERTEX
  5
842
  8
05
 10
337.497474
 20
193.345076
 30
0.0
  0
SEQEND
  5
843
  8
05
  0
POLYLINE
  5
423
  8
05
 66
     1
 10
0.0
 20
0.0
 30
0.0
  0
VERTEX
  5
844
  8
05
 10
336.417735
 20
195.69971
 30
0.0
  0
VERTEX
  5
845
  8
05
 10
336.612893
 20
195.10619
 30
0.0
  0
VERTEX
  5
846
  8
05
 10
336.841776
 20
194.5196
 30
0.0
  0
VERTEX
  5
847
  8
05
 10
337.094288
 20
193.965852
 30
0.0
  0
VERTEX
  5
848
  8
05
 10
337.359284
 20
193.469439
 30
0.0
  0
SEQEND
  5
849
  8
05
  0
POLYLINE
  5
424
  8
05
 66
     1
 10
0.0
 20
0.0
 30
0.0
  0
VERTEX
  5
84A
  8
05
 10
358.975868
 20
193.331461
 30
0.0
  0
VERTEX
  5
84B
  8
05
 10
358.972696
 20
193.32682
 30
0.0
  0
VERTEX
  5
84C
  8
05
 10
358.876794
 20
193.249654
 30
0.0
  0
VERTEX
  5
84D
  8
05
 10
358.838444
 20
193.232589
 30
0.0
  0
SEQEND
  5
84E
  8
05
  0
POLYLINE
  5
425
  8
035
 66
     1
 10
0.0
 20
0.0
 30
0.0
  0
VERTEX
  5
84F
  8
035
 10
357.237598
 20
199.549958
 30
0.0
  0
VERTEX
  5
850
  8
035
 10
357.328571
 20
199.577277
 30
0.0
  0
VERTEX
  5
851
  8
035
 10
357.82028
 20
199.549764
 30
0.0
  0
VERTEX
  5
852
  8
035
 10
358.394167
 20
199.261819
 30
0.0
  0
VERTEX
  5
853
  8
035
 10
359.036101
 20
198.720532
 30
0.0
  0
VERTEX
  5
854
  8
035
 10
359.730276
 20
197.93923
 30
0.0
  0
VERTEX
  5
855
  8
035
 10
360.459597
 20
196.937153
 30
0.0
  0
VERTEX
  5
856
  8
035
 10
361.206108
 20
195.738974
 30
0.0
  0
VERTEX
  5
857
  8
035
 10
361.951426
 20
194.374198
 30
0.0
  0
VERTEX
  5
858
  8
035
 10
362.6772
 20
192.876428
 30
0.0
  0
VERTEX
  5
859
  8
035
 10
363.115762
 20
191.860943
 30
0.0
  0
SEQEND
  5
85A
  8
035
  0
POLYLINE
  5
426
  8
05
 66
     1
 10
0.0
 20
0.0
 30
0.0
  0
VERTEX
  5
85B
  8
05
 10
356.607861
 20
194.673189
 30
0.0
  0
VERTEX
  5
85C
  8
05
 10
356.440582
 20
196.005622
 30
0.0
  0
VERTEX
  5
85D
  8
05
 10
356.389454
 20
197.164891
 30
0.0
  0
VERTEX
  5
85E
  8
05
 10
356.455735
 20
198.122452
 30
0.0
  0
VERTEX
  5
85F
  8
05
 10
356.637793
 20
198.854725
 30
0.0
  0
VERTEX
  5
860
  8
05
 10
356.931146
 20
199.34368
 30
0.0
  0
VERTEX
  5
861
  8
05
 10
357.237598
 20
199.549958
 30
0.0
  0
SEQEND
  5
862
  8
05
  0
POLYLINE
  5
427
  8
05
 66
     1
 10
0.0
 20
0.0
 30
0.0
  0
VERTEX
  5
863
  8
05
 10
356.607861
 20
194.673189
 30
0.0
  0
VERTEX
  5
864
  8
05
 10
356.887172
 20
193.200401
 30
0.0
  0
VERTEX
  5
865
  8
05
 10
357.041693
 20
192.566634
 30
0.0
  0
SEQEND
  5
866
  8
05
  0
LINE
  5
428
  8
05
 10
358.835818
 20
193.232678
 30
0.0
 11
358.83754
 21
193.283481
 31
0.0
  0
LINE
  5
429
  8
05
 10
358.83754
 20
193.283481
 30
0.0
 11
358.848126
 21
193.351377
 31
0.0
  0
LINE
  5
42A
  8
05
 10
358.83595
 20
193.231667
 30
0.0
 11
358.838444
 21
193.232589
 31
0.0
  0
LINE
  5
42B
  8
05
 10
381.208116
 20
208.32398
 30
0.0
 11
385.974231
 21
207.681313
 31
0.0
  0
POLYLINE
  5
42C
  8
025
 66
     1
 10
0.0
 20
0.0
 30
0.0
  0
VERTEX
  5
867
  8
025
 10
381.208116
 20
208.32398
 30
0.0
  0
VERTEX
  5
868
  8
025
 10
381.387604
 20
208.284906
 30
0.0
  0
VERTEX
  5
869
  8
025
 10
381.961491
 20
207.996961
 30
0.0
  0
VERTEX
  5
86A
  8
025
 10
382.603425
 20
207.455673
 30
0.0
  0
VERTEX
  5
86B
  8
025
 10
383.297599
 20
206.674372
 30
0.0
  0
VERTEX
  5
86C
  8
025
 10
384.026921
 20
205.672295
 30
0.0
  0
VERTEX
  5
86D
  8
025
 10
384.773432
 20
204.474116
 30
0.0
  0
VERTEX
  5
86E
  8
025
 10
385.271056
 20
203.5629
 30
0.0
  0
SEQEND
  5
86F
  8
025
  0
POLYLINE
  5
42D
  8
025
 66
     1
 10
0.0
 20
0.0
 30
0.0
  0
VERTEX
  5
870
  8
025
 10
370.504942
 20
204.467526
 30
0.0
  0
VERTEX
  5
871
  8
025
 10
370.596109
 20
204.494841
 30
0.0
  0
VERTEX
  5
872
  8
025
 10
371.087818
 20
204.467328
 30
0.0
  0
VERTEX
  5
873
  8
025
 10
371.661705
 20
204.179383
 30
0.0
  0
VERTEX
  5
874
  8
025
 10
372.303639
 20
203.638096
 30
0.0
  0
VERTEX
  5
875
  8
025
 10
372.997814
 20
202.856794
 30
0.0
  0
VERTEX
  5
876
  8
025
 10
373.727135
 20
201.854717
 30
0.0
  0
VERTEX
  5
877
  8
025
 10
374.473646
 20
200.656539
 30
0.0
  0
VERTEX
  5
878
  8
025
 10
375.218964
 20
199.291762
 30
0.0
  0
VERTEX
  5
879
  8
025
 10
375.287667
 20
199.14998
 30
0.0
  0
SEQEND
  5
87A
  8
025
  0
POLYLINE
  5
42E
  8
035
 66
     1
 10
0.0
 20
0.0
 30
0.0
  0
VERTEX
  5
87B
  8
035
 10
368.321631
 20
203.226337
 30
0.0
  0
VERTEX
  5
87C
  8
035
 10
368.616697
 20
203.050762
 30
0.0
  0
VERTEX
  5
87D
  8
035
 10
369.258631
 20
202.509474
 30
0.0
  0
VERTEX
  5
87E
  8
035
 10
369.952805
 20
201.728173
 30
0.0
  0
VERTEX
  5
87F
  8
035
 10
370.682127
 20
200.726096
 30
0.0
  0
VERTEX
  5
880
  8
035
 10
371.428637
 20
199.527917
 30
0.0
  0
VERTEX
  5
881
  8
035
 10
372.173955
 20
198.163141
 30
0.0
  0
VERTEX
  5
882
  8
035
 10
372.899729
 20
196.665371
 30
0.0
  0
VERTEX
  5
883
  8
035
 10
373.469463
 20
195.346161
 30
0.0
  0
SEQEND
  5
884
  8
035
  0
POLYLINE
  5
42F
  8
025
 66
     1
 10
0.0
 20
0.0
 30
0.0
  0
VERTEX
  5
885
  8
025
 10
375.955388
 20
197.769331
 30
0.0
  0
VERTEX
  5
886
  8
025
 10
376.633095
 20
196.20011
 30
0.0
  0
VERTEX
  5
887
  8
025
 10
376.804596
 20
195.753567
 30
0.0
  0
SEQEND
  5
888
  8
025
  0
LINE
  5
430
  8
05
 10
370.504942
 20
204.467526
 30
0.0
 11
380.804728
 21
208.285103
 31
0.0
  0
LINE
  5
431
  8
05
 10
369.721159
 20
203.332367
 30
0.0
 11
369.924773
 21
203.820535
 31
0.0
  0
POLYLINE
  5
432
  8
05
 66
     1
 10
0.0
 20
0.0
 30
0.0
  0
VERTEX
  5
889
  8
05
 10
369.924773
 20
203.820535
 30
0.0
  0
VERTEX
  5
88A
  8
05
 10
370.198684
 20
204.261244
 30
0.0
  0
VERTEX
  5
88B
  8
05
 10
370.504942
 20
204.467526
 30
0.0
  0
SEQEND
  5
88C
  8
05
  0
LINE
  5
433
  8
05
 10
368.321631
 20
203.226337
 30
0.0
 11
369.254134
 21
202.757642
 31
0.0
  0
POLYLINE
  5
434
  8
05
 66
     1
 10
0.0
 20
0.0
 30
0.0
  0
VERTEX
  5
88D
  8
05
 10
367.459934
 20
203.338904
 30
0.0
  0
VERTEX
  5
88E
  8
05
 10
367.5511
 20
203.36622
 30
0.0
  0
VERTEX
  5
88F
  8
05
 10
368.042809
 20
203.338707
 30
0.0
  0
VERTEX
  5
890
  8
05
 10
368.321631
 20
203.226337
 30
0.0
  0
SEQEND
  5
891
  8
05
  0
LINE
  5
435
  8
05
 10
368.794223
 20
202.988802
 30
0.0
 11
370.062444
 21
203.458863
 31
0.0
  0
POLYLINE
  5
436
  8
05
 66
     1
 10
0.0
 20
0.0
 30
0.0
  0
VERTEX
  5
892
  8
05
 10
380.804728
 20
208.285103
 30
0.0
  0
VERTEX
  5
893
  8
05
 10
380.895894
 20
208.312419
 30
0.0
  0
VERTEX
  5
894
  8
05
 10
381.208116
 20
208.32398
 30
0.0
  0
SEQEND
  5
895
  8
05
  0
POLYLINE
  5
437
  8
025
 66
     1
 10
0.0
 20
0.0
 30
0.0
  0
VERTEX
  5
896
  8
025
 10
386.006275
 20
202.103239
 30
0.0
  0
VERTEX
  5
897
  8
025
 10
386.244523
 20
201.61157
 30
0.0
  0
VERTEX
  5
898
  8
025
 10
386.76784
 20
200.399837
 30
0.0
  0
SEQEND
  5
899
  8
025
  0
POLYLINE
  5
438
  8
05
 66
     1
 10
0.0
 20
0.0
 30
0.0
  0
VERTEX
  5
89A
  8
05
 10
385.974118
 20
207.68122
 30
0.0
  0
VERTEX
  5
89B
  8
05
 10
386.279073
 20
207.589479
 30
0.0
  0
VERTEX
  5
89C
  8
05
 10
386.785067
 20
207.262683
 30
0.0
  0
VERTEX
  5
89D
  8
05
 10
387.345485
 20
206.716268
 30
0.0
  0
VERTEX
  5
89E
  8
05
 10
387.945039
 20
205.965136
 30
0.0
  0
VERTEX
  5
89F
  8
05
 10
388.567376
 20
205.029778
 30
0.0
  0
VERTEX
  5
8A0
  8
05
 10
389.19552
 20
203.935707
 30
0.0
  0
VERTEX
  5
8A1
  8
05
 10
389.812336
 20
202.712767
 30
0.0
  0
VERTEX
  5
8A2
  8
05
 10
390.401
 20
201.394317
 30
0.0
  0
VERTEX
  5
8A3
  8
05
 10
390.945455
 20
200.01632
 30
0.0
  0
VERTEX
  5
8A4
  8
05
 10
391.430848
 20
198.616364
 30
0.0
  0
VERTEX
  5
8A5
  8
05
 10
391.84394
 20
197.232638
 30
0.0
  0
VERTEX
  5
8A6
  8
05
 10
392.173463
 20
195.902884
 30
0.0
  0
VERTEX
  5
8A7
  8
05
 10
392.410428
 20
194.663376
 30
0.0
  0
SEQEND
  5
8A8
  8
05
  0
POLYLINE
  5
439
  8
025
 66
     1
 10
0.0
 20
0.0
 30
0.0
  0
VERTEX
  5
8A9
  8
025
 10
387.105647
 20
199.56785
 30
0.0
  0
VERTEX
  5
8AA
  8
025
 10
387.566873
 20
198.36694
 30
0.0
  0
VERTEX
  5
8AB
  8
025
 10
388.130889
 20
196.699972
 30
0.0
  0
VERTEX
  5
8AC
  8
025
 10
388.611041
 20
195.057832
 30
0.0
  0
VERTEX
  5
8AD
  8
025
 10
388.995505
 20
193.480954
 30
0.0
  0
VERTEX
  5
8AE
  8
025
 10
389.274816
 20
192.008166
 30
0.0
  0
SEQEND
  5
8AF
  8
025
  0
POLYLINE
  5
43A
  8
05
 66
     1
 10
0.0
 20
0.0
 30
0.0
  0
VERTEX
  5
8B0
  8
05
 10
392.172305
 20
190.958571
 30
0.0
  0
VERTEX
  5
8B1
  8
05
 10
392.344489
 20
191.228383
 30
0.0
  0
VERTEX
  5
8B2
  8
05
 10
392.514946
 20
191.806679
 30
0.0
  0
VERTEX
  5
8B3
  8
05
 10
392.58353
 20
192.586953
 30
0.0
  0
VERTEX
  5
8B4
  8
05
 10
392.548371
 20
193.547923
 30
0.0
  0
VERTEX
  5
8B5
  8
05
 10
392.410428
 20
194.663376
 30
0.0
  0
SEQEND
  5
8B6
  8
05
  0
ENDSEC
  0
EOF
