  0
SECTION
  2
HEADER
  9
$ACADVER
  1
AC1009
  9
$INSBASE
 10
0.0
 20
0.0
 30
0.0
  9
$EXTMIN
 10
0.0
 20
0.0
 30
0.0
  9
$EXTMAX
 10
210.0
 20
297.0
 30
0.0
  9
$LIMMIN
 10
0.0
 20
0.0
  9
$LIMMAX
 10
210.0
 20
297.0
  9
$ORTHOMODE
 70
     1
  9
$REGENMODE
 70
     1
  9
$FILLMODE
 70
     1
  9
$QTEXTMODE
 70
     0
  9
$MIRRTEXT
 70
     1
  9
$DRAGMODE
 70
     2
  9
$LTSCALE
 40
19.36
  9
$OSMODE
 70
    33
  9
$ATTMODE
 70
     1
  9
$TEXTSIZE
 40
0.2
  9
$TRACEWID
 40
0.05
  9
$TEXTSTYLE
  7
STANDARD
  9
$CLAYER
  8
05
  9
$CELTYPE
  6
BYLAYER
  9
$CECOLOR
 62
   256
  9
$DIMSCALE
 40
1.0
  9
$DIMASZ
 40
3.5
  9
$DIMEXO
 40
2.2
  9
$DIMDLI
 40
13.376
  9
$DIMRND
 40
0.0
  9
$DIMDLE
 40
0.0
  9
$DIMEXE
 40
6.336
  9
$DIMTP
 40
0.0
  9
$DIMTM
 40
0.0
  9
$DIMTXT
 40
3.977679
  9
$DIMCEN
 40
3.168
  9
$DIMTSZ
 40
0.0
  9
$DIMTOL
 70
     0
  9
$DIMLIM
 70
     0
  9
$DIMTIH
 70
     1
  9
$DIMTOH
 70
     1
  9
$DIMSE1
 70
     0
  9
$DIMSE2
 70
     0
  9
$DIMTAD
 70
     0
  9
$DIMZIN
 70
     0
  9
$DIMBLK
  1

  9
$DIMASO
 70
     1
  9
$DIMSHO
 70
     1
  9
$DIMPOST
  1

  9
$DIMAPOST
  1

  9
$DIMALT
 70
     0
  9
$DIMALTD
 70
     2
  9
$DIMALTF
 40
25.4
  9
$DIMLFAC
 40
1.0
  9
$DIMTOFL
 70
     0
  9
$DIMTVP
 40
0.0
  9
$DIMTIX
 70
     0
  9
$DIMSOXD
 70
     0
  9
$DIMSAH
 70
     0
  9
$DIMBLK1
  1

  9
$DIMBLK2
  1

  9
$DIMSTYLE
  2
STANDARD
  9
$DIMCLRD
 70
     0
  9
$DIMCLRE
 70
     0
  9
$DIMCLRT
 70
     0
  9
$DIMTFAC
 40
1.0
  9
$DIMGAP
 40
0.09
  9
$LUNITS
 70
     2
  9
$LUPREC
 70
     4
  9
$SKETCHINC
 40
0.1
  9
$FILLETRAD
 40
0.0
  9
$AUNITS
 70
     0
  9
$AUPREC
 70
     0
  9
$MENU
  1
acad
  9
$ELEVATION
 40
0.0
  9
$PELEVATION
 40
0.0
  9
$THICKNESS
 40
0.0
  9
$LIMCHECK
 70
     0
  9
$BLIPMODE
 70
     1
  9
$CHAMFERA
 40
0.0
  9
$CHAMFERB
 40
0.0
  9
$SKPOLY
 70
     0
  9
$TDCREATE
 40
2451746.457861
  9
$TDUPDATE
 40
2451750.448385
  9
$TDINDWG
 40
0.023297
  9
$TDUSRTIMER
 40
0.023297
  9
$USRTIMER
 70
     1
  9
$ANGBASE
 50
0.0
  9
$ANGDIR
 70
     0
  9
$PDMODE
 70
     0
  9
$PDSIZE
 40
0.0
  9
$PLINEWID
 40
0.0
  9
$COORDS
 70
     2
  9
$SPLFRAME
 70
     0
  9
$SPLINETYPE
 70
     6
  9
$SPLINESEGS
 70
     8
  9
$ATTDIA
 70
     0
  9
$ATTREQ
 70
     1
  9
$HANDLING
 70
     1
  9
$HANDSEED
  5
751
  9
$SURFTAB1
 70
     6
  9
$SURFTAB2
 70
     6
  9
$SURFTYPE
 70
     6
  9
$SURFU
 70
     6
  9
$SURFV
 70
     6
  9
$UCSNAME
  2

  9
$UCSORG
 10
0.0
 20
0.0
 30
0.0
  9
$UCSXDIR
 10
1.0
 20
0.0
 30
0.0
  9
$UCSYDIR
 10
0.0
 20
1.0
 30
0.0
  9
$PUCSNAME
  2

  9
$PUCSORG
 10
0.0
 20
0.0
 30
0.0
  9
$PUCSXDIR
 10
1.0
 20
0.0
 30
0.0
  9
$PUCSYDIR
 10
0.0
 20
1.0
 30
0.0
  9
$USERI1
 70
     0
  9
$USERI2
 70
     0
  9
$USERI3
 70
     0
  9
$USERI4
 70
     0
  9
$USERI5
 70
     0
  9
$USERR1
 40
0.0
  9
$USERR2
 40
0.0
  9
$USERR3
 40
0.0
  9
$USERR4
 40
0.0
  9
$USERR5
 40
0.0
  9
$WORLDVIEW
 70
     1
  9
$SHADEDGE
 70
     3
  9
$SHADEDIF
 70
    70
  9
$TILEMODE
 70
     1
  9
$MAXACTVP
 70
    16
  9
$PLIMCHECK
 70
     0
  9
$PEXTMIN
 10
1.000000E+020
 20
1.000000E+020
 30
1.000000E+020
  9
$PEXTMAX
 10
-1.000000E+020
 20
-1.000000E+020
 30
-1.000000E+020
  9
$PLIMMIN
 10
0.0
 20
0.0
  9
$PLIMMAX
 10
12.0
 20
9.0
  9
$UNITMODE
 70
     0
  9
$VISRETAIN
 70
     0
  9
$PLINEGEN
 70
     1
  9
$PSLTSCALE
 70
     0
  0
ENDSEC
  0
SECTION
  2
TABLES
  0
TABLE
  2
VPORT
 70
     2
  0
VPORT
  2
*ACTIVE
 70
     0
 10
0.0
 20
0.0
 11
1.0
 21
1.0
 12
105.000001
 22
153.368956
 13
0.0
 23
0.0
 14
1.0
 24
1.0
 15
0.0
 25
0.0
 16
0.0
 26
0.0
 36
1.0
 17
0.0
 27
0.0
 37
0.0
 40
309.537293
 41
1.525
 42
50.0
 43
0.0
 44
0.0
 50
0.0
 51
0.0
 71
     0
 72
   100
 73
     1
 74
     2
 75
     0
 76
     0
 77
     0
 78
     0
  0
ENDTAB
  0
TABLE
  2
LTYPE
 70
     3
  0
LTYPE
  2
CONTINUOUS
 70
     0
  3
Solid line
 72
    65
 73
     0
 40
0.0
  0
LTYPE
  2
CENTER
 70
     0
  3
____ _ ____ _ ____ _ ____ _ ____ _ ____ _ ____
 72
    65
 73
     4
 40
0.6
 49
0.375
 49
-0.075
 49
0.075
 49
-0.075
  0
LTYPE
  2
AUSGEZOGEN
 70
     0
  3
Ausgezogene Linie
 72
    65
 73
     0
 40
0.0
  0
ENDTAB
  0
TABLE
  2
LAYER
 70
     7
  0
LAYER
  2
0
 70
     0
 62
     7
  6
CONTINUOUS
  0
LAYER
  2
05
 70
     0
 62
     2
  6
AUSGEZOGEN
  0
LAYER
  2
BEM1
 70
     0
 62
     4
  6
AUSGEZOGEN
  0
LAYER
  2
MITTE
 70
     0
 62
     4
  6
CENTER
  0
LAYER
  2
035
 70
     0
 62
     3
  6
AUSGEZOGEN
  0
LAYER
  2
025
 70
     0
 62
     4
  6
AUSGEZOGEN
  0
LAYER
  2
010
 70
     0
 62
     5
  6
AUSGEZOGEN
  0
ENDTAB
  0
TABLE
  2
STYLE
 70
     1
  0
STYLE
  2
STANDARD
 70
     0
 40
0.0
 41
1.0
 50
0.0
 71
     0
 42
0.0
  3
txt
  4

  0
ENDTAB
  0
TABLE
  2
VIEW
 70
     0
  0
ENDTAB
  0
TABLE
  2
UCS
 70
     0
  0
ENDTAB
  0
TABLE
  2
APPID
 70
     1
  0
APPID
  2
ACAD
 70
     0
  0
ENDTAB
  0
TABLE
  2
DIMSTYLE
 70
     1
  0
DIMSTYLE
  2
STANDARD
 70
     0
  3

  4

  5

  6

  7

 40
1.0
 41
3.5
 42
2.2
 43
13.376
 44
6.336
 45
0.0
 46
0.0
 47
0.0
 48
0.0
140
3.977679
141
3.168
142
0.0
143
25.4
144
1.0
145
0.0
146
1.0
147
0.09
 71
     0
 72
     0
 73
     1
 74
     1
 75
     0
 76
     0
 77
     0
 78
     0
170
     0
171
     2
172
     0
173
     0
174
     0
175
     0
176
     0
177
     0
178
     0
  0
ENDTAB
  0
ENDSEC
  0
SECTION
  2
BLOCKS
  0
BLOCK
  8
0
  2
$MODEL_SPACE
 70
     0
 10
0.0
 20
0.0
 30
0.0
  3
$MODEL_SPACE
  1

  0
ENDBLK
  5
6
  8
0
  0
BLOCK
 67
     1
  8
0
  2
$PAPER_SPACE
 70
     0
 10
0.0
 20
0.0
 30
0.0
  3
$PAPER_SPACE
  1

  0
ENDBLK
  5
9
 67
     1
  8
0
  0
ENDSEC
  0
SECTION
  2
ENTITIES
  0
LINE
  5
1F
  8
035
 10
107.149609
 20
168.863933
 30
0.0
 11
104.653562
 21
168.863933
 31
0.0
  0
LINE
  5
21
  8
05
 10
105.001497
 20
176.618277
 30
0.0
 11
103.845121
 21
176.052999
 31
0.0
  0
LINE
  5
22
  8
010
 10
105.027157
 20
111.287605
 30
0.0
 11
104.935837
 21
110.978697
 31
0.0
  0
LINE
  5
24
  8
010
 10
105.09169
 20
111.934604
 30
0.0
 11
104.877338
 21
124.993299
 31
0.0
  0
LINE
  5
25
  8
010
 10
102.869378
 20
177.285472
 30
0.0
 11
105.714149
 21
177.285472
 31
0.0
  0
LINE
  5
26
  8
010
 10
102.87465
 20
165.976458
 30
0.0
 11
105.713292
 21
165.976458
 31
0.0
  0
LINE
  5
27
  8
BEM1
  6
BYBLOCK
 10
85.399609
 20
201.603448
 30
0.0
 11
107.149609
 21
201.603448
 31
0.0
  0
TEXT
  5
29
  8
BEM1
  6
BYBLOCK
 62
     3
 10
101.127315
 20
202.509315
 30
0.0
 40
3.5
  1
14.5
 41
0.991071
 51
15.0
 72
     5
 11
110.377315
 21
202.509315
 31
0.0
  0
TEXT
  5
2A
  8
BEM1
  6
BYBLOCK
 62
     3
 10
96.293981
 20
196.168248
 30
0.0
 40
3.5
  1
(0.5709")
 41
0.889286
 51
15.0
 72
     5
 11
117.043981
 21
196.168248
 31
0.0
  0
TEXT
  5
2B
  8
025
  6
BYBLOCK
 10
72.0625
 20
36.465874
 30
0.0
 40
1.8
  1
 Zeichnung urheberrechtlich
 41
0.738255
 51
15.0
 72
     5
 11
105.0625
 21
36.465874
 31
0.0
  0
TEXT
  5
2D
  8
025
  6
BYBLOCK
 10
102.666667
 20
23.078125
 30
0.0
 40
3.5
  1
NBNC75B
 41
0.821429
 51
15.0
 72
     5
 11
121.833333
 21
23.078125
 31
0.0
  0
TEXT
  5
2E
  8
05
  6
BYBLOCK
 10
84.035714
 20
15.91181
 30
0.0
 40
5.0
  1
BST-BNC
 41
1.692857
 51
15.0
 72
     5
 11
140.464286
 21
15.91181
 31
0.0
  0
TEXT
  5
2F
  8
05
  6
BYBLOCK
 10
91.566123
 20
248.896901
 30
0.0
 40
7.0
  1
BST-BNC
 41
0.7
 72
     5
 11
124.23279
 21
248.896901
 31
0.0
  0
LINE
  5
30
  8
05
 10
5.0
 20
5.0
 30
0.0
 11
205.0
 21
5.0
 31
0.0
  0
LINE
  5
31
  8
05
 10
72.0
 20
14.0
 30
0.0
 11
205.0
 21
14.0
 31
0.0
  0
LINE
  5
32
  8
05
 10
72.0
 20
31.0
 30
0.0
 11
205.0
 21
31.0
 31
0.0
  0
LINE
  5
33
  8
05
 10
72.0
 20
41.0
 30
0.0
 11
113.0
 21
41.0
 31
0.0
  0
LINE
  5
34
  8
05
 10
5.0
 20
51.0
 30
0.0
 11
205.0
 21
51.0
 31
0.0
  0
LINE
  5
35
  8
05
 10
117.649377
 20
109.635472
 30
0.0
 11
96.649842
 21
109.635472
 31
0.0
  0
LINE
  5
36
  8
05
 10
102.792887
 20
109.785472
 30
0.0
 11
107.149609
 21
109.785472
 31
0.0
  0
LINE
  5
37
  8
05
 10
102.649812
 20
109.785472
 30
0.0
 11
107.149609
 21
109.785472
 31
0.0
  0
ARC
  5
38
  8
035
 10
107.149609
 20
172.785472
 30
0.0
 40
3.0
 50
189.594068
 51
350.405932
  0
LINE
  5
39
  8
05
 10
88.439496
 20
178.785472
 30
0.0
 11
125.859722
 21
178.785472
 31
0.0
  0
LINE
  5
3A
  8
05
 10
88.399809
 20
178.785472
 30
0.0
 11
125.89941
 21
178.785472
 31
0.0
  0
LINE
  5
3B
  8
05
 10
111.049609
 20
166.785472
 30
0.0
 11
103.249609
 21
166.785472
 31
0.0
  0
LINE
  5
3C
  8
025
 10
104.627639
 20
10.380346
 30
0.0
 11
106.304324
 21
10.380346
 31
0.0
  0
LINE
  5
3D
  8
025
 10
105.890422
 20
8.032986
 30
0.0
 11
104.213736
 21
8.032986
 31
0.0
  0
LINE
  5
3E
  8
05
 10
5.0
 20
292.0
 30
0.0
 11
205.0
 21
292.0
 31
0.0
  0
LINE
  5
3F
  8
05
 10
5.0
 20
5.0
 30
0.0
 11
205.0
 21
5.0
 31
0.0
  0
LINE
  5
40
  8
010
 10
104.659778
 20
138.244188
 30
0.0
 11
104.439117
 21
151.681315
 31
0.0
  0
LINE
  5
41
  8
010
 10
103.609702
 20
151.681315
 30
0.0
 11
103.831008
 21
138.244203
 31
0.0
  0
LINE
  5
42
  8
010
 10
94.670988
 20
148.780868
 30
0.0
 11
94.67127
 21
148.413972
 31
0.0
  0
LINE
  5
43
  8
010
 10
96.328538
 20
148.275643
 30
0.0
 11
96.245015
 21
148.966583
 31
0.0
  0
LINE
  5
44
  8
010
 10
96.829143
 20
148.337646
 30
0.0
 11
96.740755
 21
149.028686
 31
0.0
  0
LINE
  5
45
  8
010
 10
94.455811
 20
148.842941
 30
0.0
 11
94.458669
 21
147.981307
 31
0.0
  0
LINE
  5
46
  8
010
 10
90.798485
 20
138.244188
 30
0.0
 11
89.539973
 21
151.681315
 31
0.0
  0
LINE
  5
47
  8
010
 10
88.878741
 20
138.244188
 30
0.0
 11
87.483556
 21
151.681315
 31
0.0
  0
LINE
  5
48
  8
010
 10
89.158733
 20
151.681315
 30
0.0
 11
90.41754
 21
138.244203
 31
0.0
  0
LINE
  5
49
  8
010
 10
87.353591
 20
151.66782
 30
0.0
 11
88.747475
 21
138.244203
 31
0.0
  0
LINE
  5
4A
  8
BEM1
  6
BYBLOCK
 10
66.833931
 20
109.785472
 30
0.0
 11
66.833931
 21
178.785472
 31
0.0
  0
TEXT
  5
4B
  8
BEM1
  6
BYBLOCK
 62
     3
 10
65.971301
 20
140.689127
 30
0.0
 40
4.0
  1
23 mm
 50
90.0
 41
0.642857
 51
15.0
 72
     5
 11
65.971301
 21
152.689127
 31
0.0
  0
TEXT
  5
4C
  8
BEM1
  6
BYBLOCK
 62
     3
 10
72.269131
 20
136.791937
 30
0.0
 40
3.0
  1
(0.91")
 50
90.0
 41
1.5
 51
15.0
 72
     5
 11
72.269131
 21
157.041937
 31
0.0
  0
LINE
  5
4D
  8
010
 10
95.799467
 20
152.948518
 30
0.0
 11
95.799467
 21
134.571039
 31
0.0
  0
LINE
  5
4E
  8
05
 10
87.169521
 20
151.662116
 30
0.0
 11
91.345051
 21
111.934604
 31
0.0
  0
LINE
  5
4F
  8
05
 10
5.0
 20
5.0
 30
0.0
 11
5.0
 21
292.0
 31
0.0
  0
LINE
  5
50
  8
025
 10
5.0
 20
11.0
 30
0.0
 11
72.0
 21
11.0
 31
0.0
  0
LINE
  5
51
  8
025
 10
5.0
 20
46.0
 30
0.0
 11
72.0
 21
46.0
 31
0.0
  0
LINE
  5
52
  8
025
 10
5.0
 20
41.0
 30
0.0
 11
72.0
 21
41.0
 31
0.0
  0
LINE
  5
53
  8
025
 10
5.0
 20
36.0
 30
0.0
 11
72.0
 21
36.0
 31
0.0
  0
LINE
  5
54
  8
025
 10
5.0
 20
31.0
 30
0.0
 11
72.0
 21
31.0
 31
0.0
  0
LINE
  5
55
  8
025
 10
5.0
 20
26.0
 30
0.0
 11
72.0
 21
26.0
 31
0.0
  0
LINE
  5
56
  8
025
 10
5.0
 20
21.0
 30
0.0
 11
72.0
 21
21.0
 31
0.0
  0
LINE
  5
57
  8
025
 10
5.0
 20
16.0
 30
0.0
 11
72.0
 21
16.0
 31
0.0
  0
LINE
  5
58
  8
05
 10
14.0
 20
51.0
 30
0.0
 11
14.0
 21
5.0
 31
0.0
  0
TEXT
  5
59
  8
025
  6
BYBLOCK
 10
14.0625
 20
6.964724
 30
0.0
 40
2.0
  1
 Aenderung
 41
0.753695
 51
15.0
 72
     5
 11
28.633929
 21
6.964724
 31
0.0
  0
TEXT
  5
5A
  8
025
  6
BYBLOCK
 10
5.0625
 20
6.964724
 30
0.0
 40
2.0
  1
 Ind.
 41
0.935065
 51
15.0
 72
     5
 11
11.919643
 21
6.964724
 31
0.0
  0
LINE
  5
5B
  8
05
 10
72.0
 20
51.0
 30
0.0
 11
72.0
 21
5.0
 31
0.0
  0
LINE
  5
5C
  8
05
 10
60.0
 20
51.0
 30
0.0
 11
60.0
 21
5.0
 31
0.0
  0
LINE
  5
5D
  8
05
 10
47.0
 20
51.0
 30
0.0
 11
47.0
 21
5.0
 31
0.0
  0
TEXT
  5
5E
  8
025
  6
BYBLOCK
 10
47.0625
 20
6.964724
 30
0.0
 40
2.0
  1
 Datum
 41
0.815126
 51
15.0
 72
     5
 11
56.300595
 21
6.964724
 31
0.0
  0
TEXT
  5
5F
  8
025
  6
BYBLOCK
 10
60.0625
 20
6.964724
 30
0.0
 40
2.0
  1
 Name
 41
0.841837
 51
15.0
 72
     5
 11
67.919643
 21
6.964724
 31
0.0
  0
ARC
  5
60
  8
025
 10
99.765876
 20
9.737379
 30
0.0
 40
0.80426
 50
306.99528
 51
331.199147
  0
LINE
  5
61
  8
025
 10
104.213736
 20
8.032986
 30
0.0
 11
104.627639
 21
10.380346
 31
0.0
  0
LINE
  5
62
  8
025
 10
103.28629
 20
10.380346
 30
0.0
 11
102.872387
 21
8.032986
 31
0.0
  0
LINE
  5
63
  8
025
 10
101.195702
 20
8.032986
 30
0.0
 11
101.609605
 21
10.380346
 31
0.0
  0
LINE
  5
64
  8
025
 10
95.908874
 20
10.380346
 30
0.0
 11
95.494972
 21
8.032986
 31
0.0
  0
LINE
  5
65
  8
025
 10
94.044878
 20
9.793506
 30
0.0
 11
93.734452
 21
8.032986
 31
0.0
  0
LINE
  5
66
  8
025
 10
92.057766
 20
8.032986
 30
0.0
 11
92.368193
 21
9.793506
 31
0.0
  0
LINE
  5
67
  8
025
 10
90.711149
 20
10.380346
 30
0.0
 11
90.414563
 21
8.698324
 31
0.0
  0
LINE
  5
68
  8
025
 10
88.942344
 20
8.90702
 30
0.0
 11
89.202132
 21
10.380346
 31
0.0
  0
LINE
  5
69
  8
025
 10
87.357777
 20
10.380346
 30
0.0
 11
87.111953
 21
8.986201
 31
0.0
  0
LINE
  5
6A
  8
025
 10
85.578942
 20
8.850126
 30
0.0
 11
85.848761
 21
10.380346
 31
0.0
  0
LINE
  5
6B
  8
025
 10
84.344808
 20
9.458168
 30
0.0
 11
84.256114
 21
8.955163
 31
0.0
  0
LINE
  5
6C
  8
025
 10
80.404801
 20
8.032986
 30
0.0
 11
80.818704
 21
10.380346
 31
0.0
  0
LINE
  5
6D
  8
025
 10
79.56119
 20
10.380346
 30
0.0
 11
79.147287
 21
8.032986
 31
0.0
  0
LINE
  5
6E
  8
025
 10
77.702259
 20
8.871328
 30
0.0
 11
77.968338
 21
10.380346
 31
0.0
  0
LINE
  5
6F
  8
025
 10
75.053986
 20
9.542003
 30
0.0
 11
74.787905
 21
8.032986
 31
0.0
  0
LINE
  5
70
  8
025
 10
73.195054
 20
8.032986
 30
0.0
 11
73.608956
 21
10.380346
 31
0.0
  0
LINE
  5
71
  8
025
 10
75.201807
 20
10.380346
 30
0.0
 11
77.702259
 21
8.871328
 31
0.0
  0
LINE
  5
72
  8
025
 10
77.554436
 20
8.032986
 30
0.0
 11
75.053986
 21
9.542003
 31
0.0
  0
ARC
  5
73
  8
025
 10
87.951257
 20
16.416414
 30
0.0
 40
8.383428
 50
256.220905
 51
284.461265
  0
ARC
  5
74
  8
025
 10
87.954745
 20
11.218688
 30
0.0
 40
2.682696
 50
257.387748
 51
286.262666
  0
LINE
  5
75
  8
025
 10
73.195054
 20
8.032986
 30
0.0
 11
74.787905
 21
8.032986
 31
0.0
  0
LINE
  5
76
  8
025
 10
79.147287
 20
8.032986
 30
0.0
 11
77.554436
 21
8.032986
 31
0.0
  0
LINE
  5
77
  8
025
 10
82.002512
 20
8.535992
 30
0.0
 11
84.685208
 21
8.535992
 31
0.0
  0
LINE
  5
78
  8
025
 10
84.596515
 20
8.032986
 30
0.0
 11
80.404801
 21
8.032986
 31
0.0
  0
LINE
  5
79
  8
025
 10
84.256114
 20
8.955163
 30
0.0
 11
82.076423
 21
8.955163
 31
0.0
  0
LINE
  5
7A
  8
025
 10
82.076423
 20
8.955163
 30
0.0
 11
82.002512
 21
8.535992
 31
0.0
  0
ARC
  5
7B
  8
025
 10
86.074306
 20
8.762781
 30
0.0
 40
0.503006
 50
170.000024
 51
256.220876
  0
LINE
  5
7C
  8
025
 10
84.685208
 20
8.535992
 30
0.0
 11
84.596515
 21
8.032986
 31
0.0
  0
ARC
  5
7D
  8
025
 10
87.442195
 20
8.92797
 30
0.0
 40
0.335337
 50
169.999958
 51
257.387685
  0
LINE
  5
7E
  8
025
 10
95.494972
 20
8.032986
 30
0.0
 11
97.171657
 21
8.032986
 31
0.0
  0
LINE
  5
7F
  8
025
 10
93.734452
 20
8.032986
 30
0.0
 11
92.057766
 21
8.032986
 31
0.0
  0
ARC
  5
80
  8
025
 10
89.919199
 20
8.78567
 30
0.0
 40
0.503006
 50
284.461307
 51
350.000024
  0
ARC
  5
81
  8
025
 10
88.612102
 20
8.965251
 30
0.0
 40
0.335337
 50
286.262774
 51
349.999958
  0
LINE
  5
82
  8
025
 10
98.596839
 20
8.032986
 30
0.0
 11
100.525027
 21
8.032986
 31
0.0
  0
LINE
  5
83
  8
025
 10
97.171657
 20
8.032986
 30
0.0
 11
97.319479
 21
8.871328
 31
0.0
  0
LINE
  5
84
  8
025
 10
97.319479
 20
8.871328
 30
0.0
 11
98.596839
 21
8.032986
 31
0.0
  0
ARC
  5
85
  8
025
 10
97.845061
 20
126.727613
 30
0.0
 40
117.864631
 50
270.681844
 51
270.836009
  0
ARC
  5
86
  8
025
 10
99.632897
 20
9.913879
 30
0.0
 40
1.025248
 50
287.332042
 51
306.995258
  0
ARC
  5
87
  8
025
 10
99.54607
 20
10.192099
 30
0.0
 40
1.316702
 50
270.813966
 51
287.332046
  0
LINE
  5
88
  8
025
 10
100.525027
 20
8.032986
 30
0.0
 11
99.247668
 21
8.871328
 31
0.0
  0
LINE
  5
89
  8
025
 10
102.872387
 20
8.032986
 30
0.0
 11
101.195702
 21
8.032986
 31
0.0
  0
TEXT
  5
8A
  8
025
  6
BYBLOCK
 10
72.0625
 20
47.863497
 30
0.0
 40
1.8
  1
 *) Lieferant darf ohne
 41
0.717582
 51
15.0
 72
     5
 11
100.048214
 21
47.863497
 31
0.0
  0
TEXT
  5
8B
  8
025
  6
BYBLOCK
 10
72.0625
 20
45.068251
 30
0.0
 40
1.8
  1
 Ruecksprache nicht
 41
0.731481
 51
15.0
 72
     5
 11
95.7625
 21
45.068251
 31
0.0
  0
TEXT
  5
8C
  8
025
  6
BYBLOCK
 10
72.0625
 20
42.273006
 30
0.0
 40
1.8
  1
 geaendert werden
 41
0.737143
 51
15.0
 72
     5
 11
94.176786
 21
42.273006
 31
0.0
  0
TEXT
  5
8D
  8
025
  6
BYBLOCK
 10
72.0625
 20
33.670629
 30
0.0
 40
1.8
  1
 geschuetzt (DIN 34) (C)
 41
0.741342
 51
15.0
 72
     5
 11
101.419643
 21
33.670629
 31
0.0
  0
TEXT
  5
8E
  8
025
  6
BYBLOCK
 10
72.0625
 20
27.464724
 30
0.0
 40
2.0
  1
 Benennung
 41
0.753695
 51
15.0
 72
     5
 11
86.633929
 21
27.464724
 31
0.0
  0
LINE
  5
8F
  8
025
 10
73.608956
 20
10.380346
 30
0.0
 11
75.201807
 21
10.380346
 31
0.0
  0
LINE
  5
90
  8
025
 10
77.968338
 20
10.380346
 30
0.0
 11
79.56119
 21
10.380346
 31
0.0
  0
LINE
  5
91
  8
025
 10
80.818704
 20
10.380346
 30
0.0
 11
85.010418
 21
10.380346
 31
0.0
  0
LINE
  5
92
  8
025
 10
84.921725
 20
9.87734
 30
0.0
 11
82.239028
 21
9.87734
 31
0.0
  0
LINE
  5
93
  8
025
 10
82.165117
 20
9.458168
 30
0.0
 11
84.344808
 21
9.458168
 31
0.0
  0
LINE
  5
94
  8
025
 10
82.239028
 20
9.87734
 30
0.0
 11
82.165117
 21
9.458168
 31
0.0
  0
LINE
  5
95
  8
025
 10
85.848761
 20
10.380346
 30
0.0
 11
87.357777
 21
10.380346
 31
0.0
  0
LINE
  5
96
  8
025
 10
85.010418
 20
10.380346
 30
0.0
 11
84.921725
 21
9.87734
 31
0.0
  0
LINE
  5
97
  8
025
 10
99.010742
 20
10.380346
 30
0.0
 11
95.908874
 21
10.380346
 31
0.0
  0
LINE
  5
98
  8
025
 10
91.297989
 20
10.380346
 30
0.0
 11
95.322034
 21
10.380346
 31
0.0
  0
LINE
  5
99
  8
025
 10
89.202132
 20
10.380346
 30
0.0
 11
90.711149
 21
10.380346
 31
0.0
  0
LINE
  5
9A
  8
025
 10
92.368193
 20
9.793506
 30
0.0
 11
91.194513
 21
9.793506
 31
0.0
  0
LINE
  5
9B
  8
025
 10
91.194513
 20
9.793506
 30
0.0
 11
91.297989
 21
10.380346
 31
0.0
  0
LINE
  5
9C
  8
025
 10
95.218558
 20
9.793506
 30
0.0
 11
94.044878
 21
9.793506
 31
0.0
  0
LINE
  5
9D
  8
025
 10
95.322034
 20
10.380346
 30
0.0
 11
95.218558
 21
9.793506
 31
0.0
  0
ARC
  5
9E
  8
025
 10
98.592173
 20
9.929516
 30
0.0
 40
0.52287
 50
298.863823
 51
315.788272
  0
ARC
  5
9F
  8
025
 10
98.723331
 20
9.440028
 30
0.0
 40
0.52287
 50
74.211776
 51
85.34555
  0
ARC
  5
A0
  8
025
 10
98.466633
 20
10.152375
 30
0.0
 40
0.778045
 50
270.198756
 51
285.191946
  0
ARC
  5
A1
  8
025
 10
98.469332
 20
10.152373
 30
0.0
 40
0.777341
 50
285.000001
 51
298.863843
  0
LINE
  5
A2
  8
025
 10
97.511648
 20
9.961174
 30
0.0
 11
98.76576
 21
9.961174
 31
0.0
  0
LINE
  5
A3
  8
025
 10
98.469332
 20
9.374335
 30
0.0
 11
97.408172
 21
9.374335
 31
0.0
  0
LINE
  5
A4
  8
025
 10
97.408172
 20
9.374335
 30
0.0
 11
97.511648
 21
9.961174
 31
0.0
  0
ARC
  5
A5
  8
025
 10
98.72217
 20
9.803047
 30
0.0
 40
0.341504
 50
315.788351
 51
340.194033
  0
ARC
  5
A6
  8
025
 10
98.882996
 20
9.745127
 30
0.0
 40
0.170565
 50
340.193968
 51
409.805875
  0
ARC
  5
A7
  8
025
 10
98.772677
 20
9.614553
 30
0.0
 40
0.341503
 50
49.805956
 51
74.211637
  0
ARC
  5
A8
  8
025
 10
99.175187
 20
-1.801179
 30
0.0
 40
12.182635
 50
88.067715
 51
90.773418
  0
ARC
  5
A9
  8
025
 10
99.54607
 20
9.05843
 30
0.0
 40
1.316702
 50
72.667954
 51
88.263723
  0
ARC
  5
AA
  8
025
 10
99.632897
 20
9.336651
 30
0.0
 40
1.025248
 50
53.004742
 51
72.667958
  0
ARC
  5
AB
  8
025
 10
99.765876
 20
9.51315
 30
0.0
 40
0.804261
 50
28.800853
 51
53.00472
  0
ARC
  5
AC
  8
025
 10
99.969803
 20
9.625265
 30
0.0
 40
0.571547
 50
331.199119
 51
388.800793
  0
LINE
  5
AD
  8
025
 10
101.609605
 20
10.380346
 30
0.0
 11
103.28629
 21
10.380346
 31
0.0
  0
LINE
  5
AE
  8
BEM1
  6
BYBLOCK
 10
91.171942
 20
109.785472
 30
0.0
 11
65.333931
 21
109.785472
 31
0.0
  0
SOLID
  5
AF
  8
BEM1
  6
BYBLOCK
 10
67.271431
 20
113.285472
 30
0.0
 11
66.396431
 21
113.285472
 31
0.0
 12
66.833931
 22
109.785472
 32
0.0
 13
66.833931
 23
109.785472
 33
0.0
  0
LINE
  5
B0
  8
05
 10
88.166233
 20
128.064542
 30
0.0
 11
88.863762
 21
121.089053
 31
0.0
  0
LINE
  5
B1
  8
010
 10
87.683111
 20
134.291058
 30
0.0
 11
89.750309
 21
113.610826
 31
0.0
  0
LINE
  5
B2
  8
05
 10
87.531647
 20
143.87165
 30
0.0
 11
87.531341
 21
134.571036
 31
0.0
  0
LINE
  5
B3
  8
010
 10
87.669156
 20
146.908402
 30
0.0
 11
87.669156
 21
134.571039
 31
0.0
  0
LINE
  5
B4
  8
05
 10
87.54676
 20
134.261646
 30
0.0
 11
88.166233
 21
128.064542
 31
0.0
  0
LINE
  5
B5
  8
05
 10
87.54073
 20
134.329487
 30
0.0
 11
87.54676
 21
134.261646
 31
0.0
  0
LINE
  5
B6
  8
05
 10
87.531875
 20
134.513368
 30
0.0
 11
87.54073
 21
134.329487
 31
0.0
  0
LINE
  5
B7
  8
05
 10
87.531341
 20
134.571036
 30
0.0
 11
87.531875
 21
134.513368
 31
0.0
  0
LINE
  5
B8
  8
05
 10
87.675362
 20
134.384196
 30
0.0
 11
87.683111
 21
134.291058
 31
0.0
  0
LINE
  5
B9
  8
05
 10
87.670708
 20
134.47756
 30
0.0
 11
87.675362
 21
134.384196
 31
0.0
  0
LINE
  5
BA
  8
05
 10
87.669156
 20
134.571039
 30
0.0
 11
87.670708
 21
134.47756
 31
0.0
  0
LINE
  5
BB
  8
05
 10
87.547091
 20
134.262518
 30
0.0
 11
87.54676
 21
134.261649
 31
0.0
  0
LINE
  5
BC
  8
05
 10
87.54676
 20
134.261649
 30
0.0
 11
87.54676
 21
134.261649
 31
0.0
  0
LINE
  5
BD
  8
05
 10
87.531854
 20
148.214745
 30
0.0
 11
87.531647
 21
143.87165
 31
0.0
  0
LINE
  5
BE
  8
010
 10
104.877338
 20
124.993299
 30
0.0
 11
104.659778
 21
138.244188
 31
0.0
  0
LINE
  5
BF
  8
010
 10
103.831008
 20
138.244203
 30
0.0
 11
104.049306
 21
124.993313
 31
0.0
  0
LINE
  5
C0
  8
010
 10
92.039577
 20
124.993299
 30
0.0
 11
90.798485
 21
138.244188
 31
0.0
  0
LINE
  5
C1
  8
010
 10
90.254631
 20
124.993299
 30
0.0
 11
88.878741
 21
138.244188
 31
0.0
  0
LINE
  5
C2
  8
010
 10
90.41754
 20
138.244203
 30
0.0
 11
91.658971
 21
124.993313
 31
0.0
  0
LINE
  5
C3
  8
010
 10
88.747475
 20
138.244203
 30
0.0
 11
90.123482
 21
124.993313
 31
0.0
  0
LINE
  5
C4
  8
010
 10
94.892579
 20
128.091166
 30
0.0
 11
95.254419
 21
121.232541
 31
0.0
  0
LINE
  5
C5
  8
010
 10
99.565598
 20
121.250462
 30
0.0
 11
99.053283
 21
128.106836
 31
0.0
  0
LINE
  5
C6
  8
010
 10
94.692555
 20
134.291058
 30
0.0
 11
95.551181
 21
120.392648
 31
0.0
  0
LINE
  5
C7
  8
010
 10
96.74711
 20
110.863352
 30
0.0
 11
96.952537
 21
110.648692
 31
0.0
  0
LINE
  5
C8
  8
010
 10
96.717755
 20
110.731396
 30
0.0
 11
96.808556
 21
110.647705
 31
0.0
  0
LINE
  5
C9
  8
05
 10
96.631057
 20
109.785472
 30
0.0
 11
97.854061
 21
109.785472
 31
0.0
  0
LINE
  5
CA
  8
05
 10
96.666766
 20
109.785472
 30
0.0
 11
97.883266
 21
109.785472
 31
0.0
  0
LINE
  5
CB
  8
010
 10
95.602533
 20
113.866002
 30
0.0
 11
95.62561
 21
113.493376
 31
0.0
  0
LINE
  5
CC
  8
05
 10
88.863762
 20
121.089053
 30
0.0
 11
89.614591
 21
113.581786
 31
0.0
  0
LINE
  5
CD
  8
010
 10
93.262695
 20
111.934604
 30
0.0
 11
92.039577
 21
124.993299
 31
0.0
  0
LINE
  5
CE
  8
010
 10
91.610617
 20
111.934604
 30
0.0
 11
90.254631
 21
124.993299
 31
0.0
  0
LINE
  5
CF
  8
010
 10
91.658971
 20
124.993313
 30
0.0
 11
92.882481
 21
111.934604
 31
0.0
  0
LINE
  5
D0
  8
010
 10
90.123482
 20
124.993313
 30
0.0
 11
91.479605
 21
111.934604
 31
0.0
  0
LINE
  5
D1
  8
010
 10
95.551181
 20
120.392648
 30
0.0
 11
95.970153
 21
113.610826
 31
0.0
  0
ARC
  5
D2
  8
05
 10
93.731903
 20
112.185472
 30
0.0
 40
2.4
 50
217.855055
 51
270.0
  0
LINE
  5
D3
  8
05
 10
90.517053
 20
111.421726
 30
0.0
 11
91.082992
 21
110.864686
 31
0.0
  0
LINE
  5
D4
  8
010
 10
90.583255
 20
111.768002
 30
0.0
 11
90.933501
 21
111.484803
 31
0.0
  0
LINE
  5
D5
  8
05
 10
90.088353
 20
112.062801
 30
0.0
 11
90.517053
 21
111.421726
 31
0.0
  0
LINE
  5
D6
  8
05
 10
89.775333
 20
112.799415
 30
0.0
 11
90.088353
 21
112.062801
 31
0.0
  0
LINE
  5
D7
  8
010
 10
89.614587
 20
113.581872
 30
0.0
 11
89.775333
 21
112.799415
 31
0.0
  0
LINE
  5
D8
  8
010
 10
90.276191
 20
112.136563
 30
0.0
 11
90.583255
 21
111.768002
 31
0.0
  0
LINE
  5
D9
  8
010
 10
90.026985
 20
112.577238
 30
0.0
 11
90.276191
 21
112.136563
 31
0.0
  0
LINE
  5
DA
  8
010
 10
89.848292
 20
113.074541
 30
0.0
 11
90.026985
 21
112.577238
 31
0.0
  0
LINE
  5
DB
  8
010
 10
89.750309
 20
113.610826
 30
0.0
 11
89.848292
 21
113.074541
 31
0.0
  0
LINE
  5
DC
  8
010
 10
91.948742
 20
110.843004
 30
0.0
 11
91.95727
 21
110.816923
 31
0.0
  0
LINE
  5
DD
  8
010
 10
91.921726
 20
110.900418
 30
0.0
 11
91.948742
 21
110.843004
 31
0.0
  0
LINE
  5
DE
  8
010
 10
91.882723
 20
110.978697
 30
0.0
 11
91.921726
 21
110.900418
 31
0.0
  0
LINE
  5
DF
  8
010
 10
91.866649
 20
110.905185
 30
0.0
 11
91.837515
 21
110.947767
 31
0.0
  0
LINE
  5
E0
  8
010
 10
91.91004
 20
110.850137
 30
0.0
 11
91.866649
 21
110.905185
 31
0.0
  0
LINE
  5
E1
  8
010
 10
91.942518
 20
110.816894
 30
0.0
 11
91.91004
 21
110.850137
 31
0.0
  0
LINE
  5
E2
  8
010
 10
91.957178
 20
110.812938
 30
0.0
 11
91.942518
 21
110.816894
 31
0.0
  0
LINE
  5
E3
  8
010
 10
91.95727
 20
110.816923
 30
0.0
 11
91.957178
 21
110.812938
 31
0.0
  0
LINE
  5
E4
  8
010
 10
91.753525
 20
111.287605
 30
0.0
 11
91.872842
 21
111.002322
 31
0.0
  0
LINE
  5
E5
  8
010
 10
91.662358
 20
111.611958
 30
0.0
 11
91.753525
 21
111.287605
 31
0.0
  0
LINE
  5
E6
  8
010
 10
91.610617
 20
111.934604
 30
0.0
 11
91.662358
 21
111.611958
 31
0.0
  0
LINE
  5
E7
  8
010
 10
91.538395
 20
111.61109
 30
0.0
 11
91.483793
 21
111.911557
 31
0.0
  0
LINE
  5
E8
  8
010
 10
91.651185
 20
111.286806
 30
0.0
 11
91.538395
 21
111.61109
 31
0.0
  0
LINE
  5
E9
  8
010
 10
91.816354
 20
110.978697
 30
0.0
 11
91.651185
 21
111.286806
 31
0.0
  0
LINE
  5
EA
  8
05
 10
91.777006
 20
110.433388
 30
0.0
 11
92.372151
 21
110.22956
 31
0.0
  0
LINE
  5
EB
  8
05
 10
91.082992
 20
110.864686
 30
0.0
 11
91.777006
 21
110.433388
 31
0.0
  0
LINE
  5
EC
  8
010
 10
91.305936
 20
111.299954
 30
0.0
 11
91.534704
 21
111.250669
 31
0.0
  0
LINE
  5
ED
  8
010
 10
90.933501
 20
111.484803
 30
0.0
 11
91.305936
 21
111.299954
 31
0.0
  0
ARC
  5
EE
  8
010
 10
93.731903
 20
112.185472
 30
0.0
 40
2.4
 50
214.0
 51
217.855055
  0
ARC
  5
EF
  8
010
 10
93.731903
 20
112.185472
 30
0.0
 40
2.4
 50
212.641767
 51
214.0
  0
ARC
  5
F0
  8
010
 10
93.731903
 20
112.185472
 30
0.0
 40
2.4
 50
186.724398
 51
212.641767
  0
LINE
  5
F1
  8
010
 10
91.872842
 20
111.002322
 30
0.0
 11
91.882723
 21
110.978697
 31
0.0
  0
LINE
  5
F2
  8
05
 10
93.731903
 20
109.785472
 30
0.0
 11
95.747316
 21
109.785472
 31
0.0
  0
LINE
  5
F3
  8
05
 10
93.731903
 20
109.785472
 30
0.0
 11
95.766766
 21
109.785472
 31
0.0
  0
LINE
  5
F4
  8
010
 10
93.463629
 20
110.901764
 30
0.0
 11
93.468725
 21
110.869248
 31
0.0
  0
LINE
  5
F5
  8
010
 10
93.443522
 20
110.978697
 30
0.0
 11
93.463629
 21
110.901764
 31
0.0
  0
LINE
  5
F6
  8
010
 10
93.367851
 20
110.848742
 30
0.0
 11
93.310714
 21
110.904321
 31
0.0
  0
LINE
  5
F7
  8
010
 10
93.418377
 20
110.816013
 30
0.0
 11
93.367851
 21
110.848742
 31
0.0
  0
LINE
  5
F8
  8
010
 10
93.454533
 20
110.813457
 30
0.0
 11
93.418377
 21
110.816013
 31
0.0
  0
LINE
  5
F9
  8
010
 10
93.469215
 20
110.843642
 30
0.0
 11
93.454533
 21
110.813457
 31
0.0
  0
LINE
  5
FA
  8
010
 10
93.468725
 20
110.869248
 30
0.0
 11
93.469215
 21
110.843642
 31
0.0
  0
LINE
  5
FB
  8
010
 10
93.363291
 20
111.287605
 30
0.0
 11
93.43135
 21
111.025561
 31
0.0
  0
LINE
  5
FC
  8
010
 10
93.302547
 20
111.611958
 30
0.0
 11
93.363291
 21
111.287605
 31
0.0
  0
LINE
  5
FD
  8
010
 10
93.262695
 20
111.934604
 30
0.0
 11
93.302547
 21
111.611958
 31
0.0
  0
LINE
  5
FE
  8
010
 10
92.942377
 20
111.61109
 30
0.0
 11
92.882481
 21
111.934604
 31
0.0
  0
LINE
  5
FF
  8
010
 10
93.065661
 20
111.286806
 30
0.0
 11
92.942377
 21
111.61109
 31
0.0
  0
LINE
  5
100
  8
010
 10
93.25091
 20
110.978697
 30
0.0
 11
93.065661
 21
111.286806
 31
0.0
  0
LINE
  5
101
  8
010
 10
93.310714
 20
110.904321
 30
0.0
 11
93.25091
 21
110.978697
 31
0.0
  0
LINE
  5
102
  8
010
 10
93.43135
 20
111.025561
 30
0.0
 11
93.443522
 21
110.978697
 31
0.0
  0
LINE
  5
103
  8
010
 10
95.857983
 20
112.264111
 30
0.0
 11
95.972473
 21
111.934604
 31
0.0
  0
LINE
  5
104
  8
010
 10
95.77251
 20
112.567347
 30
0.0
 11
95.857983
 21
112.264111
 31
0.0
  0
LINE
  5
105
  8
010
 10
95.709549
 20
112.853846
 30
0.0
 11
95.77251
 21
112.567347
 31
0.0
  0
LINE
  5
106
  8
010
 10
95.661244
 20
113.154781
 30
0.0
 11
95.709549
 21
112.853846
 31
0.0
  0
LINE
  5
107
  8
010
 10
95.62561
 20
113.493376
 30
0.0
 11
95.661244
 21
113.154781
 31
0.0
  0
LINE
  5
108
  8
010
 10
96.427228
 20
111.35676
 30
0.0
 11
96.487196
 21
111.235927
 31
0.0
  0
LINE
  5
109
  8
010
 10
96.373582
 20
111.484667
 30
0.0
 11
96.427228
 21
111.35676
 31
0.0
  0
LINE
  5
10A
  8
010
 10
96.586817
 20
111.075098
 30
0.0
 11
96.74711
 21
110.863352
 31
0.0
  0
LINE
  5
10B
  8
010
 10
96.498882
 20
111.21706
 30
0.0
 11
96.586817
 21
111.075098
 31
0.0
  0
LINE
  5
10C
  8
010
 10
96.640047
 20
110.811409
 30
0.0
 11
96.717755
 21
110.731396
 31
0.0
  0
LINE
  5
10D
  8
010
 10
96.573505
 20
110.886626
 30
0.0
 11
96.640047
 21
110.811409
 31
0.0
  0
LINE
  5
10E
  8
010
 10
96.516368
 20
110.956191
 30
0.0
 11
96.573505
 21
110.886626
 31
0.0
  0
LINE
  5
10F
  8
010
 10
96.466205
 20
111.02145
 30
0.0
 11
96.516368
 21
110.956191
 31
0.0
  0
LINE
  5
110
  8
010
 10
96.421844
 20
111.083752
 30
0.0
 11
96.466205
 21
111.02145
 31
0.0
  0
LINE
  5
111
  8
010
 10
96.383105
 20
111.143584
 30
0.0
 11
96.421844
 21
111.083752
 31
0.0
  0
LINE
  5
112
  8
010
 10
96.276536
 20
111.768002
 30
0.0
 11
96.3622
 21
111.514295
 31
0.0
  0
LINE
  5
113
  8
010
 10
96.178303
 20
112.136563
 30
0.0
 11
96.276536
 21
111.768002
 31
0.0
  0
LINE
  5
114
  8
010
 10
96.089209
 20
112.577238
 30
0.0
 11
96.178303
 21
112.136563
 31
0.0
  0
LINE
  5
115
  8
010
 10
96.017687
 20
113.074541
 30
0.0
 11
96.089209
 21
112.577238
 31
0.0
  0
LINE
  5
116
  8
010
 10
95.970153
 20
113.610826
 30
0.0
 11
96.017687
 21
113.074541
 31
0.0
  0
LINE
  5
117
  8
010
 10
96.309322
 20
111.624093
 30
0.0
 11
96.338074
 21
111.563319
 31
0.0
  0
LINE
  5
118
  8
010
 10
96.262059
 20
111.359939
 30
0.0
 11
96.280841
 21
111.325984
 31
0.0
  0
LINE
  5
119
  8
010
 10
96.241905
 20
111.396674
 30
0.0
 11
96.262059
 21
111.359939
 31
0.0
  0
LINE
  5
11A
  8
010
 10
96.219886
 20
111.437239
 30
0.0
 11
96.241905
 21
111.396674
 31
0.0
  0
LINE
  5
11B
  8
010
 10
96.195555
 20
111.482651
 30
0.0
 11
96.219886
 21
111.437239
 31
0.0
  0
LINE
  5
11C
  8
010
 10
96.168995
 20
111.532981
 30
0.0
 11
96.195555
 21
111.482651
 31
0.0
  0
LINE
  5
11D
  8
010
 10
96.140569
 20
111.58778
 30
0.0
 11
96.168995
 21
111.532981
 31
0.0
  0
LINE
  5
11E
  8
010
 10
96.110471
 20
111.646908
 30
0.0
 11
96.140569
 21
111.58778
 31
0.0
  0
LINE
  5
11F
  8
010
 10
96.078661
 20
111.710706
 30
0.0
 11
96.110471
 21
111.646908
 31
0.0
  0
LINE
  5
120
  8
010
 10
96.045082
 20
111.779609
 30
0.0
 11
96.078661
 21
111.710706
 31
0.0
  0
LINE
  5
121
  8
010
 10
96.009688
 20
111.854088
 30
0.0
 11
96.045082
 21
111.779609
 31
0.0
  0
LINE
  5
122
  8
010
 10
95.972473
 20
111.934604
 30
0.0
 11
96.009688
 21
111.854088
 31
0.0
  0
LINE
  5
123
  8
05
 10
96.649609
 20
109.785472
 30
0.0
 11
96.649609
 21
109.635472
 31
0.0
  0
LINE
  5
124
  8
05
 10
95.747316
 20
109.785472
 30
0.0
 11
95.916756
 21
109.785472
 31
0.0
  0
LINE
  5
125
  8
05
 10
95.916756
 20
109.785472
 30
0.0
 11
96.613717
 21
109.785472
 31
0.0
  0
LINE
  5
126
  8
05
 10
96.613717
 20
109.785472
 30
0.0
 11
96.631057
 21
109.785472
 31
0.0
  0
LINE
  5
127
  8
05
 10
96.649609
 20
109.785472
 30
0.0
 11
96.666766
 21
109.785472
 31
0.0
  0
LINE
  5
128
  8
05
 10
95.766766
 20
109.785472
 30
0.0
 11
96.649609
 21
109.785472
 31
0.0
  0
LINE
  5
129
  8
010
 10
96.363874
 20
111.509881
 30
0.0
 11
96.373582
 21
111.484667
 31
0.0
  0
LINE
  5
12A
  8
010
 10
96.36303
 20
111.509507
 30
0.0
 11
96.366508
 21
111.501652
 31
0.0
  0
LINE
  5
12B
  8
010
 10
96.361121
 20
111.513817
 30
0.0
 11
96.36303
 21
111.509507
 31
0.0
  0
LINE
  5
12C
  8
010
 10
96.35894
 20
111.518743
 30
0.0
 11
96.361121
 21
111.513817
 31
0.0
  0
LINE
  5
12D
  8
010
 10
96.343032
 20
111.552965
 30
0.0
 11
96.35894
 21
111.518743
 31
0.0
  0
LINE
  5
12E
  8
010
 10
96.3622
 20
111.514295
 30
0.0
 11
96.363874
 21
111.509881
 31
0.0
  0
LINE
  5
12F
  8
010
 10
96.338074
 20
111.563319
 30
0.0
 11
96.343032
 21
111.552965
 31
0.0
  0
LINE
  5
130
  8
05
 10
95.766766
 20
109.785472
 30
0.0
 11
95.766766
 21
109.635472
 31
0.0
  0
LINE
  5
131
  8
05
 10
95.766766
 20
109.635472
 30
0.0
 11
96.649609
 21
109.635472
 31
0.0
  0
LINE
  5
132
  8
010
 10
95.254419
 20
121.232541
 30
0.0
 11
95.602533
 21
113.866002
 31
0.0
  0
LINE
  5
133
  8
010
 10
100.197912
 20
113.493376
 30
0.0
 11
100.174118
 21
113.866002
 31
0.0
  0
LINE
  5
134
  8
010
 10
104.049306
 20
124.993313
 30
0.0
 11
104.264509
 21
111.934604
 31
0.0
  0
LINE
  5
135
  8
05
 10
99.975663
 20
109.785472
 30
0.0
 11
102.645249
 21
109.785472
 31
0.0
  0
LINE
  5
136
  8
05
 10
99.999765
 20
109.785472
 30
0.0
 11
102.649812
 21
109.785472
 31
0.0
  0
LINE
  5
137
  8
010
 10
98.637292
 20
110.029539
 30
0.0
 11
98.892179
 21
110.042665
 31
0.0
  0
LINE
  5
138
  8
05
 10
97.854061
 20
109.785472
 30
0.0
 11
99.090177
 21
109.785472
 31
0.0
  0
LINE
  5
139
  8
05
 10
97.883266
 20
109.785472
 30
0.0
 11
99.099765
 21
109.785472
 31
0.0
  0
LINE
  5
13A
  8
010
 10
98.301376
 20
110.100037
 30
0.0
 11
98.500598
 21
110.089739
 31
0.0
  0
LINE
  5
13B
  8
010
 10
98.146128
 20
110.11906
 30
0.0
 11
98.296809
 21
110.100485
 31
0.0
  0
LINE
  5
13C
  8
010
 10
97.808112
 20
110.190459
 30
0.0
 11
98.146128
 21
110.11906
 31
0.0
  0
LINE
  5
13D
  8
010
 10
97.495405
 20
110.300987
 30
0.0
 11
97.808112
 21
110.190459
 31
0.0
  0
LINE
  5
13E
  8
010
 10
97.207297
 20
110.454631
 30
0.0
 11
97.495405
 21
110.300987
 31
0.0
  0
LINE
  5
13F
  8
010
 10
96.952537
 20
110.648692
 30
0.0
 11
97.207297
 21
110.454631
 31
0.0
  0
LINE
  5
140
  8
010
 10
98.055882
 20
110.085683
 30
0.0
 11
98.289988
 21
110.05251
 31
0.0
  0
LINE
  5
141
  8
010
 10
97.797642
 20
110.143727
 30
0.0
 11
98.055882
 21
110.085683
 31
0.0
  0
LINE
  5
142
  8
010
 10
97.567139
 20
110.215268
 30
0.0
 11
97.797642
 21
110.143727
 31
0.0
  0
LINE
  5
143
  8
010
 10
97.364664
 20
110.296668
 30
0.0
 11
97.567139
 21
110.215268
 31
0.0
  0
LINE
  5
144
  8
010
 10
97.190177
 20
110.383565
 30
0.0
 11
97.364664
 21
110.296668
 31
0.0
  0
LINE
  5
145
  8
010
 10
97.041496
 20
110.472459
 30
0.0
 11
97.190177
 21
110.383565
 31
0.0
  0
LINE
  5
146
  8
010
 10
96.915409
 20
110.561019
 30
0.0
 11
97.041496
 21
110.472459
 31
0.0
  0
LINE
  5
147
  8
010
 10
96.808556
 20
110.647705
 30
0.0
 11
96.915409
 21
110.561019
 31
0.0
  0
LINE
  5
148
  8
010
 10
98.343916
 20
110.044868
 30
0.0
 11
98.637292
 21
110.029539
 31
0.0
  0
LINE
  5
149
  8
010
 10
98.289988
 20
110.05251
 30
0.0
 11
98.343916
 21
110.044868
 31
0.0
  0
LINE
  5
14A
  8
010
 10
98.296786
 20
110.100484
 30
0.0
 11
98.301376
 21
110.100037
 31
0.0
  0
LINE
  5
14B
  8
010
 10
100.20047
 20
113.154781
 30
0.0
 11
100.197912
 21
113.493376
 31
0.0
  0
LINE
  5
14C
  8
010
 10
100.181209
 20
112.853846
 30
0.0
 11
100.20047
 21
113.154781
 31
0.0
  0
LINE
  5
14D
  8
010
 10
100.141112
 20
112.567347
 30
0.0
 11
100.181209
 21
112.853846
 31
0.0
  0
LINE
  5
14E
  8
010
 10
100.074942
 20
112.264111
 30
0.0
 11
100.141112
 21
112.567347
 31
0.0
  0
LINE
  5
14F
  8
010
 10
99.976538
 20
111.934604
 30
0.0
 11
100.074942
 21
112.264111
 31
0.0
  0
LINE
  5
150
  8
010
 10
99.913785
 20
111.778713
 30
0.0
 11
99.942786
 21
111.853679
 31
0.0
  0
LINE
  5
151
  8
010
 10
99.888888
 20
111.709259
 30
0.0
 11
99.913785
 21
111.778713
 31
0.0
  0
LINE
  5
152
  8
010
 10
99.867525
 20
111.644857
 30
0.0
 11
99.888888
 21
111.709259
 31
0.0
  0
LINE
  5
153
  8
010
 10
99.84922
 20
111.585103
 30
0.0
 11
99.867525
 21
111.644857
 31
0.0
  0
LINE
  5
154
  8
010
 10
99.833583
 20
111.529708
 30
0.0
 11
99.84922
 21
111.585103
 31
0.0
  0
LINE
  5
155
  8
010
 10
99.820407
 20
111.478941
 30
0.0
 11
99.833583
 21
111.529708
 31
0.0
  0
LINE
  5
156
  8
010
 10
98.883804
 20
110.141173
 30
0.0
 11
99.010079
 21
110.195991
 31
0.0
  0
LINE
  5
157
  8
010
 10
99.754203
 20
111.053668
 30
0.0
 11
99.761951
 21
111.105192
 31
0.0
  0
LINE
  5
158
  8
010
 10
99.745055
 20
110.999678
 30
0.0
 11
99.754203
 21
111.053668
 31
0.0
  0
LINE
  5
159
  8
010
 10
99.73492
 20
110.942799
 30
0.0
 11
99.745055
 21
110.999678
 31
0.0
  0
LINE
  5
15A
  8
010
 10
99.723937
 20
110.882074
 30
0.0
 11
99.73492
 21
110.942799
 31
0.0
  0
LINE
  5
15B
  8
010
 10
99.711643
 20
110.8166
 30
0.0
 11
99.723937
 21
110.882074
 31
0.0
  0
LINE
  5
15C
  8
010
 10
99.696986
 20
110.746283
 30
0.0
 11
99.711643
 21
110.8166
 31
0.0
  0
LINE
  5
15D
  8
010
 10
99.678752
 20
110.671668
 30
0.0
 11
99.696986
 21
110.746283
 31
0.0
  0
LINE
  5
15E
  8
010
 10
99.655395
 20
110.593697
 30
0.0
 11
99.678752
 21
110.671668
 31
0.0
  0
LINE
  5
15F
  8
010
 10
99.624963
 20
110.513358
 30
0.0
 11
99.655395
 21
110.593697
 31
0.0
  0
LINE
  5
160
  8
010
 10
99.585163
 20
110.431926
 30
0.0
 11
99.624963
 21
110.513358
 31
0.0
  0
LINE
  5
161
  8
010
 10
99.533173
 20
110.350918
 30
0.0
 11
99.585163
 21
110.431926
 31
0.0
  0
LINE
  5
162
  8
010
 10
99.464925
 20
110.272161
 30
0.0
 11
99.533173
 21
110.350918
 31
0.0
  0
LINE
  5
163
  8
010
 10
99.374392
 20
110.198187
 30
0.0
 11
99.464925
 21
110.272161
 31
0.0
  0
LINE
  5
164
  8
010
 10
99.253943
 20
110.132374
 30
0.0
 11
99.374392
 21
110.198187
 31
0.0
  0
LINE
  5
165
  8
010
 10
99.095641
 20
110.078932
 30
0.0
 11
99.253943
 21
110.132374
 31
0.0
  0
LINE
  5
166
  8
010
 10
98.892179
 20
110.042665
 30
0.0
 11
99.095641
 21
110.078932
 31
0.0
  0
LINE
  5
167
  8
05
 10
99.090177
 20
109.785472
 30
0.0
 11
99.975663
 21
109.785472
 31
0.0
  0
LINE
  5
168
  8
05
 10
99.26288
 20
109.785472
 30
0.0
 11
99.999765
 21
109.785472
 31
0.0
  0
LINE
  5
169
  8
05
 10
99.099765
 20
109.785472
 30
0.0
 11
99.26288
 21
109.785472
 31
0.0
  0
LINE
  5
16A
  8
05
 10
102.645249
 20
109.785472
 30
0.0
 11
102.792887
 21
109.785472
 31
0.0
  0
LINE
  5
16B
  8
010
 10
104.566786
 20
110.905185
 30
0.0
 11
104.516796
 21
110.978697
 31
0.0
  0
LINE
  5
16C
  8
010
 10
104.626255
 20
110.850137
 30
0.0
 11
104.566786
 21
110.905185
 31
0.0
  0
LINE
  5
16D
  8
010
 10
104.695635
 20
110.816894
 30
0.0
 11
104.626255
 21
110.850137
 31
0.0
  0
LINE
  5
16E
  8
010
 10
104.771729
 20
110.812938
 30
0.0
 11
104.695635
 21
110.816894
 31
0.0
  0
LINE
  5
16F
  8
010
 10
104.841896
 20
110.843004
 30
0.0
 11
104.771729
 21
110.812938
 31
0.0
  0
LINE
  5
170
  8
010
 10
104.896444
 20
110.900418
 30
0.0
 11
104.841896
 21
110.843004
 31
0.0
  0
LINE
  5
171
  8
010
 10
104.935837
 20
110.978697
 30
0.0
 11
104.896444
 21
110.900418
 31
0.0
  0
LINE
  5
172
  8
010
 10
104.294934
 20
111.61109
 30
0.0
 11
104.264509
 21
111.934604
 31
0.0
  0
LINE
  5
173
  8
010
 10
104.379077
 20
111.286806
 30
0.0
 11
104.294934
 21
111.61109
 31
0.0
  0
LINE
  5
174
  8
010
 10
104.516796
 20
110.978697
 30
0.0
 11
104.379077
 21
111.286806
 31
0.0
  0
LINE
  5
175
  8
010
 10
100.174118
 20
113.866002
 30
0.0
 11
99.565598
 21
121.250462
 31
0.0
  0
LINE
  5
176
  8
010
 10
96.852962
 20
143.735628
 30
0.0
 11
96.726802
 21
144.839749
 31
0.0
  0
LINE
  5
177
  8
010
 10
94.675197
 20
141.243734
 30
0.0
 11
94.673767
 21
134.571039
 31
0.0
  0
LINE
  5
178
  8
010
 10
94.547332
 20
138.384536
 30
0.0
 11
94.540891
 21
136.623947
 31
0.0
  0
LINE
  5
179
  8
010
 10
88.975856
 20
134.475983
 30
0.0
 11
88.940497
 21
134.470557
 31
0.0
  0
LINE
  5
17A
  8
010
 10
94.530093
 20
134.321968
 30
0.0
 11
94.892579
 21
128.091166
 31
0.0
  0
LINE
  5
17B
  8
010
 10
94.540891
 20
136.623947
 30
0.0
 11
94.515986
 21
134.634294
 31
0.0
  0
LINE
  5
17C
  8
010
 10
94.518104
 20
134.528045
 30
0.0
 11
94.530093
 21
134.321968
 31
0.0
  0
LINE
  5
17D
  8
010
 10
94.674001
 20
134.525781
 30
0.0
 11
94.681018
 21
134.33075
 31
0.0
  0
LINE
  5
17E
  8
010
 10
95.803302
 20
134.384196
 30
0.0
 11
95.808092
 21
134.291058
 31
0.0
  0
LINE
  5
17F
  8
010
 10
95.800426
 20
134.47756
 30
0.0
 11
95.803302
 21
134.384196
 31
0.0
  0
LINE
  5
180
  8
010
 10
95.799467
 20
134.571039
 30
0.0
 11
95.800426
 21
134.47756
 31
0.0
  0
LINE
  5
181
  8
010
 10
94.672264
 20
147.453781
 30
0.0
 11
94.675197
 21
141.243734
 31
0.0
  0
LINE
  5
182
  8
010
 10
94.509692
 20
142.778112
 30
0.0
 11
94.526676
 21
141.444191
 31
0.0
  0
LINE
  5
183
  8
010
 10
94.541127
 20
139.976651
 30
0.0
 11
94.547332
 21
138.384536
 31
0.0
  0
LINE
  5
184
  8
010
 10
94.526676
 20
141.444191
 30
0.0
 11
94.541127
 21
139.976651
 31
0.0
  0
LINE
  5
185
  8
010
 10
94.671269
 20
148.413972
 30
0.0
 11
94.672264
 21
147.453781
 31
0.0
  0
LINE
  5
186
  8
010
 10
94.493955
 20
143.991254
 30
0.0
 11
94.509692
 21
142.778112
 31
0.0
  0
LINE
  5
187
  8
010
 10
94.481038
 20
145.100655
 30
0.0
 11
94.493955
 21
143.991254
 31
0.0
  0
LINE
  5
188
  8
010
 10
94.47098
 20
146.123731
 30
0.0
 11
94.481038
 21
145.100655
 31
0.0
  0
LINE
  5
189
  8
010
 10
94.463619
 20
147.077971
 30
0.0
 11
94.47098
 21
146.123731
 31
0.0
  0
LINE
  5
18A
  8
010
 10
94.458669
 20
147.981307
 30
0.0
 11
94.463619
 21
147.077971
 31
0.0
  0
LINE
  5
18B
  8
010
 10
96.417825
 20
147.523218
 30
0.0
 11
96.328538
 21
148.275643
 31
0.0
  0
LINE
  5
18C
  8
010
 10
96.512564
 20
146.709894
 30
0.0
 11
96.417825
 21
147.523218
 31
0.0
  0
LINE
  5
18D
  8
010
 10
96.614414
 20
145.823292
 30
0.0
 11
96.512564
 21
146.709894
 31
0.0
  0
LINE
  5
18E
  8
010
 10
96.726802
 20
144.839749
 30
0.0
 11
96.614414
 21
145.823292
 31
0.0
  0
LINE
  5
18F
  8
010
 10
97.897196
 20
136.383545
 30
0.0
 11
97.727023
 21
137.415228
 31
0.0
  0
LINE
  5
190
  8
010
 10
98.327856
 20
136.44647
 30
0.0
 11
98.178811
 21
137.478038
 31
0.0
  0
LINE
  5
191
  8
010
 10
98.646372
 20
128.082095
 30
0.0
 11
98.215174
 21
134.506834
 31
0.0
  0
LINE
  5
192
  8
010
 10
99.053283
 20
128.106836
 30
0.0
 11
98.618853
 21
134.528045
 31
0.0
  0
LINE
  5
193
  8
010
 10
98.611797
 20
134.599166
 30
0.0
 11
98.606688
 21
134.634294
 31
0.0
  0
LINE
  5
194
  8
010
 10
98.615913
 20
134.563713
 30
0.0
 11
98.611797
 21
134.599166
 31
0.0
  0
LINE
  5
195
  8
010
 10
98.618853
 20
134.528045
 30
0.0
 11
98.615913
 21
134.563713
 31
0.0
  0
LINE
  5
196
  8
010
 10
98.058474
 20
135.438845
 30
0.0
 11
97.897196
 21
136.383545
 31
0.0
  0
LINE
  5
197
  8
010
 10
98.204068
 20
134.571067
 30
0.0
 11
98.058474
 21
135.438845
 31
0.0
  0
LINE
  5
198
  8
010
 10
98.470825
 20
135.501831
 30
0.0
 11
98.327856
 21
136.44647
 31
0.0
  0
LINE
  5
199
  8
010
 10
98.606688
 20
134.634294
 30
0.0
 11
98.470825
 21
135.501831
 31
0.0
  0
LINE
  5
19A
  8
010
 10
96.999366
 20
142.486827
 30
0.0
 11
96.852962
 21
143.735628
 31
0.0
  0
LINE
  5
19B
  8
010
 10
97.532354
 20
142.549098
 30
0.0
 11
97.384542
 21
143.797662
 31
0.0
  0
LINE
  5
19C
  8
010
 10
97.172986
 20
141.124072
 30
0.0
 11
96.999366
 21
142.486827
 31
0.0
  0
LINE
  5
19D
  8
010
 10
97.361004
 20
139.784092
 30
0.0
 11
97.172986
 21
141.124072
 31
0.0
  0
LINE
  5
19E
  8
010
 10
97.548934
 20
138.543775
 30
0.0
 11
97.361004
 21
139.784092
 31
0.0
  0
LINE
  5
19F
  8
010
 10
97.727023
 20
137.415228
 30
0.0
 11
97.548934
 21
138.543775
 31
0.0
  0
LINE
  5
1A0
  8
010
 10
97.69541
 20
141.186561
 30
0.0
 11
97.532354
 21
142.549098
 31
0.0
  0
LINE
  5
1A1
  8
010
 10
97.86146
 20
139.846749
 30
0.0
 11
97.69541
 21
141.186561
 31
0.0
  0
LINE
  5
1A2
  8
010
 10
98.023494
 20
138.606469
 30
0.0
 11
97.86146
 21
139.846749
 31
0.0
  0
LINE
  5
1A3
  8
010
 10
98.178811
 20
137.478038
 30
0.0
 11
98.023494
 21
138.606469
 31
0.0
  0
LINE
  5
1A4
  8
010
 10
96.924163
 20
147.585137
 30
0.0
 11
96.829143
 21
148.337646
 31
0.0
  0
LINE
  5
1A5
  8
010
 10
97.0254
 20
146.771757
 30
0.0
 11
96.924163
 21
147.585137
 31
0.0
  0
LINE
  5
1A6
  8
010
 10
97.134069
 20
145.885139
 30
0.0
 11
97.0254
 21
146.771757
 31
0.0
  0
LINE
  5
1A7
  8
010
 10
97.252857
 20
144.901643
 30
0.0
 11
97.134069
 21
145.885139
 31
0.0
  0
LINE
  5
1A8
  8
010
 10
97.384542
 20
143.797662
 30
0.0
 11
97.252857
 21
144.901643
 31
0.0
  0
LINE
  5
1A9
  8
BEM1
  6
BYBLOCK
 10
84.400219
 20
178.785472
 30
0.0
 11
65.333931
 21
178.785472
 31
0.0
  0
SOLID
  5
1AA
  8
BEM1
  6
BYBLOCK
 10
66.396431
 20
175.285472
 30
0.0
 11
67.271431
 21
175.285472
 31
0.0
 12
66.833931
 22
178.785472
 32
0.0
 13
66.833931
 23
178.785472
 33
0.0
  0
LINE
  5
1AB
  8
BEM1
  6
BYBLOCK
 10
85.399609
 20
181.986611
 30
0.0
 11
85.399609
 21
203.103448
 31
0.0
  0
LINE
  5
1AC
  8
010
 10
87.868497
 20
177.285472
 30
0.0
 11
89.185344
 21
177.285472
 31
0.0
  0
LINE
  5
1AD
  8
010
 10
87.884321
 20
165.976458
 30
0.0
 11
89.200366
 21
165.976458
 31
0.0
  0
LINE
  5
1AE
  8
05
 10
86.149609
 20
177.285472
 30
0.0
 11
86.149609
 21
166.394996
 31
0.0
  0
LINE
  5
1AF
  8
05
 10
86.149609
 20
177.285472
 30
0.0
 11
86.149609
 21
166.394996
 31
0.0
  0
LINE
  5
1B0
  8
010
 10
86.839198
 20
160.108601
 30
0.0
 11
86.841712
 21
160.080942
 31
0.0
  0
LINE
  5
1B1
  8
010
 10
86.818033
 20
160.082314
 30
0.0
 11
86.816703
 21
160.109941
 31
0.0
  0
LINE
  5
1B2
  8
05
 10
86.35939
 20
163.185472
 30
0.0
 11
87.14925
 21
151.889947
 31
0.0
  0
LINE
  5
1B3
  8
010
 10
87.464891
 20
151.889947
 30
0.0
 11
87.243247
 21
154.842502
 31
0.0
  0
LINE
  5
1B4
  8
010
 10
87.144728
 20
154.842575
 30
0.0
 11
87.334644
 21
151.889947
 31
0.0
  0
LINE
  5
1B5
  8
010
 10
87.473484
 20
151.785543
 30
0.0
 11
87.483556
 21
151.681315
 31
0.0
  0
LINE
  5
1B6
  8
010
 10
87.464891
 20
151.889947
 30
0.0
 11
87.473484
 21
151.785543
 31
0.0
  0
LINE
  5
1B7
  8
010
 10
87.342397
 20
151.785543
 30
0.0
 11
87.334644
 21
151.889947
 31
0.0
  0
LINE
  5
1B8
  8
010
 10
87.35219
 20
151.681315
 30
0.0
 11
87.342397
 21
151.785543
 31
0.0
  0
LINE
  5
1B9
  8
05
 10
87.14925
 20
151.889947
 30
0.0
 11
87.167503
 21
151.681315
 31
0.0
  0
LINE
  5
1BA
  8
010
 10
87.005765
 20
158.012179
 30
0.0
 11
87.020355
 21
157.817703
 31
0.0
  0
LINE
  5
1BB
  8
010
 10
86.992279
 20
158.19104
 30
0.0
 11
87.005765
 21
158.012179
 31
0.0
  0
LINE
  5
1BC
  8
010
 10
86.979803
 20
158.3557
 30
0.0
 11
86.992279
 21
158.19104
 31
0.0
  0
LINE
  5
1BD
  8
010
 10
86.968238
 20
158.507542
 30
0.0
 11
86.979803
 21
158.3557
 31
0.0
  0
LINE
  5
1BE
  8
010
 10
86.957489
 20
158.647965
 30
0.0
 11
86.968238
 21
158.507542
 31
0.0
  0
LINE
  5
1BF
  8
010
 10
86.947465
 20
158.778219
 30
0.0
 11
86.957489
 21
158.647965
 31
0.0
  0
LINE
  5
1C0
  8
010
 10
86.93811
 20
158.899127
 30
0.0
 11
86.947465
 21
158.778219
 31
0.0
  0
LINE
  5
1C1
  8
010
 10
86.929386
 20
159.011263
 30
0.0
 11
86.93811
 21
158.899127
 31
0.0
  0
LINE
  5
1C2
  8
010
 10
86.921253
 20
159.115204
 30
0.0
 11
86.929386
 21
159.011263
 31
0.0
  0
LINE
  5
1C3
  8
010
 10
86.913672
 20
159.211534
 30
0.0
 11
86.921253
 21
159.115204
 31
0.0
  0
LINE
  5
1C4
  8
010
 10
86.906601
 20
159.300835
 30
0.0
 11
86.913672
 21
159.211534
 31
0.0
  0
LINE
  5
1C5
  8
010
 10
86.900001
 20
159.383689
 30
0.0
 11
86.906601
 21
159.300835
 31
0.0
  0
LINE
  5
1C6
  8
010
 10
86.893827
 20
159.460688
 30
0.0
 11
86.900001
 21
159.383689
 31
0.0
  0
LINE
  5
1C7
  8
010
 10
86.888043
 20
159.532355
 30
0.0
 11
86.893827
 21
159.460688
 31
0.0
  0
LINE
  5
1C8
  8
010
 10
86.882622
 20
159.599049
 30
0.0
 11
86.888043
 21
159.532355
 31
0.0
  0
LINE
  5
1C9
  8
010
 10
86.877549
 20
159.661031
 30
0.0
 11
86.882622
 21
159.599049
 31
0.0
  0
LINE
  5
1CA
  8
010
 10
86.872804
 20
159.718568
 30
0.0
 11
86.877549
 21
159.661031
 31
0.0
  0
LINE
  5
1CB
  8
010
 10
86.868369
 20
159.771929
 30
0.0
 11
86.872804
 21
159.718568
 31
0.0
  0
LINE
  5
1CC
  8
010
 10
86.864225
 20
159.821384
 30
0.0
 11
86.868369
 21
159.771929
 31
0.0
  0
LINE
  5
1CD
  8
010
 10
86.860353
 20
159.867205
 30
0.0
 11
86.864225
 21
159.821384
 31
0.0
  0
LINE
  5
1CE
  8
010
 10
86.856734
 20
159.909662
 30
0.0
 11
86.860353
 21
159.867205
 31
0.0
  0
LINE
  5
1CF
  8
010
 10
86.853347
 20
159.949027
 30
0.0
 11
86.856734
 21
159.909662
 31
0.0
  0
LINE
  5
1D0
  8
010
 10
86.850172
 20
159.985569
 30
0.0
 11
86.853347
 21
159.949027
 31
0.0
  0
LINE
  5
1D1
  8
010
 10
86.847188
 20
160.019564
 30
0.0
 11
86.850172
 21
159.985569
 31
0.0
  0
LINE
  5
1D2
  8
010
 10
86.844373
 20
160.051292
 30
0.0
 11
86.847188
 21
160.019564
 31
0.0
  0
LINE
  5
1D3
  8
010
 10
86.841712
 20
160.080942
 30
0.0
 11
86.844373
 21
160.051292
 31
0.0
  0
LINE
  5
1D4
  8
010
 10
86.819487
 20
160.052809
 30
0.0
 11
86.818033
 21
160.082314
 31
0.0
  0
LINE
  5
1D5
  8
010
 10
86.821082
 20
160.021114
 30
0.0
 11
86.819487
 21
160.052809
 31
0.0
  0
LINE
  5
1D6
  8
010
 10
86.822831
 20
159.986988
 30
0.0
 11
86.821082
 21
160.021114
 31
0.0
  0
LINE
  5
1D7
  8
010
 10
86.824751
 20
159.950189
 30
0.0
 11
86.822831
 21
159.986988
 31
0.0
  0
LINE
  5
1D8
  8
010
 10
86.826857
 20
159.910477
 30
0.0
 11
86.824751
 21
159.950189
 31
0.0
  0
LINE
  5
1D9
  8
010
 10
86.829164
 20
159.86761
 30
0.0
 11
86.826857
 21
159.910477
 31
0.0
  0
LINE
  5
1DA
  8
010
 10
86.831688
 20
159.821345
 30
0.0
 11
86.829164
 21
159.86761
 31
0.0
  0
LINE
  5
1DB
  8
010
 10
86.834447
 20
159.771443
 30
0.0
 11
86.831688
 21
159.821345
 31
0.0
  0
LINE
  5
1DC
  8
010
 10
86.837456
 20
159.717662
 30
0.0
 11
86.834447
 21
159.771443
 31
0.0
  0
LINE
  5
1DD
  8
010
 10
86.840733
 20
159.659764
 30
0.0
 11
86.837456
 21
159.717662
 31
0.0
  0
LINE
  5
1DE
  8
010
 10
86.844294
 20
159.597515
 30
0.0
 11
86.840733
 21
159.659764
 31
0.0
  0
LINE
  5
1DF
  8
010
 10
86.848157
 20
159.530659
 30
0.0
 11
86.844294
 21
159.597515
 31
0.0
  0
LINE
  5
1E0
  8
010
 10
86.852348
 20
159.458814
 30
0.0
 11
86.848157
 21
159.530659
 31
0.0
  0
LINE
  5
1E1
  8
010
 10
86.856901
 20
159.381468
 30
0.0
 11
86.852348
 21
159.458814
 31
0.0
  0
LINE
  5
1E2
  8
010
 10
86.861849
 20
159.298108
 30
0.0
 11
86.856901
 21
159.381468
 31
0.0
  0
LINE
  5
1E3
  8
010
 10
86.867229
 20
159.20822
 30
0.0
 11
86.861849
 21
159.298108
 31
0.0
  0
LINE
  5
1E4
  8
010
 10
86.873075
 20
159.111292
 30
0.0
 11
86.867229
 21
159.20822
 31
0.0
  0
LINE
  5
1E5
  8
010
 10
86.879423
 20
159.006813
 30
0.0
 11
86.873075
 21
159.111292
 31
0.0
  0
LINE
  5
1E6
  8
010
 10
86.886309
 20
158.894274
 30
0.0
 11
86.879423
 21
159.006813
 31
0.0
  0
LINE
  5
1E7
  8
010
 10
86.893771
 20
158.773155
 30
0.0
 11
86.886309
 21
158.894274
 31
0.0
  0
LINE
  5
1E8
  8
010
 10
86.901855
 20
158.642788
 30
0.0
 11
86.893771
 21
158.773155
 31
0.0
  0
LINE
  5
1E9
  8
010
 10
86.910626
 20
158.502212
 30
0.0
 11
86.901855
 21
158.642788
 31
0.0
  0
LINE
  5
1EA
  8
010
 10
86.920154
 20
158.350419
 30
0.0
 11
86.910626
 21
158.502212
 31
0.0
  0
LINE
  5
1EB
  8
010
 10
86.930509
 20
158.186404
 30
0.0
 11
86.920154
 21
158.350419
 31
0.0
  0
LINE
  5
1EC
  8
010
 10
86.941763
 20
158.009166
 30
0.0
 11
86.930509
 21
158.186404
 31
0.0
  0
LINE
  5
1ED
  8
010
 10
86.953986
 20
157.817703
 30
0.0
 11
86.941763
 21
158.009166
 31
0.0
  0
LINE
  5
1EE
  8
010
 10
87.243247
 20
154.842502
 30
0.0
 11
87.020355
 21
157.817703
 31
0.0
  0
LINE
  5
1EF
  8
010
 10
86.953986
 20
157.817703
 30
0.0
 11
87.144728
 21
154.842575
 31
0.0
  0
LINE
  5
1F0
  8
010
 10
87.192441
 20
155.52067
 30
0.0
 11
86.953986
 21
157.817703
 31
0.0
  0
LINE
  5
1F1
  8
05
 10
86.164225
 20
165.976458
 30
0.0
 11
86.35939
 21
163.185472
 31
0.0
  0
LINE
  5
1F2
  8
05
 10
86.164225
 20
165.976458
 30
0.0
 11
86.35939
 21
163.185472
 31
0.0
  0
LINE
  5
1F3
  8
010
 10
86.836825
 20
160.134365
 30
0.0
 11
86.839198
 21
160.108601
 31
0.0
  0
LINE
  5
1F4
  8
010
 10
86.834585
 20
160.158345
 30
0.0
 11
86.836825
 21
160.134365
 31
0.0
  0
LINE
  5
1F5
  8
010
 10
86.832468
 20
160.180664
 30
0.0
 11
86.834585
 21
160.158345
 31
0.0
  0
LINE
  5
1F6
  8
010
 10
86.830462
 20
160.201452
 30
0.0
 11
86.832468
 21
160.180664
 31
0.0
  0
LINE
  5
1F7
  8
010
 10
86.828556
 20
160.220843
 30
0.0
 11
86.830462
 21
160.201452
 31
0.0
  0
LINE
  5
1F8
  8
010
 10
86.826737
 20
160.238971
 30
0.0
 11
86.828556
 21
160.220843
 31
0.0
  0
LINE
  5
1F9
  8
010
 10
86.825856
 20
160.247603
 30
0.0
 11
86.826737
 21
160.238971
 31
0.0
  0
LINE
  5
1FA
  8
010
 10
86.824991
 20
160.255969
 30
0.0
 11
86.825856
 21
160.247603
 31
0.0
  0
LINE
  5
1FB
  8
010
 10
86.823304
 20
160.271967
 30
0.0
 11
86.824991
 21
160.255969
 31
0.0
  0
LINE
  5
1FC
  8
010
 10
86.821658
 20
160.287086
 30
0.0
 11
86.823304
 21
160.271967
 31
0.0
  0
LINE
  5
1FD
  8
010
 10
86.820036
 20
160.301433
 30
0.0
 11
86.821658
 21
160.287086
 31
0.0
  0
LINE
  5
1FE
  8
010
 10
86.818408
 20
160.315157
 30
0.0
 11
86.820036
 21
160.301433
 31
0.0
  0
LINE
  5
1FF
  8
010
 10
86.816728
 20
160.328423
 30
0.0
 11
86.818408
 21
160.315157
 31
0.0
  0
LINE
  5
200
  8
010
 10
86.815004
 20
160.340769
 30
0.0
 11
86.816728
 21
160.328423
 31
0.0
  0
LINE
  5
201
  8
010
 10
86.813274
 20
160.351309
 30
0.0
 11
86.815004
 21
160.340769
 31
0.0
  0
LINE
  5
202
  8
010
 10
86.811475
 20
160.359008
 30
0.0
 11
86.813274
 21
160.351309
 31
0.0
  0
LINE
  5
203
  8
010
 10
86.809838
 20
160.359742
 30
0.0
 11
86.811475
 21
160.359008
 31
0.0
  0
LINE
  5
204
  8
010
 10
86.80898
 20
160.352362
 30
0.0
 11
86.809838
 21
160.359742
 31
0.0
  0
LINE
  5
205
  8
010
 10
86.808674
 20
160.341763
 30
0.0
 11
86.80898
 21
160.352362
 31
0.0
  0
LINE
  5
206
  8
010
 10
86.808648
 20
160.329774
 30
0.0
 11
86.808674
 21
160.341763
 31
0.0
  0
LINE
  5
207
  8
010
 10
86.80879
 20
160.317114
 30
0.0
 11
86.808648
 21
160.329774
 31
0.0
  0
LINE
  5
208
  8
010
 10
86.80905
 20
160.303744
 30
0.0
 11
86.80879
 21
160.317114
 31
0.0
  0
LINE
  5
209
  8
010
 10
86.809407
 20
160.289614
 30
0.0
 11
86.80905
 21
160.303744
 31
0.0
  0
LINE
  5
20A
  8
010
 10
86.809851
 20
160.27463
 30
0.0
 11
86.809407
 21
160.289614
 31
0.0
  0
LINE
  5
20B
  8
010
 10
86.810379
 20
160.25868
 30
0.0
 11
86.809851
 21
160.27463
 31
0.0
  0
LINE
  5
20C
  8
010
 10
86.810993
 20
160.24164
 30
0.0
 11
86.810379
 21
160.25868
 31
0.0
  0
LINE
  5
20D
  8
010
 10
86.811695
 20
160.223382
 30
0.0
 11
86.810993
 21
160.24164
 31
0.0
  0
LINE
  5
20E
  8
010
 10
86.81249
 20
160.20378
 30
0.0
 11
86.811695
 21
160.223382
 31
0.0
  0
LINE
  5
20F
  8
010
 10
86.813384
 20
160.18272
 30
0.0
 11
86.81249
 21
160.20378
 31
0.0
  0
LINE
  5
210
  8
010
 10
86.814381
 20
160.160105
 30
0.0
 11
86.813384
 21
160.18272
 31
0.0
  0
LINE
  5
211
  8
010
 10
86.815486
 20
160.135859
 30
0.0
 11
86.814381
 21
160.160105
 31
0.0
  0
LINE
  5
212
  8
010
 10
86.816703
 20
160.109941
 30
0.0
 11
86.815486
 21
160.135859
 31
0.0
  0
LINE
  5
213
  8
010
 10
86.355613
 20
165.976458
 30
0.0
 11
86.929797
 21
165.976458
 31
0.0
  0
LINE
  5
214
  8
010
 10
86.164225
 20
165.976458
 30
0.0
 11
86.355613
 21
165.976458
 31
0.0
  0
LINE
  5
215
  8
05
 10
86.149609
 20
166.394996
 30
0.0
 11
86.164225
 21
165.976458
 31
0.0
  0
LINE
  5
216
  8
05
 10
86.149609
 20
166.394996
 30
0.0
 11
86.164225
 21
165.976458
 31
0.0
  0
LINE
  5
217
  8
010
 10
86.929797
 20
165.976458
 30
0.0
 11
87.884321
 21
165.976458
 31
0.0
  0
ARC
  5
218
  8
05
 10
87.649609
 20
177.285472
 30
0.0
 40
1.5
 50
90.0
 51
180.0
  0
ARC
  5
219
  8
05
 10
87.649609
 20
177.285472
 30
0.0
 40
1.5
 50
90.0
 51
180.0
  0
LINE
  5
21A
  8
010
 10
86.340137
 20
177.285472
 30
0.0
 11
86.914539
 21
177.285472
 31
0.0
  0
LINE
  5
21B
  8
010
 10
86.149609
 20
177.285472
 30
0.0
 11
86.340137
 21
177.285472
 31
0.0
  0
LINE
  5
21C
  8
010
 10
86.914539
 20
177.285472
 30
0.0
 11
87.868497
 21
177.285472
 31
0.0
  0
LINE
  5
21D
  8
05
 10
87.649609
 20
178.785472
 30
0.0
 11
88.38771
 21
178.785472
 31
0.0
  0
LINE
  5
21E
  8
05
 10
88.38771
 20
178.785472
 30
0.0
 11
88.439496
 21
178.785472
 31
0.0
  0
LINE
  5
21F
  8
05
 10
88.359644
 20
178.785472
 30
0.0
 11
88.399809
 21
178.785472
 31
0.0
  0
LINE
  5
220
  8
05
 10
87.649609
 20
178.785472
 30
0.0
 11
88.359644
 21
178.785472
 31
0.0
  0
LINE
  5
221
  8
05
 10
102.649609
 20
167.385472
 30
0.0
 11
102.649609
 21
175.208856
 31
0.0
  0
LINE
  5
222
  8
010
 10
95.028047
 20
165.976458
 30
0.0
 11
97.481025
 21
165.976458
 31
0.0
  0
LINE
  5
223
  8
010
 10
95.003932
 20
160.117802
 30
0.0
 11
94.985578
 21
160.07279
 31
0.0
  0
LINE
  5
224
  8
010
 10
95.119155
 20
160.086112
 30
0.0
 11
95.098953
 21
160.126623
 31
0.0
  0
LINE
  5
225
  8
010
 10
94.942788
 20
160.114658
 30
0.0
 11
94.916606
 21
160.062159
 31
0.0
  0
LINE
  5
226
  8
010
 10
95.189946
 20
160.08025
 30
0.0
 11
95.160023
 21
160.127979
 31
0.0
  0
LINE
  5
227
  8
010
 10
88.849755
 20
160.108601
 30
0.0
 11
88.853202
 21
160.080942
 31
0.0
  0
LINE
  5
228
  8
010
 10
88.784675
 20
160.082314
 30
0.0
 11
88.784656
 21
160.109941
 31
0.0
  0
LINE
  5
229
  8
010
 10
89.522016
 20
151.889947
 30
0.0
 11
89.290335
 21
154.842502
 31
0.0
  0
LINE
  5
22A
  8
010
 10
89.004431
 20
154.842575
 30
0.0
 11
89.144023
 21
151.889947
 31
0.0
  0
LINE
  5
22B
  8
010
 10
89.530607
 20
151.785543
 30
0.0
 11
89.539973
 21
151.681315
 31
0.0
  0
LINE
  5
22C
  8
010
 10
89.522016
 20
151.889947
 30
0.0
 11
89.530607
 21
151.785543
 31
0.0
  0
LINE
  5
22D
  8
010
 10
89.150178
 20
151.785543
 30
0.0
 11
89.144023
 21
151.889947
 31
0.0
  0
LINE
  5
22E
  8
010
 10
89.158733
 20
151.681315
 30
0.0
 11
89.150178
 21
151.785543
 31
0.0
  0
LINE
  5
22F
  8
010
 10
88.918193
 20
159.460688
 30
0.0
 11
88.921748
 21
159.422888
 31
0.0
  0
LINE
  5
230
  8
010
 10
88.91137
 20
159.532355
 30
0.0
 11
88.918193
 21
159.460688
 31
0.0
  0
LINE
  5
231
  8
010
 10
88.904913
 20
159.599049
 30
0.0
 11
88.91137
 21
159.532355
 31
0.0
  0
LINE
  5
232
  8
010
 10
88.898807
 20
159.661031
 30
0.0
 11
88.904913
 21
159.599049
 31
0.0
  0
LINE
  5
233
  8
010
 10
88.893037
 20
159.718568
 30
0.0
 11
88.898807
 21
159.661031
 31
0.0
  0
LINE
  5
234
  8
010
 10
88.887587
 20
159.771929
 30
0.0
 11
88.893037
 21
159.718568
 31
0.0
  0
LINE
  5
235
  8
010
 10
88.882439
 20
159.821384
 30
0.0
 11
88.887587
 21
159.771929
 31
0.0
  0
LINE
  5
236
  8
010
 10
88.877575
 20
159.867205
 30
0.0
 11
88.882439
 21
159.821384
 31
0.0
  0
LINE
  5
237
  8
010
 10
88.872975
 20
159.909662
 30
0.0
 11
88.877575
 21
159.867205
 31
0.0
  0
LINE
  5
238
  8
010
 10
88.868621
 20
159.949027
 30
0.0
 11
88.872975
 21
159.909662
 31
0.0
  0
LINE
  5
239
  8
010
 10
88.86449
 20
159.985569
 30
0.0
 11
88.868621
 21
159.949027
 31
0.0
  0
LINE
  5
23A
  8
010
 10
88.860559
 20
160.019564
 30
0.0
 11
88.86449
 21
159.985569
 31
0.0
  0
LINE
  5
23B
  8
010
 10
88.856802
 20
160.051292
 30
0.0
 11
88.860559
 21
160.019564
 31
0.0
  0
LINE
  5
23C
  8
010
 10
88.853202
 20
160.080942
 30
0.0
 11
88.856802
 21
160.051292
 31
0.0
  0
LINE
  5
23D
  8
010
 10
88.78479
 20
160.052809
 30
0.0
 11
88.784675
 21
160.082314
 31
0.0
  0
LINE
  5
23E
  8
010
 10
88.78501
 20
160.021114
 30
0.0
 11
88.78479
 21
160.052809
 31
0.0
  0
LINE
  5
23F
  8
010
 10
88.785341
 20
159.986988
 30
0.0
 11
88.78501
 21
160.021114
 31
0.0
  0
LINE
  5
240
  8
010
 10
88.785795
 20
159.950189
 30
0.0
 11
88.785341
 21
159.986988
 31
0.0
  0
LINE
  5
241
  8
010
 10
88.786382
 20
159.910477
 30
0.0
 11
88.785795
 21
159.950189
 31
0.0
  0
LINE
  5
242
  8
010
 10
88.787115
 20
159.86761
 30
0.0
 11
88.786382
 21
159.910477
 31
0.0
  0
LINE
  5
243
  8
010
 10
88.788008
 20
159.821345
 30
0.0
 11
88.787115
 21
159.86761
 31
0.0
  0
LINE
  5
244
  8
010
 10
88.789074
 20
159.771443
 30
0.0
 11
88.788008
 21
159.821345
 31
0.0
  0
LINE
  5
245
  8
010
 10
88.790329
 20
159.717662
 30
0.0
 11
88.789074
 21
159.771443
 31
0.0
  0
LINE
  5
246
  8
010
 10
88.791787
 20
159.659764
 30
0.0
 11
88.790329
 21
159.717662
 31
0.0
  0
LINE
  5
247
  8
010
 10
88.793466
 20
159.597515
 30
0.0
 11
88.791787
 21
159.659764
 31
0.0
  0
LINE
  5
248
  8
010
 10
88.795382
 20
159.530659
 30
0.0
 11
88.793466
 21
159.597515
 31
0.0
  0
LINE
  5
249
  8
010
 10
88.797556
 20
159.458814
 30
0.0
 11
88.795382
 21
159.530659
 31
0.0
  0
LINE
  5
24A
  8
010
 10
88.800015
 20
159.381468
 30
0.0
 11
88.797556
 21
159.458814
 31
0.0
  0
LINE
  5
24B
  8
010
 10
88.802788
 20
159.298108
 30
0.0
 11
88.800015
 21
159.381468
 31
0.0
  0
LINE
  5
24C
  8
010
 10
88.805905
 20
159.20822
 30
0.0
 11
88.802788
 21
159.298108
 31
0.0
  0
LINE
  5
24D
  8
010
 10
88.809398
 20
159.111292
 30
0.0
 11
88.805905
 21
159.20822
 31
0.0
  0
LINE
  5
24E
  8
010
 10
88.8133
 20
159.006813
 30
0.0
 11
88.809398
 21
159.111292
 31
0.0
  0
LINE
  5
24F
  8
010
 10
88.817645
 20
158.894274
 30
0.0
 11
88.8133
 21
159.006813
 31
0.0
  0
LINE
  5
250
  8
010
 10
88.822469
 20
158.773155
 30
0.0
 11
88.817645
 21
158.894274
 31
0.0
  0
LINE
  5
251
  8
010
 10
88.826021
 20
158.686523
 30
0.0
 11
88.822469
 21
158.773155
 31
0.0
  0
LINE
  5
252
  8
010
 10
89.041779
 20
158.012179
 30
0.0
 11
89.057116
 21
157.817703
 31
0.0
  0
LINE
  5
253
  8
010
 10
89.027483
 20
158.19104
 30
0.0
 11
89.041779
 21
158.012179
 31
0.0
  0
LINE
  5
254
  8
010
 10
89.014145
 20
158.3557
 30
0.0
 11
89.027483
 21
158.19104
 31
0.0
  0
LINE
  5
255
  8
010
 10
89.001678
 20
158.507542
 30
0.0
 11
89.014145
 21
158.3557
 31
0.0
  0
LINE
  5
256
  8
010
 10
88.98999
 20
158.647965
 30
0.0
 11
89.001678
 21
158.507542
 31
0.0
  0
LINE
  5
257
  8
010
 10
88.978998
 20
158.778219
 30
0.0
 11
88.98999
 21
158.647965
 31
0.0
  0
LINE
  5
258
  8
010
 10
88.968651
 20
158.899127
 30
0.0
 11
88.978998
 21
158.778219
 31
0.0
  0
LINE
  5
259
  8
010
 10
88.958916
 20
159.011263
 30
0.0
 11
88.968651
 21
158.899127
 31
0.0
  0
LINE
  5
25A
  8
010
 10
88.949761
 20
159.115204
 30
0.0
 11
88.958916
 21
159.011263
 31
0.0
  0
LINE
  5
25B
  8
010
 10
88.941148
 20
159.211534
 30
0.0
 11
88.949761
 21
159.115204
 31
0.0
  0
LINE
  5
25C
  8
010
 10
88.933043
 20
159.300835
 30
0.0
 11
88.941148
 21
159.211534
 31
0.0
  0
LINE
  5
25D
  8
010
 10
88.925405
 20
159.383689
 30
0.0
 11
88.933043
 21
159.300835
 31
0.0
  0
LINE
  5
25E
  8
010
 10
88.921748
 20
159.422888
 30
0.0
 11
88.925405
 21
159.383689
 31
0.0
  0
LINE
  5
25F
  8
010
 10
88.827814
 20
158.642788
 30
0.0
 11
88.826021
 21
158.686523
 31
0.0
  0
LINE
  5
260
  8
010
 10
88.833739
 20
158.502212
 30
0.0
 11
88.827814
 21
158.642788
 31
0.0
  0
LINE
  5
261
  8
010
 10
88.840304
 20
158.350419
 30
0.0
 11
88.833739
 21
158.502212
 31
0.0
  0
LINE
  5
262
  8
010
 10
88.847575
 20
158.186404
 30
0.0
 11
88.840304
 21
158.350419
 31
0.0
  0
LINE
  5
263
  8
010
 10
88.855619
 20
158.009166
 30
0.0
 11
88.847575
 21
158.186404
 31
0.0
  0
LINE
  5
264
  8
010
 10
88.864504
 20
157.817703
 30
0.0
 11
88.855619
 21
158.009166
 31
0.0
  0
LINE
  5
265
  8
010
 10
89.290335
 20
154.842502
 30
0.0
 11
89.057116
 21
157.817703
 31
0.0
  0
LINE
  5
266
  8
010
 10
88.864504
 20
157.817703
 30
0.0
 11
89.004431
 21
154.842575
 31
0.0
  0
LINE
  5
267
  8
010
 10
88.866179
 20
157.799822
 30
0.0
 11
88.864504
 21
157.817703
 31
0.0
  0
LINE
  5
268
  8
010
 10
94.695575
 20
154.541233
 30
0.0
 11
94.690867
 21
154.065861
 31
0.0
  0
LINE
  5
269
  8
010
 10
95.732197
 20
154.114842
 30
0.0
 11
95.699555
 21
154.642592
 31
0.0
  0
LINE
  5
26A
  8
010
 10
94.480539
 20
154.583082
 30
0.0
 11
94.473441
 21
154.107715
 31
0.0
  0
LINE
  5
26B
  8
010
 10
96.158587
 20
154.156696
 30
0.0
 11
96.104644
 21
154.684439
 31
0.0
  0
LINE
  5
26C
  8
010
 10
94.650663
 20
152.963974
 30
0.0
 11
94.68393
 21
152.948518
 31
0.0
  0
LINE
  5
26D
  8
010
 10
94.686906
 20
153.536516
 30
0.0
 11
94.68393
 21
152.948518
 31
0.0
  0
LINE
  5
26E
  8
010
 10
94.690867
 20
154.065861
 30
0.0
 11
94.686906
 21
153.536516
 31
0.0
  0
LINE
  5
26F
  8
010
 10
94.467634
 20
153.578372
 30
0.0
 11
94.463517
 21
152.990372
 31
0.0
  0
LINE
  5
270
  8
010
 10
94.473441
 20
154.107715
 30
0.0
 11
94.467634
 21
153.578372
 31
0.0
  0
LINE
  5
271
  8
010
 10
94.671083
 20
149.254934
 30
0.0
 11
94.670988
 21
148.780868
 31
0.0
  0
LINE
  5
272
  8
010
 10
94.678742
 20
151.732332
 30
0.0
 11
94.67822
 21
151.618711
 31
0.0
  0
LINE
  5
273
  8
010
 10
94.679193
 20
151.848171
 30
0.0
 11
94.678742
 21
151.732332
 31
0.0
  0
LINE
  5
274
  8
010
 10
94.648586
 20
151.863693
 30
0.0
 11
94.679193
 21
151.848171
 31
0.0
  0
LINE
  5
275
  8
010
 10
94.458674
 20
151.784625
 30
0.0
 11
94.457692
 21
151.681315
 31
0.0
  0
LINE
  5
276
  8
010
 10
94.459515
 20
151.889947
 30
0.0
 11
94.458674
 21
151.784625
 31
0.0
  0
LINE
  5
277
  8
010
 10
94.671436
 20
149.579797
 30
0.0
 11
94.671083
 21
149.254934
 31
0.0
  0
LINE
  5
278
  8
010
 10
94.673063
 20
150.318089
 30
0.0
 11
94.671436
 21
149.579797
 31
0.0
  0
LINE
  5
279
  8
010
 10
94.675456
 20
150.997412
 30
0.0
 11
94.673063
 21
150.318089
 31
0.0
  0
LINE
  5
27A
  8
010
 10
94.67822
 20
151.618711
 30
0.0
 11
94.675456
 21
150.997412
 31
0.0
  0
LINE
  5
27B
  8
010
 10
94.647914
 20
151.642005
 30
0.0
 11
94.67822
 21
151.618711
 31
0.0
  0
LINE
  5
27C
  8
010
 10
94.68135
 20
152.404234
 30
0.0
 11
94.679193
 21
151.848171
 31
0.0
  0
LINE
  5
27D
  8
010
 10
94.68393
 20
152.948518
 30
0.0
 11
94.68135
 21
152.404234
 31
0.0
  0
LINE
  5
27E
  8
010
 10
94.461188
 20
152.446064
 30
0.0
 11
94.459515
 21
151.889947
 31
0.0
  0
LINE
  5
27F
  8
010
 10
94.463517
 20
152.990372
 30
0.0
 11
94.461188
 21
152.446064
 31
0.0
  0
LINE
  5
280
  8
010
 10
94.454739
 20
149.641996
 30
0.0
 11
94.455811
 21
148.842941
 31
0.0
  0
LINE
  5
281
  8
010
 10
94.454983
 20
150.380424
 30
0.0
 11
94.454739
 21
149.641996
 31
0.0
  0
LINE
  5
282
  8
010
 10
94.456082
 20
151.059857
 30
0.0
 11
94.454983
 21
150.380424
 31
0.0
  0
LINE
  5
283
  8
010
 10
94.457692
 20
151.681315
 30
0.0
 11
94.456082
 21
151.059857
 31
0.0
  0
LINE
  5
284
  8
010
 10
95.765387
 20
153.552781
 30
0.0
 11
95.732197
 21
154.114842
 31
0.0
  0
LINE
  5
285
  8
010
 10
95.799467
 20
152.948518
 30
0.0
 11
95.765387
 21
153.552781
 31
0.0
  0
LINE
  5
286
  8
010
 10
96.213504
 20
153.594637
 30
0.0
 11
96.158587
 21
154.156696
 31
0.0
  0
LINE
  5
287
  8
010
 10
96.269928
 20
152.990372
 30
0.0
 11
96.213504
 21
153.594637
 31
0.0
  0
LINE
  5
288
  8
010
 10
95.896174
 20
151.732332
 30
0.0
 11
95.885475
 21
151.848171
 31
0.0
  0
LINE
  5
289
  8
010
 10
95.909171
 20
151.618711
 30
0.0
 11
95.896174
 21
151.732332
 31
0.0
  0
LINE
  5
28A
  8
010
 10
96.379957
 20
151.784625
 30
0.0
 11
96.368829
 21
151.889947
 31
0.0
  0
LINE
  5
28B
  8
010
 10
96.393285
 20
151.681315
 30
0.0
 11
96.379957
 21
151.784625
 31
0.0
  0
LINE
  5
28C
  8
010
 10
95.8407
 20
152.408536
 30
0.0
 11
95.799467
 21
152.948518
 31
0.0
  0
LINE
  5
28D
  8
010
 10
95.885475
 20
151.848171
 30
0.0
 11
95.8407
 21
152.408536
 31
0.0
  0
LINE
  5
28E
  8
010
 10
96.318806
 20
152.450366
 30
0.0
 11
96.269928
 21
152.990372
 31
0.0
  0
LINE
  5
28F
  8
010
 10
96.368829
 20
151.889947
 30
0.0
 11
96.318806
 21
152.450366
 31
0.0
  0
LINE
  5
290
  8
010
 10
95.965476
 20
151.178751
 30
0.0
 11
95.909171
 21
151.618711
 31
0.0
  0
LINE
  5
291
  8
010
 10
96.028088
 20
150.697638
 30
0.0
 11
95.965476
 21
151.178751
 31
0.0
  0
LINE
  5
292
  8
010
 10
96.095328
 20
150.171416
 30
0.0
 11
96.028088
 21
150.697638
 31
0.0
  0
LINE
  5
293
  8
010
 10
96.167483
 20
149.596239
 30
0.0
 11
96.095328
 21
150.171416
 31
0.0
  0
LINE
  5
294
  8
010
 10
96.245015
 20
148.966583
 30
0.0
 11
96.167483
 21
149.596239
 31
0.0
  0
LINE
  5
295
  8
010
 10
96.451603
 20
151.241261
 30
0.0
 11
96.393285
 21
151.681315
 31
0.0
  0
LINE
  5
296
  8
010
 10
96.515107
 20
150.76005
 30
0.0
 11
96.451603
 21
151.241261
 31
0.0
  0
LINE
  5
297
  8
010
 10
96.584251
 20
150.233725
 30
0.0
 11
96.515107
 21
150.76005
 31
0.0
  0
LINE
  5
298
  8
010
 10
96.659313
 20
149.658445
 30
0.0
 11
96.584251
 21
150.233725
 31
0.0
  0
LINE
  5
299
  8
010
 10
96.740755
 20
149.028686
 30
0.0
 11
96.659313
 21
149.658445
 31
0.0
  0
LINE
  5
29A
  8
010
 10
94.748981
 20
157.166302
 30
0.0
 11
94.74264
 21
156.965241
 31
0.0
  0
LINE
  5
29B
  8
010
 10
94.7589
 20
159.420922
 30
0.0
 11
94.742469
 21
159.313823
 31
0.0
  0
LINE
  5
29C
  8
010
 10
94.700825
 20
154.967328
 30
0.0
 11
94.695575
 21
154.541233
 31
0.0
  0
LINE
  5
29D
  8
010
 10
94.706444
 20
155.34885
 30
0.0
 11
94.700825
 21
154.967328
 31
0.0
  0
LINE
  5
29E
  8
010
 10
94.712292
 20
155.690504
 30
0.0
 11
94.706444
 21
155.34885
 31
0.0
  0
LINE
  5
29F
  8
010
 10
94.718267
 20
155.996995
 30
0.0
 11
94.712292
 21
155.690504
 31
0.0
  0
LINE
  5
2A0
  8
010
 10
94.724302
 20
156.273022
 30
0.0
 11
94.718267
 21
155.996995
 31
0.0
  0
LINE
  5
2A1
  8
010
 10
94.730365
 20
156.52328
 30
0.0
 11
94.724302
 21
156.273022
 31
0.0
  0
LINE
  5
2A2
  8
010
 10
94.736463
 20
156.752459
 30
0.0
 11
94.730365
 21
156.52328
 31
0.0
  0
LINE
  5
2A3
  8
010
 10
94.74264
 20
156.965241
 30
0.0
 11
94.736463
 21
156.752459
 31
0.0
  0
LINE
  5
2A4
  8
010
 10
94.48858
 20
155.00917
 30
0.0
 11
94.480539
 21
154.583082
 31
0.0
  0
LINE
  5
2A5
  8
010
 10
94.49727
 20
155.390684
 30
0.0
 11
94.48858
 21
155.00917
 31
0.0
  0
LINE
  5
2A6
  8
010
 10
94.50637
 20
155.732331
 30
0.0
 11
94.49727
 21
155.390684
 31
0.0
  0
LINE
  5
2A7
  8
010
 10
94.515699
 20
156.038814
 30
0.0
 11
94.50637
 21
155.732331
 31
0.0
  0
LINE
  5
2A8
  8
010
 10
94.525137
 20
156.314835
 30
0.0
 11
94.515699
 21
156.038814
 31
0.0
  0
LINE
  5
2A9
  8
010
 10
94.534621
 20
156.565088
 30
0.0
 11
94.525137
 21
156.314835
 31
0.0
  0
LINE
  5
2AA
  8
010
 10
94.544148
 20
156.794263
 30
0.0
 11
94.534621
 21
156.565088
 31
0.0
  0
LINE
  5
2AB
  8
010
 10
94.553776
 20
157.007043
 30
0.0
 11
94.544148
 21
156.794263
 31
0.0
  0
LINE
  5
2AC
  8
010
 10
94.563625
 20
157.208103
 30
0.0
 11
94.553776
 21
157.007043
 31
0.0
  0
LINE
  5
2AD
  8
010
 10
94.573877
 20
157.402112
 30
0.0
 11
94.563625
 21
157.208103
 31
0.0
  0
LINE
  5
2AE
  8
010
 10
94.584783
 20
157.593728
 30
0.0
 11
94.573877
 21
157.402112
 31
0.0
  0
LINE
  5
2AF
  8
010
 10
94.596686
 20
157.787609
 30
0.0
 11
94.584783
 21
157.593728
 31
0.0
  0
LINE
  5
2B0
  8
010
 10
94.61007
 20
157.9886
 30
0.0
 11
94.596686
 21
157.787609
 31
0.0
  0
LINE
  5
2B1
  8
010
 10
94.625558
 20
158.201132
 30
0.0
 11
94.61007
 21
157.9886
 31
0.0
  0
LINE
  5
2B2
  8
010
 10
94.642254
 20
158.408926
 30
0.0
 11
94.625558
 21
158.201132
 31
0.0
  0
LINE
  5
2B3
  8
010
 10
94.659111
 20
158.598917
 30
0.0
 11
94.642254
 21
158.408926
 31
0.0
  0
LINE
  5
2B4
  8
010
 10
94.67593
 20
158.770917
 30
0.0
 11
94.659111
 21
158.598917
 31
0.0
  0
LINE
  5
2B5
  8
010
 10
94.692702
 20
158.926904
 30
0.0
 11
94.67593
 21
158.770917
 31
0.0
  0
LINE
  5
2B6
  8
010
 10
94.709389
 20
159.068362
 30
0.0
 11
94.692702
 21
158.926904
 31
0.0
  0
LINE
  5
2B7
  8
010
 10
94.725975
 20
159.196821
 30
0.0
 11
94.709389
 21
159.068362
 31
0.0
  0
LINE
  5
2B8
  8
010
 10
94.742469
 20
159.313823
 30
0.0
 11
94.725975
 21
159.196821
 31
0.0
  0
LINE
  5
2B9
  8
010
 10
94.755616
 20
157.360311
 30
0.0
 11
94.748981
 21
157.166302
 31
0.0
  0
LINE
  5
2BA
  8
010
 10
94.762715
 20
157.551926
 30
0.0
 11
94.755616
 21
157.360311
 31
0.0
  0
LINE
  5
2BB
  8
010
 10
94.77039
 20
157.745804
 30
0.0
 11
94.762715
 21
157.551926
 31
0.0
  0
LINE
  5
2BC
  8
010
 10
94.778897
 20
157.946789
 30
0.0
 11
94.77039
 21
157.745804
 31
0.0
  0
LINE
  5
2BD
  8
010
 10
94.788604
 20
158.159312
 30
0.0
 11
94.778897
 21
157.946789
 31
0.0
  0
LINE
  5
2BE
  8
010
 10
94.798943
 20
158.367096
 30
0.0
 11
94.788604
 21
158.159312
 31
0.0
  0
LINE
  5
2BF
  8
010
 10
94.80929
 20
158.557076
 30
0.0
 11
94.798943
 21
158.367096
 31
0.0
  0
LINE
  5
2C0
  8
010
 10
94.819562
 20
158.729065
 30
0.0
 11
94.80929
 21
158.557076
 31
0.0
  0
LINE
  5
2C1
  8
010
 10
94.829801
 20
158.885044
 30
0.0
 11
94.819562
 21
158.729065
 31
0.0
  0
LINE
  5
2C2
  8
010
 10
94.840033
 20
159.026495
 30
0.0
 11
94.829801
 21
158.885044
 31
0.0
  0
LINE
  5
2C3
  8
010
 10
94.850307
 20
159.154949
 30
0.0
 11
94.840033
 21
159.026495
 31
0.0
  0
LINE
  5
2C4
  8
010
 10
94.860698
 20
159.271952
 30
0.0
 11
94.850307
 21
159.154949
 31
0.0
  0
LINE
  5
2C5
  8
010
 10
94.871262
 20
159.379046
 30
0.0
 11
94.860698
 21
159.271952
 31
0.0
  0
LINE
  5
2C6
  8
010
 10
94.881752
 20
159.477802
 30
0.0
 11
94.871262
 21
159.379046
 31
0.0
  0
LINE
  5
2C7
  8
010
 10
94.89226
 20
159.56972
 30
0.0
 11
94.881752
 21
159.477802
 31
0.0
  0
LINE
  5
2C8
  8
010
 10
94.903009
 20
159.65628
 30
0.0
 11
94.89226
 21
159.56972
 31
0.0
  0
LINE
  5
2C9
  8
010
 10
94.914312
 20
159.738952
 30
0.0
 11
94.903009
 21
159.65628
 31
0.0
  0
LINE
  5
2CA
  8
010
 10
94.926454
 20
159.818126
 30
0.0
 11
94.914312
 21
159.738952
 31
0.0
  0
LINE
  5
2CB
  8
010
 10
94.939577
 20
159.892538
 30
0.0
 11
94.926454
 21
159.818126
 31
0.0
  0
LINE
  5
2CC
  8
010
 10
94.953769
 20
159.960322
 30
0.0
 11
94.939577
 21
159.892538
 31
0.0
  0
LINE
  5
2CD
  8
010
 10
94.969165
 20
160.020262
 30
0.0
 11
94.953769
 21
159.960322
 31
0.0
  0
LINE
  5
2CE
  8
010
 10
94.985578
 20
160.07279
 30
0.0
 11
94.969165
 21
160.020262
 31
0.0
  0
LINE
  5
2CF
  8
010
 10
95.137675
 20
160.038358
 30
0.0
 11
95.119155
 21
160.086112
 31
0.0
  0
LINE
  5
2D0
  8
010
 10
95.155693
 20
159.983811
 30
0.0
 11
95.137675
 21
160.038358
 31
0.0
  0
LINE
  5
2D1
  8
010
 10
95.173001
 20
159.921975
 30
0.0
 11
95.155693
 21
159.983811
 31
0.0
  0
LINE
  5
2D2
  8
010
 10
95.18973
 20
159.852771
 30
0.0
 11
95.173001
 21
159.921975
 31
0.0
  0
LINE
  5
2D3
  8
010
 10
95.206113
 20
159.776588
 30
0.0
 11
95.18973
 21
159.852771
 31
0.0
  0
LINE
  5
2D4
  8
010
 10
95.222328
 20
159.693773
 30
0.0
 11
95.206113
 21
159.776588
 31
0.0
  0
LINE
  5
2D5
  8
010
 10
95.23859
 20
159.604185
 30
0.0
 11
95.222328
 21
159.693773
 31
0.0
  0
LINE
  5
2D6
  8
010
 10
95.255113
 20
159.507355
 30
0.0
 11
95.23859
 21
159.604185
 31
0.0
  0
LINE
  5
2D7
  8
010
 10
95.2722
 20
159.402006
 30
0.0
 11
95.255113
 21
159.507355
 31
0.0
  0
LINE
  5
2D8
  8
010
 10
95.29019
 20
159.28578
 30
0.0
 11
95.2722
 21
159.402006
 31
0.0
  0
LINE
  5
2D9
  8
010
 10
95.308712
 20
159.1563
 30
0.0
 11
95.29019
 21
159.28578
 31
0.0
  0
LINE
  5
2DA
  8
010
 10
95.326985
 20
159.018196
 30
0.0
 11
95.308712
 21
159.1563
 31
0.0
  0
LINE
  5
2DB
  8
010
 10
95.343693
 20
158.88349
 30
0.0
 11
95.326985
 21
159.018196
 31
0.0
  0
LINE
  5
2DC
  8
010
 10
95.358706
 20
158.756058
 30
0.0
 11
95.343693
 21
158.88349
 31
0.0
  0
LINE
  5
2DD
  8
010
 10
95.372676
 20
158.632441
 30
0.0
 11
95.358706
 21
158.756058
 31
0.0
  0
LINE
  5
2DE
  8
010
 10
95.386084
 20
158.509558
 30
0.0
 11
95.372676
 21
158.632441
 31
0.0
  0
LINE
  5
2DF
  8
010
 10
95.399335
 20
158.384338
 30
0.0
 11
95.386084
 21
158.509558
 31
0.0
  0
LINE
  5
2E0
  8
010
 10
95.412787
 20
158.253696
 30
0.0
 11
95.399335
 21
158.384338
 31
0.0
  0
LINE
  5
2E1
  8
010
 10
95.426762
 20
158.114533
 30
0.0
 11
95.412787
 21
158.253696
 31
0.0
  0
LINE
  5
2E2
  8
010
 10
95.441557
 20
157.963742
 30
0.0
 11
95.426762
 21
158.114533
 31
0.0
  0
LINE
  5
2E3
  8
010
 10
95.45745
 20
157.798208
 30
0.0
 11
95.441557
 21
157.963742
 31
0.0
  0
LINE
  5
2E4
  8
010
 10
95.474706
 20
157.614805
 30
0.0
 11
95.45745
 21
157.798208
 31
0.0
  0
LINE
  5
2E5
  8
010
 10
95.493544
 20
157.410404
 30
0.0
 11
95.474706
 21
157.614805
 31
0.0
  0
LINE
  5
2E6
  8
010
 10
95.513808
 20
157.181855
 30
0.0
 11
95.493544
 21
157.410404
 31
0.0
  0
LINE
  5
2E7
  8
010
 10
95.535525
 20
156.926011
 30
0.0
 11
95.513808
 21
157.181855
 31
0.0
  0
LINE
  5
2E8
  8
010
 10
95.558784
 20
156.639723
 30
0.0
 11
95.535525
 21
156.926011
 31
0.0
  0
LINE
  5
2E9
  8
010
 10
95.583649
 20
156.319848
 30
0.0
 11
95.558784
 21
156.639723
 31
0.0
  0
LINE
  5
2EA
  8
010
 10
95.610156
 20
155.963257
 30
0.0
 11
95.583649
 21
156.319848
 31
0.0
  0
LINE
  5
2EB
  8
010
 10
95.638317
 20
155.566849
 30
0.0
 11
95.610156
 21
155.963257
 31
0.0
  0
LINE
  5
2EC
  8
010
 10
95.668133
 20
155.127498
 30
0.0
 11
95.638317
 21
155.566849
 31
0.0
  0
LINE
  5
2ED
  8
010
 10
95.699555
 20
154.642592
 30
0.0
 11
95.668133
 21
155.127498
 31
0.0
  0
LINE
  5
2EE
  8
010
 10
94.775392
 20
159.519674
 30
0.0
 11
94.7589
 21
159.420922
 31
0.0
  0
LINE
  5
2EF
  8
010
 10
94.792175
 20
159.611593
 30
0.0
 11
94.775392
 21
159.519674
 31
0.0
  0
LINE
  5
2F0
  8
010
 10
94.809576
 20
159.698153
 30
0.0
 11
94.792175
 21
159.611593
 31
0.0
  0
LINE
  5
2F1
  8
010
 10
94.828054
 20
159.780828
 30
0.0
 11
94.809576
 21
159.698153
 31
0.0
  0
LINE
  5
2F2
  8
010
 10
94.848007
 20
159.860003
 30
0.0
 11
94.828054
 21
159.780828
 31
0.0
  0
LINE
  5
2F3
  8
010
 10
94.869514
 20
159.934418
 30
0.0
 11
94.848007
 21
159.860003
 31
0.0
  0
LINE
  5
2F4
  8
010
 10
94.892447
 20
160.002188
 30
0.0
 11
94.869514
 21
159.934418
 31
0.0
  0
LINE
  5
2F5
  8
010
 10
94.916606
 20
160.062159
 30
0.0
 11
94.892447
 21
160.002188
 31
0.0
  0
LINE
  5
2F6
  8
010
 10
95.218312
 20
160.025662
 30
0.0
 11
95.189946
 21
160.08025
 31
0.0
  0
LINE
  5
2F7
  8
010
 10
95.246145
 20
159.963855
 30
0.0
 11
95.218312
 21
160.025662
 31
0.0
  0
LINE
  5
2F8
  8
010
 10
95.273629
 20
159.894647
 30
0.0
 11
95.246145
 21
159.963855
 31
0.0
  0
LINE
  5
2F9
  8
010
 10
95.300758
 20
159.818465
 30
0.0
 11
95.273629
 21
159.894647
 31
0.0
  0
LINE
  5
2FA
  8
010
 10
95.327579
 20
159.735647
 30
0.0
 11
95.300758
 21
159.818465
 31
0.0
  0
LINE
  5
2FB
  8
010
 10
95.354278
 20
159.646059
 30
0.0
 11
95.327579
 21
159.735647
 31
0.0
  0
LINE
  5
2FC
  8
010
 10
95.381085
 20
159.549227
 30
0.0
 11
95.354278
 21
159.646059
 31
0.0
  0
LINE
  5
2FD
  8
010
 10
95.408375
 20
159.443882
 30
0.0
 11
95.381085
 21
159.549227
 31
0.0
  0
LINE
  5
2FE
  8
010
 10
95.436707
 20
159.327648
 30
0.0
 11
95.408375
 21
159.443882
 31
0.0
  0
LINE
  5
2FF
  8
010
 10
95.466463
 20
159.198173
 30
0.0
 11
95.436707
 21
159.327648
 31
0.0
  0
LINE
  5
300
  8
010
 10
95.496409
 20
159.060064
 30
0.0
 11
95.466463
 21
159.198173
 31
0.0
  0
LINE
  5
301
  8
010
 10
95.524099
 20
158.925351
 30
0.0
 11
95.496409
 21
159.060064
 31
0.0
  0
LINE
  5
302
  8
010
 10
95.549107
 20
158.79791
 30
0.0
 11
95.524099
 21
158.925351
 31
0.0
  0
LINE
  5
303
  8
010
 10
95.572408
 20
158.674287
 30
0.0
 11
95.549107
 21
158.79791
 31
0.0
  0
LINE
  5
304
  8
010
 10
95.594747
 20
158.551397
 30
0.0
 11
95.572408
 21
158.674287
 31
0.0
  0
LINE
  5
305
  8
010
 10
95.616759
 20
158.42617
 30
0.0
 11
95.594747
 21
158.551397
 31
0.0
  0
LINE
  5
306
  8
010
 10
95.639003
 20
158.29552
 30
0.0
 11
95.616759
 21
158.42617
 31
0.0
  0
LINE
  5
307
  8
010
 10
95.661973
 20
158.156351
 30
0.0
 11
95.639003
 21
158.29552
 31
0.0
  0
LINE
  5
308
  8
010
 10
95.686108
 20
158.005554
 30
0.0
 11
95.661973
 21
158.156351
 31
0.0
  0
LINE
  5
309
  8
010
 10
95.711795
 20
157.840014
 30
0.0
 11
95.686108
 21
158.005554
 31
0.0
  0
LINE
  5
30A
  8
010
 10
95.739379
 20
157.656608
 30
0.0
 11
95.711795
 21
157.840014
 31
0.0
  0
LINE
  5
30B
  8
010
 10
95.76916
 20
157.452204
 30
0.0
 11
95.739379
 21
157.656608
 31
0.0
  0
LINE
  5
30C
  8
010
 10
95.801383
 20
157.223656
 30
0.0
 11
95.76916
 21
157.452204
 31
0.0
  0
LINE
  5
30D
  8
010
 10
95.836223
 20
156.967813
 30
0.0
 11
95.801383
 21
157.223656
 31
0.0
  0
LINE
  5
30E
  8
010
 10
95.873812
 20
156.681529
 30
0.0
 11
95.836223
 21
156.967813
 31
0.0
  0
LINE
  5
30F
  8
010
 10
95.914236
 20
156.36166
 30
0.0
 11
95.873812
 21
156.681529
 31
0.0
  0
LINE
  5
310
  8
010
 10
95.957543
 20
156.005078
 30
0.0
 11
95.914236
 21
156.36166
 31
0.0
  0
LINE
  5
311
  8
010
 10
96.003741
 20
155.608678
 30
0.0
 11
95.957543
 21
156.005078
 31
0.0
  0
LINE
  5
312
  8
010
 10
96.05281
 20
155.169337
 30
0.0
 11
96.003741
 21
155.608678
 31
0.0
  0
LINE
  5
313
  8
010
 10
96.104644
 20
154.684439
 30
0.0
 11
96.05281
 21
155.169337
 31
0.0
  0
LINE
  5
314
  8
010
 10
90.849643
 20
165.976458
 30
0.0
 11
92.806952
 21
165.976458
 31
0.0
  0
LINE
  5
315
  8
010
 10
88.846453
 20
160.134365
 30
0.0
 11
88.849755
 21
160.108601
 31
0.0
  0
LINE
  5
316
  8
010
 10
88.843287
 20
160.158345
 30
0.0
 11
88.846453
 21
160.134365
 31
0.0
  0
LINE
  5
317
  8
010
 10
88.840246
 20
160.180664
 30
0.0
 11
88.843287
 21
160.158345
 31
0.0
  0
LINE
  5
318
  8
010
 10
88.837317
 20
160.201452
 30
0.0
 11
88.840246
 21
160.180664
 31
0.0
  0
LINE
  5
319
  8
010
 10
88.834482
 20
160.220843
 30
0.0
 11
88.837317
 21
160.201452
 31
0.0
  0
LINE
  5
31A
  8
010
 10
88.831725
 20
160.238971
 30
0.0
 11
88.834482
 21
160.220843
 31
0.0
  0
LINE
  5
31B
  8
010
 10
88.829023
 20
160.255969
 30
0.0
 11
88.831725
 21
160.238971
 31
0.0
  0
LINE
  5
31C
  8
010
 10
88.826352
 20
160.271967
 30
0.0
 11
88.829023
 21
160.255969
 31
0.0
  0
LINE
  5
31D
  8
010
 10
88.82368
 20
160.287086
 30
0.0
 11
88.826352
 21
160.271967
 31
0.0
  0
LINE
  5
31E
  8
010
 10
88.820969
 20
160.301433
 30
0.0
 11
88.82368
 21
160.287086
 31
0.0
  0
LINE
  5
31F
  8
010
 10
88.818154
 20
160.315157
 30
0.0
 11
88.820969
 21
160.301433
 31
0.0
  0
LINE
  5
320
  8
010
 10
88.815123
 20
160.328423
 30
0.0
 11
88.818154
 21
160.315157
 31
0.0
  0
LINE
  5
321
  8
010
 10
88.811839
 20
160.340769
 30
0.0
 11
88.815123
 21
160.328423
 31
0.0
  0
LINE
  5
322
  8
010
 10
88.808284
 20
160.351309
 30
0.0
 11
88.811839
 21
160.340769
 31
0.0
  0
LINE
  5
323
  8
010
 10
88.804134
 20
160.359008
 30
0.0
 11
88.808284
 21
160.351309
 31
0.0
  0
LINE
  5
324
  8
010
 10
88.799484
 20
160.359742
 30
0.0
 11
88.804134
 21
160.359008
 31
0.0
  0
LINE
  5
325
  8
010
 10
88.795968
 20
160.352362
 30
0.0
 11
88.799484
 21
160.359742
 31
0.0
  0
LINE
  5
326
  8
010
 10
88.793606
 20
160.341763
 30
0.0
 11
88.795968
 21
160.352362
 31
0.0
  0
LINE
  5
327
  8
010
 10
88.791863
 20
160.329774
 30
0.0
 11
88.793606
 21
160.341763
 31
0.0
  0
LINE
  5
328
  8
010
 10
88.790513
 20
160.317114
 30
0.0
 11
88.791863
 21
160.329774
 31
0.0
  0
LINE
  5
329
  8
010
 10
88.789408
 20
160.303744
 30
0.0
 11
88.790513
 21
160.317114
 31
0.0
  0
LINE
  5
32A
  8
010
 10
88.788478
 20
160.289614
 30
0.0
 11
88.789408
 21
160.303744
 31
0.0
  0
LINE
  5
32B
  8
010
 10
88.787682
 20
160.27463
 30
0.0
 11
88.788478
 21
160.289614
 31
0.0
  0
LINE
  5
32C
  8
010
 10
88.786996
 20
160.25868
 30
0.0
 11
88.787682
 21
160.27463
 31
0.0
  0
LINE
  5
32D
  8
010
 10
88.786406
 20
160.24164
 30
0.0
 11
88.786996
 21
160.25868
 31
0.0
  0
LINE
  5
32E
  8
010
 10
88.785903
 20
160.223382
 30
0.0
 11
88.786406
 21
160.24164
 31
0.0
  0
LINE
  5
32F
  8
010
 10
88.785484
 20
160.20378
 30
0.0
 11
88.785903
 21
160.223382
 31
0.0
  0
LINE
  5
330
  8
010
 10
88.785148
 20
160.18272
 30
0.0
 11
88.785484
 21
160.20378
 31
0.0
  0
LINE
  5
331
  8
010
 10
88.784896
 20
160.160105
 30
0.0
 11
88.785148
 21
160.18272
 31
0.0
  0
LINE
  5
332
  8
010
 10
88.784731
 20
160.135859
 30
0.0
 11
88.784896
 21
160.160105
 31
0.0
  0
LINE
  5
333
  8
010
 10
88.784656
 20
160.109941
 30
0.0
 11
88.784731
 21
160.135859
 31
0.0
  0
LINE
  5
334
  8
010
 10
89.200366
 20
165.976458
 30
0.0
 11
90.849643
 21
165.976458
 31
0.0
  0
LINE
  5
335
  8
010
 10
95.025321
 20
160.150753
 30
0.0
 11
95.003932
 21
160.117802
 31
0.0
  0
LINE
  5
336
  8
010
 10
95.050343
 20
160.164333
 30
0.0
 11
95.025321
 21
160.150753
 31
0.0
  0
LINE
  5
337
  8
010
 10
95.076003
 20
160.155151
 30
0.0
 11
95.050343
 21
160.164333
 31
0.0
  0
LINE
  5
338
  8
010
 10
95.098953
 20
160.126623
 30
0.0
 11
95.076003
 21
160.155151
 31
0.0
  0
LINE
  5
339
  8
010
 10
94.972746
 20
160.159811
 30
0.0
 11
94.942788
 21
160.114658
 31
0.0
  0
LINE
  5
33A
  8
010
 10
95.008016
 20
160.192766
 30
0.0
 11
94.972746
 21
160.159811
 31
0.0
  0
LINE
  5
33B
  8
010
 10
95.048062
 20
160.205945
 30
0.0
 11
95.008016
 21
160.192766
 31
0.0
  0
LINE
  5
33C
  8
010
 10
95.088972
 20
160.197056
 30
0.0
 11
95.048062
 21
160.205945
 31
0.0
  0
LINE
  5
33D
  8
010
 10
95.126813
 20
160.168669
 30
0.0
 11
95.088972
 21
160.197056
 31
0.0
  0
LINE
  5
33E
  8
010
 10
95.160023
 20
160.127979
 30
0.0
 11
95.126813
 21
160.168669
 31
0.0
  0
LINE
  5
33F
  8
010
 10
92.806952
 20
165.976458
 30
0.0
 11
95.028047
 21
165.976458
 31
0.0
  0
LINE
  5
340
  8
010
 10
104.001794
 20
160.108601
 30
0.0
 11
104.005824
 21
160.080942
 31
0.0
  0
LINE
  5
341
  8
010
 10
103.85691
 20
160.082314
 30
0.0
 11
103.860336
 21
160.109941
 31
0.0
  0
LINE
  5
342
  8
010
 10
104.432716
 20
151.889947
 30
0.0
 11
104.299948
 21
154.842502
 31
0.0
  0
LINE
  5
343
  8
010
 10
103.677953
 20
154.842575
 30
0.0
 11
103.610367
 21
151.889947
 31
0.0
  0
LINE
  5
344
  8
010
 10
104.436661
 20
151.785543
 30
0.0
 11
104.439117
 21
151.681315
 31
0.0
  0
LINE
  5
345
  8
010
 10
104.432716
 20
151.889947
 30
0.0
 11
104.436661
 21
151.785543
 31
0.0
  0
LINE
  5
346
  8
010
 10
103.609011
 20
151.785543
 30
0.0
 11
103.610367
 21
151.889947
 31
0.0
  0
LINE
  5
347
  8
010
 10
103.609702
 20
151.681315
 30
0.0
 11
103.609011
 21
151.785543
 31
0.0
  0
LINE
  5
348
  8
010
 10
104.156707
 20
158.012179
 30
0.0
 11
104.165713
 21
157.817703
 31
0.0
  0
LINE
  5
349
  8
010
 10
104.148015
 20
158.19104
 30
0.0
 11
104.156707
 21
158.012179
 31
0.0
  0
LINE
  5
34A
  8
010
 10
104.139629
 20
158.3557
 30
0.0
 11
104.148015
 21
158.19104
 31
0.0
  0
LINE
  5
34B
  8
010
 10
104.131534
 20
158.507542
 30
0.0
 11
104.139629
 21
158.3557
 31
0.0
  0
LINE
  5
34C
  8
010
 10
104.123707
 20
158.647965
 30
0.0
 11
104.131534
 21
158.507542
 31
0.0
  0
LINE
  5
34D
  8
010
 10
104.11612
 20
158.778219
 30
0.0
 11
104.123707
 21
158.647965
 31
0.0
  0
LINE
  5
34E
  8
010
 10
104.108766
 20
158.899127
 30
0.0
 11
104.11612
 21
158.778219
 31
0.0
  0
LINE
  5
34F
  8
010
 10
104.101646
 20
159.011263
 30
0.0
 11
104.108766
 21
158.899127
 31
0.0
  0
LINE
  5
350
  8
010
 10
104.094759
 20
159.115204
 30
0.0
 11
104.101646
 21
159.011263
 31
0.0
  0
LINE
  5
351
  8
010
 10
104.088101
 20
159.211534
 30
0.0
 11
104.094759
 21
159.115204
 31
0.0
  0
LINE
  5
352
  8
010
 10
104.081665
 20
159.300835
 30
0.0
 11
104.088101
 21
159.211534
 31
0.0
  0
LINE
  5
353
  8
010
 10
104.075438
 20
159.383689
 30
0.0
 11
104.081665
 21
159.300835
 31
0.0
  0
LINE
  5
354
  8
010
 10
104.069405
 20
159.460688
 30
0.0
 11
104.075438
 21
159.383689
 31
0.0
  0
LINE
  5
355
  8
010
 10
104.06355
 20
159.532355
 30
0.0
 11
104.069405
 21
159.460688
 31
0.0
  0
LINE
  5
356
  8
010
 10
104.057868
 20
159.599049
 30
0.0
 11
104.06355
 21
159.532355
 31
0.0
  0
LINE
  5
357
  8
010
 10
104.05236
 20
159.661031
 30
0.0
 11
104.057868
 21
159.599049
 31
0.0
  0
LINE
  5
358
  8
010
 10
104.047025
 20
159.718568
 30
0.0
 11
104.05236
 21
159.661031
 31
0.0
  0
LINE
  5
359
  8
010
 10
104.041861
 20
159.771929
 30
0.0
 11
104.047025
 21
159.718568
 31
0.0
  0
LINE
  5
35A
  8
010
 10
104.036865
 20
159.821384
 30
0.0
 11
104.041861
 21
159.771929
 31
0.0
  0
LINE
  5
35B
  8
010
 10
104.032031
 20
159.867205
 30
0.0
 11
104.036865
 21
159.821384
 31
0.0
  0
LINE
  5
35C
  8
010
 10
104.027352
 20
159.909662
 30
0.0
 11
104.032031
 21
159.867205
 31
0.0
  0
LINE
  5
35D
  8
010
 10
104.022817
 20
159.949027
 30
0.0
 11
104.027352
 21
159.909662
 31
0.0
  0
LINE
  5
35E
  8
010
 10
104.018415
 20
159.985569
 30
0.0
 11
104.022817
 21
159.949027
 31
0.0
  0
LINE
  5
35F
  8
010
 10
104.014128
 20
160.019564
 30
0.0
 11
104.018415
 21
159.985569
 31
0.0
  0
LINE
  5
360
  8
010
 10
104.009935
 20
160.051292
 30
0.0
 11
104.014128
 21
160.019564
 31
0.0
  0
LINE
  5
361
  8
010
 10
104.005824
 20
160.080942
 30
0.0
 11
104.009935
 21
160.051292
 31
0.0
  0
LINE
  5
362
  8
010
 10
103.85346
 20
160.052809
 30
0.0
 11
103.85691
 21
160.082314
 31
0.0
  0
LINE
  5
363
  8
010
 10
103.84996
 20
160.021114
 30
0.0
 11
103.85346
 21
160.052809
 31
0.0
  0
LINE
  5
364
  8
010
 10
103.846399
 20
159.986988
 30
0.0
 11
103.84996
 21
160.021114
 31
0.0
  0
LINE
  5
365
  8
010
 10
103.842769
 20
159.950189
 30
0.0
 11
103.846399
 21
159.986988
 31
0.0
  0
LINE
  5
366
  8
010
 10
103.839064
 20
159.910477
 30
0.0
 11
103.842769
 21
159.950189
 31
0.0
  0
LINE
  5
367
  8
010
 10
103.835281
 20
159.86761
 30
0.0
 11
103.839064
 21
159.910477
 31
0.0
  0
LINE
  5
368
  8
010
 10
103.831419
 20
159.821345
 30
0.0
 11
103.835281
 21
159.86761
 31
0.0
  0
LINE
  5
369
  8
010
 10
103.827478
 20
159.771443
 30
0.0
 11
103.831419
 21
159.821345
 31
0.0
  0
LINE
  5
36A
  8
010
 10
103.823461
 20
159.717662
 30
0.0
 11
103.827478
 21
159.771443
 31
0.0
  0
LINE
  5
36B
  8
010
 10
103.819372
 20
159.659764
 30
0.0
 11
103.823461
 21
159.717662
 31
0.0
  0
LINE
  5
36C
  8
010
 10
103.815216
 20
159.597515
 30
0.0
 11
103.819372
 21
159.659764
 31
0.0
  0
LINE
  5
36D
  8
010
 10
103.810998
 20
159.530659
 30
0.0
 11
103.815216
 21
159.597515
 31
0.0
  0
LINE
  5
36E
  8
010
 10
103.806716
 20
159.458814
 30
0.0
 11
103.810998
 21
159.530659
 31
0.0
  0
LINE
  5
36F
  8
010
 10
103.802366
 20
159.381468
 30
0.0
 11
103.806716
 21
159.458814
 31
0.0
  0
LINE
  5
370
  8
010
 10
103.797945
 20
159.298108
 30
0.0
 11
103.802366
 21
159.381468
 31
0.0
  0
LINE
  5
371
  8
010
 10
103.793454
 20
159.20822
 30
0.0
 11
103.797945
 21
159.298108
 31
0.0
  0
LINE
  5
372
  8
010
 10
103.7889
 20
159.111292
 30
0.0
 11
103.793454
 21
159.20822
 31
0.0
  0
LINE
  5
373
  8
010
 10
103.784289
 20
159.006813
 30
0.0
 11
103.7889
 21
159.111292
 31
0.0
  0
LINE
  5
374
  8
010
 10
103.779633
 20
158.894274
 30
0.0
 11
103.784289
 21
159.006813
 31
0.0
  0
LINE
  5
375
  8
010
 10
103.774944
 20
158.773155
 30
0.0
 11
103.779633
 21
158.894274
 31
0.0
  0
LINE
  5
376
  8
010
 10
103.770233
 20
158.642788
 30
0.0
 11
103.774944
 21
158.773155
 31
0.0
  0
LINE
  5
377
  8
010
 10
103.765503
 20
158.502212
 30
0.0
 11
103.770233
 21
158.642788
 31
0.0
  0
LINE
  5
378
  8
010
 10
103.760764
 20
158.350419
 30
0.0
 11
103.765503
 21
158.502212
 31
0.0
  0
LINE
  5
379
  8
010
 10
103.756031
 20
158.186404
 30
0.0
 11
103.760764
 21
158.350419
 31
0.0
  0
LINE
  5
37A
  8
010
 10
103.751325
 20
158.009166
 30
0.0
 11
103.756031
 21
158.186404
 31
0.0
  0
LINE
  5
37B
  8
010
 10
103.746673
 20
157.817703
 30
0.0
 11
103.751325
 21
158.009166
 31
0.0
  0
LINE
  5
37C
  8
010
 10
104.299948
 20
154.842502
 30
0.0
 11
104.165713
 21
157.817703
 31
0.0
  0
LINE
  5
37D
  8
010
 10
103.746673
 20
157.817703
 30
0.0
 11
103.677953
 21
154.842575
 31
0.0
  0
LINE
  5
37E
  8
010
 10
100.108608
 20
165.976458
 30
0.0
 11
102.87465
 21
165.976458
 31
0.0
  0
LINE
  5
37F
  8
010
 10
97.481025
 20
165.976458
 30
0.0
 11
100.108608
 21
165.976458
 31
0.0
  0
LINE
  5
380
  8
010
 10
103.997843
 20
160.134365
 30
0.0
 11
104.001794
 21
160.108601
 31
0.0
  0
LINE
  5
381
  8
010
 10
103.993965
 20
160.158345
 30
0.0
 11
103.997843
 21
160.134365
 31
0.0
  0
LINE
  5
382
  8
010
 10
103.990151
 20
160.180664
 30
0.0
 11
103.993965
 21
160.158345
 31
0.0
  0
LINE
  5
383
  8
010
 10
103.986386
 20
160.201452
 30
0.0
 11
103.990151
 21
160.180664
 31
0.0
  0
LINE
  5
384
  8
010
 10
103.982654
 20
160.220843
 30
0.0
 11
103.986386
 21
160.201452
 31
0.0
  0
LINE
  5
385
  8
010
 10
103.97893
 20
160.238971
 30
0.0
 11
103.982654
 21
160.220843
 31
0.0
  0
LINE
  5
386
  8
010
 10
103.975185
 20
160.255969
 30
0.0
 11
103.97893
 21
160.238971
 31
0.0
  0
LINE
  5
387
  8
010
 10
103.971381
 20
160.271967
 30
0.0
 11
103.975185
 21
160.255969
 31
0.0
  0
LINE
  5
388
  8
010
 10
103.967466
 20
160.287086
 30
0.0
 11
103.971381
 21
160.271967
 31
0.0
  0
LINE
  5
389
  8
010
 10
103.963369
 20
160.301433
 30
0.0
 11
103.967466
 21
160.287086
 31
0.0
  0
LINE
  5
38A
  8
010
 10
103.958966
 20
160.315157
 30
0.0
 11
103.963369
 21
160.301433
 31
0.0
  0
LINE
  5
38B
  8
010
 10
103.954038
 20
160.328423
 30
0.0
 11
103.958966
 21
160.315157
 31
0.0
  0
LINE
  5
38C
  8
010
 10
103.948441
 20
160.340769
 30
0.0
 11
103.954038
 21
160.328423
 31
0.0
  0
LINE
  5
38D
  8
010
 10
103.94203
 20
160.351309
 30
0.0
 11
103.948441
 21
160.340769
 31
0.0
  0
LINE
  5
38E
  8
010
 10
103.933969
 20
160.359008
 30
0.0
 11
103.94203
 21
160.351309
 31
0.0
  0
LINE
  5
38F
  8
010
 10
103.923944
 20
160.359742
 30
0.0
 11
103.933969
 21
160.359008
 31
0.0
  0
LINE
  5
390
  8
010
 10
103.915367
 20
160.352362
 30
0.0
 11
103.923944
 21
160.359742
 31
0.0
  0
LINE
  5
391
  8
010
 10
103.9089
 20
160.341763
 30
0.0
 11
103.915367
 21
160.352362
 31
0.0
  0
LINE
  5
392
  8
010
 10
103.903603
 20
160.329774
 30
0.0
 11
103.9089
 21
160.341763
 31
0.0
  0
LINE
  5
393
  8
010
 10
103.899077
 20
160.317114
 30
0.0
 11
103.903603
 21
160.329774
 31
0.0
  0
LINE
  5
394
  8
010
 10
103.894995
 20
160.303744
 30
0.0
 11
103.899077
 21
160.317114
 31
0.0
  0
LINE
  5
395
  8
010
 10
103.891197
 20
160.289614
 30
0.0
 11
103.894995
 21
160.303744
 31
0.0
  0
LINE
  5
396
  8
010
 10
103.887585
 20
160.27463
 30
0.0
 11
103.891197
 21
160.289614
 31
0.0
  0
LINE
  5
397
  8
010
 10
103.884091
 20
160.25868
 30
0.0
 11
103.887585
 21
160.27463
 31
0.0
  0
LINE
  5
398
  8
010
 10
103.880669
 20
160.24164
 30
0.0
 11
103.884091
 21
160.25868
 31
0.0
  0
LINE
  5
399
  8
010
 10
103.877284
 20
160.223382
 30
0.0
 11
103.880669
 21
160.24164
 31
0.0
  0
LINE
  5
39A
  8
010
 10
103.873913
 20
160.20378
 30
0.0
 11
103.877284
 21
160.223382
 31
0.0
  0
LINE
  5
39B
  8
010
 10
103.870539
 20
160.18272
 30
0.0
 11
103.873913
 21
160.20378
 31
0.0
  0
LINE
  5
39C
  8
010
 10
103.867153
 20
160.160105
 30
0.0
 11
103.870539
 21
160.18272
 31
0.0
  0
LINE
  5
39D
  8
010
 10
103.863751
 20
160.135859
 30
0.0
 11
103.867153
 21
160.160105
 31
0.0
  0
LINE
  5
39E
  8
010
 10
103.860336
 20
160.109941
 30
0.0
 11
103.863751
 21
160.135859
 31
0.0
  0
LINE
  5
39F
  8
035
 10
104.653562
 20
168.863933
 30
0.0
 11
102.649609
 21
168.863933
 31
0.0
  0
ARC
  5
3A0
  8
05
 10
103.249609
 20
167.385472
 30
0.0
 40
0.6
 50
180.0
 51
270.0
  0
LINE
  5
3A1
  8
010
 10
95.019222
 20
177.285472
 30
0.0
 11
97.471443
 21
177.285472
 31
0.0
  0
LINE
  5
3A2
  8
010
 10
92.044974
 20
177.285472
 30
0.0
 11
92.794281
 21
177.285472
 31
0.0
  0
LINE
  5
3A3
  8
010
 10
90.346262
 20
177.285472
 30
0.0
 11
90.837807
 21
177.285472
 31
0.0
  0
LINE
  5
3A4
  8
010
 10
89.185344
 20
177.285472
 30
0.0
 11
90.346262
 21
177.285472
 31
0.0
  0
LINE
  5
3A5
  8
010
 10
90.837807
 20
177.285472
 30
0.0
 11
91.54961
 21
177.285472
 31
0.0
  0
LINE
  5
3A6
  8
010
 10
91.569526
 20
177.285472
 30
0.0
 11
92.044974
 21
177.285472
 31
0.0
  0
LINE
  5
3A7
  8
010
 10
91.54961
 20
177.285472
 30
0.0
 11
91.569526
 21
177.285472
 31
0.0
  0
LINE
  5
3A8
  8
010
 10
92.794281
 20
177.285472
 30
0.0
 11
95.019222
 21
177.285472
 31
0.0
  0
LINE
  5
3A9
  8
010
 10
100.104557
 20
177.285472
 30
0.0
 11
102.869378
 21
177.285472
 31
0.0
  0
LINE
  5
3AA
  8
010
 10
97.471443
 20
177.285472
 30
0.0
 11
100.104557
 21
177.285472
 31
0.0
  0
LINE
  5
3AB
  8
05
 10
103.845121
 20
176.052999
 30
0.0
 11
102.649609
 21
175.208856
 31
0.0
  0
ARC
  5
3AC
  8
035
 10
103.249609
 20
172.185472
 30
0.0
 40
0.6
 50
90.0
 51
180.0
  0
ARC
  5
3AD
  8
035
 10
103.599962
 20
172.185472
 30
0.0
 40
0.6
 50
9.594068
 51
90.0
  0
LINE
  5
3AE
  8
035
 10
103.599962
 20
172.785472
 30
0.0
 11
103.249609
 21
172.785472
 31
0.0
  0
SOLID
  5
3AF
  8
BEM1
  6
BYBLOCK
 10
88.899609
 20
201.165948
 30
0.0
 11
88.899609
 21
202.040948
 31
0.0
 12
85.399609
 22
201.603448
 32
0.0
 13
85.399609
 23
201.603448
 33
0.0
  0
TEXT
  5
3B0
  8
BEM1
  6
BYBLOCK
 62
     3
 10
96.460648
 20
202.509315
 30
0.0
 40
3.0
  1
%%c
 41
2.333333
 51
15.0
 72
     5
 11
101.127315
 21
202.509315
 31
0.0
  0
LINE
  5
3B1
  8
010
 10
119.627949
 20
148.413982
 30
0.0
 11
119.628256
 21
148.923675
 31
0.0
  0
LINE
  5
3B2
  8
010
 10
119.841291
 20
148.159807
 30
0.0
 11
119.843709
 21
148.985772
 31
0.0
  0
LINE
  5
3B3
  8
010
 10
118.012359
 20
148.622009
 30
0.0
 11
117.921709
 21
147.864695
 31
0.0
  0
LINE
  5
3B4
  8
010
 10
117.514252
 20
148.68406
 30
0.0
 11
117.418018
 21
147.92665
 31
0.0
  0
LINE
  5
3B5
  8
010
 10
126.815663
 20
151.681315
 30
0.0
 11
125.42048
 21
138.244203
 31
0.0
  0
LINE
  5
3B6
  8
010
 10
124.759246
 20
151.681315
 30
0.0
 11
123.500736
 21
138.244203
 31
0.0
  0
LINE
  5
3B7
  8
010
 10
110.46821
 20
138.244163
 30
0.0
 11
110.689516
 21
151.681315
 31
0.0
  0
LINE
  5
3B8
  8
010
 10
109.860102
 20
151.681315
 30
0.0
 11
109.639441
 21
138.244187
 31
0.0
  0
LINE
  5
3B9
  8
010
 10
125.551742
 20
138.244188
 30
0.0
 11
126.945627
 21
151.66782
 31
0.0
  0
LINE
  5
3BA
  8
010
 10
123.881678
 20
138.244188
 30
0.0
 11
125.140486
 21
151.681315
 31
0.0
  0
LINE
  5
3BB
  8
MITTE
 10
107.149609
 20
181.452284
 30
0.0
 11
107.149609
 21
106.785472
 31
0.0
  0
LINE
  5
3BE
  8
010
 10
118.499752
 20
152.948518
 30
0.0
 11
118.499752
 21
134.571039
 31
0.0
  0
LINE
  5
3BF
  8
05
 10
205.0
 20
5.0
 30
0.0
 11
205.0
 21
292.0
 31
0.0
  0
TEXT
  5
3C0
  8
025
  6
BYBLOCK
 10
154.0625
 20
27.464724
 30
0.0
 40
2.0
  1
 Ersetzt durch:
 41
0.714286
 51
15.0
 72
     5
 11
174.0625
 21
27.464724
 31
0.0
  0
TEXT
  5
3C1
  8
025
  6
BYBLOCK
 10
154.0625
 20
18.851323
 30
0.0
 40
2.0
  1
 Ersatz fuer:
 41
0.720238
 51
15.0
 72
     5
 11
171.348214
 21
18.851323
 31
0.0
  0
TEXT
  5
3C2
  8
035
  6
BYBLOCK
 10
167.25
 20
6.188267
 30
0.0
 40
3.5
  1
3102ST2509
 41
0.84127
 51
15.0
 72
     5
 11
193.75
 21
6.188267
 31
0.0
  0
LINE
  5
3C3
  8
05
 10
154.0
 20
23.0
 30
0.0
 11
205.0
 21
23.0
 31
0.0
  0
LINE
  5
3C4
  8
05
 10
154.0
 20
36.0
 30
0.0
 11
205.0
 21
36.0
 31
0.0
  0
LINE
  5
3C5
  8
05
 10
154.0
 20
41.0
 30
0.0
 11
205.0
 21
41.0
 31
0.0
  0
LINE
  5
3C6
  8
05
 10
154.0
 20
46.0
 30
0.0
 11
205.0
 21
46.0
 31
0.0
  0
TEXT
  5
3C7
  8
025
  6
BYBLOCK
 10
126.046742
 20
8.044214
 30
0.0
 40
2.43
  1
FL-9494 SCHAAN
 41
0.797909
 51
15.0
 72
     5
 11
152.545313
 21
8.044214
 31
0.0
  0
LINE
  5
3C8
  8
025
 10
114.151995
 20
8.86518
 30
0.0
 11
115.141399
 21
10.184385
 31
0.0
  0
LINE
  5
3C9
  8
025
 10
111.893016
 20
8.032986
 30
0.0
 11
113.653536
 21
10.380346
 31
0.0
  0
LINE
  5
3CA
  8
025
 10
119.463721
 20
8.852643
 30
0.0
 11
119.619678
 21
9.737114
 31
0.0
  0
LINE
  5
3CB
  8
025
 10
117.892316
 20
8.531394
 30
0.0
 11
118.14058
 21
9.939369
 31
0.0
  0
LINE
  5
3CC
  8
025
 10
116.611688
 20
10.380346
 30
0.0
 11
117.198528
 21
8.032986
 31
0.0
  0
LINE
  5
3CD
  8
025
 10
115.141399
 20
10.184385
 30
0.0
 11
115.4712
 21
8.86518
 31
0.0
  0
LINE
  5
3CE
  8
025
 10
107.855491
 20
9.2905
 30
0.0
 11
109.746798
 21
8.032986
 31
0.0
  0
LINE
  5
3CF
  8
025
 10
120.594483
 20
9.098491
 30
0.0
 11
122.715148
 21
9.098491
 31
0.0
  0
LINE
  5
3D0
  8
025
 10
121.012509
 20
8.032986
 30
0.0
 11
122.527271
 21
8.032986
 31
0.0
  0
LINE
  5
3D1
  8
025
 10
111.893016
 20
8.032986
 30
0.0
 11
113.52785
 21
8.032986
 31
0.0
  0
LINE
  5
3D2
  8
025
 10
109.746798
 20
8.032986
 30
0.0
 11
107.650942
 21
8.032986
 31
0.0
  0
LINE
  5
3D3
  8
025
 10
107.650942
 20
8.032986
 30
0.0
 11
106.053026
 21
8.955163
 31
0.0
  0
LINE
  5
3D4
  8
025
 10
106.053026
 20
8.955163
 30
0.0
 11
105.890422
 21
8.032986
 31
0.0
  0
LINE
  5
3D5
  8
025
 10
114.151995
 20
8.86518
 30
0.0
 11
115.4712
 21
8.86518
 31
0.0
  0
LINE
  5
3D6
  8
025
 10
113.879001
 20
8.501189
 30
0.0
 11
115.562198
 21
8.501189
 31
0.0
  0
LINE
  5
3D7
  8
025
 10
113.52785
 20
8.032986
 30
0.0
 11
113.879001
 21
8.501189
 31
0.0
  0
LINE
  5
3D8
  8
025
 10
115.679249
 20
8.032986
 30
0.0
 11
117.198528
 21
8.032986
 31
0.0
  0
LINE
  5
3D9
  8
025
 10
115.562198
 20
8.501189
 30
0.0
 11
115.679249
 21
8.032986
 31
0.0
  0
ARC
  5
3DA
  8
025
 10
120.129248
 20
21.390749
 30
0.0
 40
13.359631
 50
261.461473
 51
273.811814
  0
ARC
  5
3DB
  8
025
 10
118.190666
 20
8.478787
 30
0.0
 40
0.302952
 50
170.000029
 51
261.461426
  0
ARC
  5
3DC
  8
025
 10
120.844674
 20
8.825773
 30
0.0
 40
0.302952
 50
281.193098
 51
350.000029
  0
ARC
  5
3DD
  8
025
 10
119.762072
 20
8.800037
 30
0.0
 40
0.302953
 50
170.000062
 51
261.530459
  0
ARC
  5
3DE
  8
025
 10
120.229118
 20
11.93653
 30
0.0
 40
3.474028
 50
261.530482
 51
281.193078
  0
LINE
  5
3DF
  8
025
 10
120.556177
 20
8.881252
 30
0.0
 11
121.162082
 21
8.881252
 31
0.0
  0
LINE
  5
3E0
  8
025
 10
121.143023
 20
8.773166
 30
0.0
 11
121.162082
 21
8.881252
 31
0.0
  0
LINE
  5
3E1
  8
025
 10
121.012509
 20
8.032986
 30
0.0
 11
121.017391
 21
8.060672
 31
0.0
  0
LINE
  5
3E2
  8
025
 10
120.556177
 20
8.881252
 30
0.0
 11
120.594483
 21
9.098491
 31
0.0
  0
LINE
  5
3E3
  8
025
 10
122.527271
 20
8.032986
 30
0.0
 11
122.715148
 21
9.098491
 31
0.0
  0
TEXT
  5
3E4
  8
025
  6
BYBLOCK
 10
117.928571
 20
47.464724
 30
0.0
 40
2.0
  1
Werkstoff
 41
0.730159
 51
15.0
 72
     5
 11
131.071429
 21
47.464724
 31
0.0
  0
ARC
  5
3E5
  8
025
 10
120.661926
 20
-2.979285
 30
0.0
 40
13.359631
 50
81.659895
 51
99.802789
  0
LINE
  5
3E6
  8
025
 10
121.292953
 20
9.74478
 30
0.0
 11
122.829106
 21
9.74478
 31
0.0
  0
LINE
  5
3E7
  8
05
 10
113.0
 20
51.0
 30
0.0
 11
113.0
 21
31.0
 31
0.0
  0
LINE
  5
3E8
  8
025
 10
110.160701
 20
10.380346
 30
0.0
 11
107.855491
 21
9.2905
 31
0.0
  0
LINE
  5
3E9
  8
025
 10
108.047661
 20
10.380346
 30
0.0
 11
110.160701
 21
10.380346
 31
0.0
  0
LINE
  5
3EA
  8
025
 10
106.112155
 20
9.2905
 30
0.0
 11
108.047661
 21
10.380346
 31
0.0
  0
LINE
  5
3EB
  8
025
 10
106.304324
 20
10.380346
 30
0.0
 11
106.112155
 21
9.2905
 31
0.0
  0
LINE
  5
3EC
  8
025
 10
113.653536
 20
10.380346
 30
0.0
 11
116.611688
 21
10.380346
 31
0.0
  0
ARC
  5
3ED
  8
025
 10
118.438929
 20
9.886761
 30
0.0
 40
0.302953
 50
99.80278
 51
169.999843
  0
ARC
  5
3EE
  8
025
 10
120.996075
 20
9.684415
 30
0.0
 40
0.302952
 50
11.493419
 51
80.208319
  0
ARC
  5
3EF
  8
025
 10
119.918027
 20
9.684507
 30
0.0
 40
0.302953
 50
99.781854
 51
170.000029
  0
ARC
  5
3F0
  8
025
 10
120.456783
 20
6.559533
 30
0.0
 40
3.474028
 50
80.208346
 51
99.781828
  0
LINE
  5
3F1
  8
05
 10
136.0
 20
51.0
 30
0.0
 11
136.0
 21
31.0
 31
0.0
  0
ARC
  5
3F2
  8
025
 10
122.555782
 20
9.939313
 30
0.0
 40
0.302952
 50
350.000029
 51
441.659886
  0
LINE
  5
3F3
  8
025
 10
122.829106
 20
9.74478
 30
0.0
 11
122.854131
 21
9.886706
 31
0.0
  0
LINE
  5
3F4
  8
05
 10
154.0
 20
51.0
 30
0.0
 11
154.0
 21
5.0
 31
0.0
  0
TEXT
  5
3F5
  8
025
  6
BYBLOCK
 10
142.5
 20
32.464724
 30
0.0
 40
2.0
  1
(
 41
1.285714
 72
     5
 11
143.357143
 21
32.464724
 31
0.0
  0
TEXT
  5
3F6
  8
025
  6
BYBLOCK
 10
143.357143
 20
32.464724
 30
0.0
 40
2.0
  1
A4
 41
0.985714
 51
15.0
 72
     5
 11
146.642857
 21
32.464724
 31
0.0
  0
TEXT
  5
3F7
  8
025
  6
BYBLOCK
 10
146.642857
 20
32.464724
 30
0.0
 40
2.0
  1
)
 41
1.285714
 72
     5
 11
147.5
 21
32.464724
 31
0.0
  0
TEXT
  5
3F8
  8
025
  6
BYBLOCK
 10
138.928571
 20
47.464724
 30
0.0
 40
2.0
  1
Massstab:
 41
0.758929
 51
15.0
 72
     5
 11
151.071429
 21
47.464724
 31
0.0
  0
TEXT
  5
3F9
  8
025
  6
BYBLOCK
 10
142.125
 20
37.298408
 30
0.0
 40
3.5
  1
3:1
 41
0.985714
 51
15.0
 72
     5
 11
147.875
 21
37.298408
 31
0.0
  0
TEXT
  5
3FA
  8
025
  6
BYBLOCK
 10
154.0625
 20
32.464724
 30
0.0
 40
2.0
  1
 Gesehen
 41
0.763975
 51
15.0
 72
     5
 11
165.776786
 21
32.464724
 31
0.0
  0
TEXT
  5
3FB
  8
025
  6
BYBLOCK
 10
154.0625
 20
11.464724
 30
0.0
 40
2.0
  1
 Zeichn. Nr.
 41
0.852217
 51
15.0
 72
     5
 11
170.53869
 21
11.464724
 31
0.0
  0
TEXT
  5
3FC
  8
025
  6
BYBLOCK
 10
154.0625
 20
42.464724
 30
0.0
 40
2.0
  1
 Gezeichnet
 41
0.759524
 51
15.0
 72
     5
 11
169.252976
 21
42.464724
 31
0.0
  0
TEXT
  5
3FD
  8
025
  6
BYBLOCK
 10
154.0625
 20
37.464724
 30
0.0
 40
2.0
  1
 Geprueft
 41
0.717033
 51
15.0
 72
     5
 11
166.491071
 21
37.464724
 31
0.0
  0
LINE
  5
3FE
  8
010
 10
121.416738
 20
111.934604
 30
0.0
 11
121.357084
 21
111.611958
 31
0.0
  0
LINE
  5
3FF
  8
010
 10
122.259644
 20
124.993313
 30
0.0
 11
121.036524
 21
111.934604
 31
0.0
  0
ARC
  5
400
  8
05
 10
120.567316
 20
112.185472
 30
0.0
 40
2.4
 50
270.0
 51
322.142087
  0
LINE
  5
401
  8
010
 10
118.871539
 20
121.221895
 30
0.0
 11
119.165151
 21
126.853449
 31
0.0
  0
LINE
  5
402
  8
010
 10
110.249913
 20
124.993274
 30
0.0
 11
110.46821
 21
138.244163
 31
0.0
  0
LINE
  5
403
  8
010
 10
109.639441
 20
138.244187
 30
0.0
 11
109.421881
 21
124.993298
 31
0.0
  0
LINE
  5
404
  8
010
 10
119.045697
 20
121.250462
 30
0.0
 11
119.407511
 21
128.106836
 31
0.0
  0
LINE
  5
405
  8
010
 10
115.244823
 20
128.091166
 30
0.0
 11
114.732216
 21
121.232541
 31
0.0
  0
LINE
  5
406
  8
05
 10
111.65397
 20
109.785472
 30
0.0
 11
114.323556
 21
109.785472
 31
0.0
  0
LINE
  5
407
  8
05
 10
114.299454
 20
109.785472
 30
0.0
 11
111.649407
 21
109.785472
 31
0.0
  0
LINE
  5
408
  8
010
 10
110.03471
 20
111.934604
 30
0.0
 11
110.249913
 21
124.993274
 31
0.0
  0
LINE
  5
409
  8
010
 10
109.421881
 20
124.993298
 30
0.0
 11
109.207529
 21
111.934604
 31
0.0
  0
LINE
  5
40A
  8
05
 10
107.149609
 20
109.785472
 30
0.0
 11
111.506332
 21
109.785472
 31
0.0
  0
LINE
  5
40B
  8
05
 10
111.649407
 20
109.785472
 30
0.0
 11
107.149609
 21
109.785472
 31
0.0
  0
LINE
  5
40C
  8
010
 10
105.078886
 20
111.611958
 30
0.0
 11
105.027157
 21
111.287605
 31
0.0
  0
LINE
  5
40D
  8
010
 10
105.09169
 20
111.934604
 30
0.0
 11
105.078886
 21
111.611958
 31
0.0
  0
LINE
  5
40E
  8
010
 10
109.399604
 20
110.905185
 30
0.0
 11
109.363382
 21
110.978697
 31
0.0
  0
LINE
  5
40F
  8
010
 10
109.448034
 20
110.850137
 30
0.0
 11
109.399604
 21
110.905185
 31
0.0
  0
LINE
  5
410
  8
010
 10
109.510431
 20
110.816894
 30
0.0
 11
109.448034
 21
110.850137
 31
0.0
  0
LINE
  5
411
  8
010
 10
109.585678
 20
110.812938
 30
0.0
 11
109.510431
 21
110.816894
 31
0.0
  0
LINE
  5
412
  8
010
 10
109.662197
 20
110.843004
 30
0.0
 11
109.585678
 21
110.812938
 31
0.0
  0
LINE
  5
413
  8
010
 10
109.72833
 20
110.900418
 30
0.0
 11
109.662197
 21
110.843004
 31
0.0
  0
LINE
  5
414
  8
010
 10
109.782423
 20
110.978697
 30
0.0
 11
109.72833
 21
110.900418
 31
0.0
  0
LINE
  5
415
  8
010
 10
109.220417
 20
111.61109
 30
0.0
 11
109.207529
 21
111.934604
 31
0.0
  0
LINE
  5
416
  8
010
 10
109.272242
 20
111.286806
 30
0.0
 11
109.220417
 21
111.61109
 31
0.0
  0
LINE
  5
417
  8
010
 10
109.363382
 20
110.978697
 30
0.0
 11
109.272242
 21
111.286806
 31
0.0
  0
LINE
  5
418
  8
010
 10
109.920422
 20
111.287605
 30
0.0
 11
109.782423
 21
110.978697
 31
0.0
  0
LINE
  5
419
  8
010
 10
110.004435
 20
111.611958
 30
0.0
 11
109.920422
 21
111.287605
 31
0.0
  0
LINE
  5
41A
  8
010
 10
110.03471
 20
111.934604
 30
0.0
 11
110.004435
 21
111.611958
 31
0.0
  0
LINE
  5
41B
  8
05
 10
111.506332
 20
109.785472
 30
0.0
 11
111.65397
 21
109.785472
 31
0.0
  0
LINE
  5
41C
  8
010
 10
114.125101
 20
113.866002
 30
0.0
 11
114.101307
 21
113.493376
 31
0.0
  0
LINE
  5
41D
  8
010
 10
118.748222
 20
120.395616
 30
0.0
 11
118.329066
 21
113.610826
 31
0.0
  0
LINE
  5
41E
  8
010
 10
117.086685
 20
110.451289
 30
0.0
 11
117.340631
 21
110.64326
 31
0.0
  0
LINE
  5
41F
  8
010
 10
117.193722
 20
110.432326
 30
0.0
 11
117.320117
 21
110.514598
 31
0.0
  0
LINE
  5
420
  8
05
 10
116.445158
 20
109.785472
 30
0.0
 11
117.668162
 21
109.785472
 31
0.0
  0
LINE
  5
421
  8
05
 10
117.632453
 20
109.785472
 30
0.0
 11
116.415953
 21
109.785472
 31
0.0
  0
LINE
  5
422
  8
010
 10
115.163427
 20
110.089893
 30
0.0
 11
115.369693
 21
110.047257
 31
0.0
  0
LINE
  5
423
  8
05
 10
115.209042
 20
109.785472
 30
0.0
 11
116.445158
 21
109.785472
 31
0.0
  0
LINE
  5
424
  8
05
 10
116.415953
 20
109.785472
 30
0.0
 11
115.199454
 21
109.785472
 31
0.0
  0
LINE
  5
425
  8
010
 10
114.224277
 20
112.264111
 30
0.0
 11
114.322681
 21
111.934604
 31
0.0
  0
LINE
  5
426
  8
010
 10
114.158107
 20
112.567347
 30
0.0
 11
114.224277
 21
112.264111
 31
0.0
  0
LINE
  5
427
  8
010
 10
114.11801
 20
112.853846
 30
0.0
 11
114.158107
 21
112.567347
 31
0.0
  0
LINE
  5
428
  8
010
 10
114.098748
 20
113.154781
 30
0.0
 11
114.11801
 21
112.853846
 31
0.0
  0
LINE
  5
429
  8
010
 10
114.101307
 20
113.493376
 30
0.0
 11
114.098748
 21
113.154781
 31
0.0
  0
LINE
  5
42A
  8
010
 10
114.497721
 20
111.396674
 30
0.0
 11
114.505125
 21
111.359939
 31
0.0
  0
LINE
  5
42B
  8
010
 10
114.488785
 20
111.437239
 30
0.0
 11
114.497721
 21
111.396674
 31
0.0
  0
LINE
  5
42C
  8
010
 10
114.477887
 20
111.482651
 30
0.0
 11
114.488785
 21
111.437239
 31
0.0
  0
LINE
  5
42D
  8
010
 10
114.464748
 20
111.532981
 30
0.0
 11
114.477887
 21
111.482651
 31
0.0
  0
LINE
  5
42E
  8
010
 10
114.449211
 20
111.58778
 30
0.0
 11
114.464748
 21
111.532981
 31
0.0
  0
LINE
  5
42F
  8
010
 10
114.43104
 20
111.646908
 30
0.0
 11
114.449211
 21
111.58778
 31
0.0
  0
LINE
  5
430
  8
010
 10
114.409832
 20
111.710706
 30
0.0
 11
114.43104
 21
111.646908
 31
0.0
  0
LINE
  5
431
  8
010
 10
115.010198
 20
110.148705
 30
0.0
 11
115.163427
 21
110.089893
 31
0.0
  0
LINE
  5
432
  8
010
 10
114.893737
 20
110.220546
 30
0.0
 11
115.010198
 21
110.148705
 31
0.0
  0
LINE
  5
433
  8
010
 10
114.805758
 20
110.302087
 30
0.0
 11
114.893737
 21
110.220546
 31
0.0
  0
LINE
  5
434
  8
010
 10
114.739819
 20
110.388913
 30
0.0
 11
114.805758
 21
110.302087
 31
0.0
  0
LINE
  5
435
  8
010
 10
114.690519
 20
110.477476
 30
0.0
 11
114.739819
 21
110.388913
 31
0.0
  0
LINE
  5
436
  8
010
 10
114.653665
 20
110.565493
 30
0.0
 11
114.690519
 21
110.477476
 31
0.0
  0
LINE
  5
437
  8
010
 10
114.626013
 20
110.651541
 30
0.0
 11
114.653665
 21
110.565493
 31
0.0
  0
LINE
  5
438
  8
010
 10
114.604874
 20
110.734611
 30
0.0
 11
114.626013
 21
110.651541
 31
0.0
  0
LINE
  5
439
  8
010
 10
114.58808
 20
110.814034
 30
0.0
 11
114.604874
 21
110.734611
 31
0.0
  0
LINE
  5
43A
  8
010
 10
114.574076
 20
110.88866
 30
0.0
 11
114.58808
 21
110.814034
 31
0.0
  0
LINE
  5
43B
  8
010
 10
114.561631
 20
110.957697
 30
0.0
 11
114.574076
 21
110.88866
 31
0.0
  0
LINE
  5
43C
  8
010
 10
114.550207
 20
111.022523
 30
0.0
 11
114.561631
 21
110.957697
 31
0.0
  0
LINE
  5
43D
  8
05
 10
114.323556
 20
109.785472
 30
0.0
 11
115.209042
 21
109.785472
 31
0.0
  0
LINE
  5
43E
  8
05
 10
115.036339
 20
109.785472
 30
0.0
 11
114.299454
 21
109.785472
 31
0.0
  0
LINE
  5
43F
  8
05
 10
115.199454
 20
109.785472
 30
0.0
 11
115.036339
 21
109.785472
 31
0.0
  0
LINE
  5
440
  8
010
 10
116.800455
 20
110.299522
 30
0.0
 11
117.086685
 21
110.451289
 31
0.0
  0
LINE
  5
441
  8
010
 10
116.489581
 20
110.190035
 30
0.0
 11
116.800455
 21
110.299522
 31
0.0
  0
LINE
  5
442
  8
010
 10
116.152949
 20
110.119039
 30
0.0
 11
116.489581
 21
110.190035
 31
0.0
  0
LINE
  5
443
  8
010
 10
116.002676
 20
110.100511
 30
0.0
 11
116.152949
 21
110.119039
 31
0.0
  0
LINE
  5
444
  8
010
 10
117.045581
 20
110.349968
 30
0.0
 11
117.193722
 21
110.432326
 31
0.0
  0
LINE
  5
445
  8
010
 10
116.87325
 20
110.269981
 30
0.0
 11
117.045581
 21
110.349968
 31
0.0
  0
LINE
  5
446
  8
010
 10
116.675676
 20
110.195848
 30
0.0
 11
116.87325
 21
110.269981
 31
0.0
  0
LINE
  5
447
  8
010
 10
116.452912
 20
110.131115
 30
0.0
 11
116.675676
 21
110.195848
 31
0.0
  0
LINE
  5
448
  8
010
 10
116.202753
 20
110.078452
 30
0.0
 11
116.452912
 21
110.131115
 31
0.0
  0
LINE
  5
449
  8
010
 10
116.008851
 20
110.053085
 30
0.0
 11
116.202753
 21
110.078452
 31
0.0
  0
LINE
  5
44A
  8
010
 10
115.772528
 20
110.089851
 30
0.0
 11
116.002648
 21
110.100497
 31
0.0
  0
LINE
  5
44B
  8
010
 10
115.552071
 20
110.108324
 30
0.0
 11
115.772528
 21
110.089851
 31
0.0
  0
LINE
  5
44C
  8
010
 10
115.922858
 20
110.041835
 30
0.0
 11
116.008851
 21
110.053085
 31
0.0
  0
LINE
  5
44D
  8
010
 10
115.631795
 20
110.029642
 30
0.0
 11
115.922858
 21
110.041835
 31
0.0
  0
LINE
  5
44E
  8
010
 10
115.369693
 20
110.047257
 30
0.0
 11
115.631795
 21
110.029642
 31
0.0
  0
LINE
  5
44F
  8
010
 10
116.002648
 20
110.100497
 30
0.0
 11
116.004677
 21
110.100698
 31
0.0
  0
LINE
  5
450
  8
05
 10
118.551903
 20
109.785472
 30
0.0
 11
120.567316
 21
109.785472
 31
0.0
  0
LINE
  5
451
  8
05
 10
120.567316
 20
109.785472
 30
0.0
 11
118.532453
 21
109.785472
 31
0.0
  0
LINE
  5
452
  8
010
 10
118.637974
 20
113.154781
 30
0.0
 11
118.673609
 21
113.493376
 31
0.0
  0
LINE
  5
453
  8
010
 10
118.58967
 20
112.853846
 30
0.0
 11
118.637974
 21
113.154781
 31
0.0
  0
LINE
  5
454
  8
010
 10
118.526709
 20
112.567347
 30
0.0
 11
118.58967
 21
112.853846
 31
0.0
  0
LINE
  5
455
  8
010
 10
118.441236
 20
112.264111
 30
0.0
 11
118.526709
 21
112.567347
 31
0.0
  0
LINE
  5
456
  8
010
 10
118.326746
 20
111.934604
 30
0.0
 11
118.441236
 21
112.264111
 31
0.0
  0
LINE
  5
457
  8
010
 10
117.707255
 20
111.067644
 30
0.0
 11
117.809226
 21
111.230821
 31
0.0
  0
LINE
  5
458
  8
010
 10
117.545841
 20
110.855865
 30
0.0
 11
117.707255
 21
111.067644
 31
0.0
  0
LINE
  5
459
  8
010
 10
117.340631
 20
110.64326
 30
0.0
 11
117.545841
 21
110.855865
 31
0.0
  0
LINE
  5
45A
  8
010
 10
117.809226
 20
111.230821
 30
0.0
 11
117.870036
 21
111.352459
 31
0.0
  0
LINE
  5
45B
  8
010
 10
117.85702
 20
111.054502
 30
0.0
 11
117.892098
 21
111.105753
 31
0.0
  0
LINE
  5
45C
  8
010
 10
117.817492
 20
111.000761
 30
0.0
 11
117.85702
 21
111.054502
 31
0.0
  0
LINE
  5
45D
  8
010
 10
117.773202
 20
110.944109
 30
0.0
 11
117.817492
 21
111.000761
 31
0.0
  0
LINE
  5
45E
  8
010
 10
117.723132
 20
110.883598
 30
0.0
 11
117.773202
 21
110.944109
 31
0.0
  0
LINE
  5
45F
  8
010
 10
117.6655
 20
110.818292
 30
0.0
 11
117.723132
 21
110.883598
 31
0.0
  0
LINE
  5
460
  8
010
 10
117.59827
 20
110.748013
 30
0.0
 11
117.6655
 21
110.818292
 31
0.0
  0
LINE
  5
461
  8
010
 10
117.519643
 20
110.673342
 30
0.0
 11
117.59827
 21
110.748013
 31
0.0
  0
LINE
  5
462
  8
010
 10
117.427776
 20
110.595271
 30
0.0
 11
117.519643
 21
110.673342
 31
0.0
  0
LINE
  5
463
  8
010
 10
117.320117
 20
110.514598
 30
0.0
 11
117.427776
 21
110.595271
 31
0.0
  0
LINE
  5
464
  8
010
 10
118.253705
 20
111.778713
 30
0.0
 11
118.289339
 21
111.853679
 31
0.0
  0
LINE
  5
465
  8
010
 10
118.219844
 20
111.709259
 30
0.0
 11
118.253705
 21
111.778713
 31
0.0
  0
LINE
  5
466
  8
010
 10
118.187714
 20
111.644857
 30
0.0
 11
118.219844
 21
111.709259
 31
0.0
  0
LINE
  5
467
  8
010
 10
118.120918
 20
112.136575
 30
0.0
 11
118.022687
 21
111.768014
 31
0.0
  0
LINE
  5
468
  8
010
 10
118.210012
 20
112.577247
 30
0.0
 11
118.120918
 21
112.136575
 31
0.0
  0
LINE
  5
469
  8
010
 10
118.281532
 20
113.074546
 30
0.0
 11
118.210012
 21
112.577247
 31
0.0
  0
LINE
  5
46A
  8
010
 10
118.329066
 20
113.610826
 30
0.0
 11
118.281532
 21
113.074546
 31
0.0
  0
LINE
  5
46B
  8
05
 10
117.649609
 20
109.785472
 30
0.0
 11
117.649609
 21
109.635472
 31
0.0
  0
LINE
  5
46C
  8
05
 10
117.668162
 20
109.785472
 30
0.0
 11
117.685502
 21
109.785472
 31
0.0
  0
LINE
  5
46D
  8
05
 10
117.685502
 20
109.785472
 30
0.0
 11
118.382463
 21
109.785472
 31
0.0
  0
LINE
  5
46E
  8
05
 10
118.382463
 20
109.785472
 30
0.0
 11
118.551903
 21
109.785472
 31
0.0
  0
LINE
  5
46F
  8
05
 10
117.649609
 20
109.785472
 30
0.0
 11
117.632453
 21
109.785472
 31
0.0
  0
LINE
  5
470
  8
05
 10
118.532453
 20
109.785472
 30
0.0
 11
117.649609
 21
109.785472
 31
0.0
  0
LINE
  5
471
  8
05
 10
118.532453
 20
109.785472
 30
0.0
 11
118.532453
 21
109.635472
 31
0.0
  0
LINE
  5
472
  8
05
 10
117.649377
 20
109.635472
 30
0.0
 11
118.532453
 21
109.635472
 31
0.0
  0
LINE
  5
473
  8
010
 10
120.836298
 20
110.905185
 30
0.0
 11
120.855697
 21
110.978697
 31
0.0
  0
LINE
  5
474
  8
010
 10
120.83046
 20
110.86889
 30
0.0
 11
120.836298
 21
110.905185
 31
0.0
  0
LINE
  5
475
  8
010
 10
120.82966
 20
110.850137
 30
0.0
 11
120.83046
 21
110.86889
 31
0.0
  0
LINE
  5
476
  8
010
 10
120.840061
 20
110.816894
 30
0.0
 11
120.82966
 21
110.850137
 31
0.0
  0
LINE
  5
477
  8
010
 10
120.87243
 20
110.812938
 30
0.0
 11
120.840061
 21
110.816894
 31
0.0
  0
LINE
  5
478
  8
010
 10
120.924231
 20
110.843004
 30
0.0
 11
120.87243
 21
110.812938
 31
0.0
  0
LINE
  5
479
  8
010
 10
120.98496
 20
110.900418
 30
0.0
 11
120.924231
 21
110.843004
 31
0.0
  0
LINE
  5
47A
  8
010
 10
120.996538
 20
111.61109
 30
0.0
 11
121.036524
 21
111.934604
 31
0.0
  0
LINE
  5
47B
  8
010
 10
120.935751
 20
111.286806
 30
0.0
 11
120.996538
 21
111.61109
 31
0.0
  0
LINE
  5
47C
  8
010
 10
120.867878
 20
111.025577
 30
0.0
 11
120.935751
 21
111.286806
 31
0.0
  0
LINE
  5
47D
  8
010
 10
121.233946
 20
111.287605
 30
0.0
 11
121.048309
 21
110.978697
 31
0.0
  0
LINE
  5
47E
  8
010
 10
121.357084
 20
111.611958
 30
0.0
 11
121.233946
 21
111.287605
 31
0.0
  0
LINE
  5
47F
  8
010
 10
121.048309
 20
110.978697
 30
0.0
 11
120.98496
 21
110.900418
 31
0.0
  0
LINE
  5
480
  8
010
 10
120.855697
 20
110.978697
 30
0.0
 11
120.867878
 21
111.025577
 31
0.0
  0
LINE
  5
481
  8
010
 10
114.732216
 20
121.232541
 30
0.0
 11
114.125101
 21
113.866002
 31
0.0
  0
LINE
  5
482
  8
010
 10
118.696686
 20
113.866002
 30
0.0
 11
119.045697
 21
121.250462
 31
0.0
  0
LINE
  5
483
  8
010
 10
119.625452
 20
134.571039
 30
0.0
 11
119.624022
 21
141.243734
 31
0.0
  0
LINE
  5
484
  8
010
 10
119.758141
 20
136.64764
 30
0.0
 11
119.75194
 21
138.473321
 31
0.0
  0
LINE
  5
485
  8
010
 10
116.568637
 20
137.393177
 30
0.0
 11
116.416789
 21
136.471173
 31
0.0
  0
LINE
  5
486
  8
010
 10
116.117296
 20
137.456001
 30
0.0
 11
115.984302
 21
136.53409
 31
0.0
  0
LINE
  5
487
  8
010
 10
116.084045
 20
134.506834
 30
0.0
 11
115.651742
 21
128.066417
 31
0.0
  0
LINE
  5
488
  8
010
 10
115.680366
 20
134.528045
 30
0.0
 11
115.244823
 21
128.091166
 31
0.0
  0
LINE
  5
489
  8
010
 10
116.261308
 20
135.559792
 30
0.0
 11
116.095151
 21
134.571067
 31
0.0
  0
LINE
  5
48A
  8
010
 10
116.416789
 20
136.471173
 30
0.0
 11
116.261308
 21
135.559792
 31
0.0
  0
LINE
  5
48B
  8
010
 10
115.847028
 20
135.622781
 30
0.0
 11
115.692531
 21
134.634294
 31
0.0
  0
LINE
  5
48C
  8
010
 10
115.984302
 20
136.53409
 30
0.0
 11
115.847028
 21
135.622781
 31
0.0
  0
LINE
  5
48D
  8
010
 10
119.416879
 20
131.03025
 30
0.0
 11
119.42347
 21
131.138746
 31
0.0
  0
LINE
  5
48E
  8
010
 10
119.407511
 20
128.106836
 30
0.0
 11
119.769125
 21
134.321967
 31
0.0
  0
LINE
  5
48F
  8
010
 10
119.352254
 20
129.964573
 30
0.0
 11
119.358614
 21
130.069617
 31
0.0
  0
LINE
  5
490
  8
010
 10
119.345916
 20
129.859855
 30
0.0
 11
119.352254
 21
129.964573
 31
0.0
  0
LINE
  5
491
  8
010
 10
119.3396
 20
129.755458
 30
0.0
 11
119.345916
 21
129.859855
 31
0.0
  0
LINE
  5
492
  8
010
 10
119.333305
 20
129.651379
 30
0.0
 11
119.3396
 21
129.755458
 31
0.0
  0
LINE
  5
493
  8
010
 10
119.327032
 20
129.547615
 30
0.0
 11
119.333305
 21
129.651379
 31
0.0
  0
LINE
  5
494
  8
010
 10
119.32078
 20
129.444163
 30
0.0
 11
119.327032
 21
129.547615
 31
0.0
  0
LINE
  5
495
  8
010
 10
119.314549
 20
129.341017
 30
0.0
 11
119.32078
 21
129.444163
 31
0.0
  0
LINE
  5
496
  8
010
 10
119.308339
 20
129.238176
 30
0.0
 11
119.314549
 21
129.341017
 31
0.0
  0
LINE
  5
497
  8
010
 10
119.30215
 20
129.135636
 30
0.0
 11
119.308339
 21
129.238176
 31
0.0
  0
LINE
  5
498
  8
010
 10
119.295981
 20
129.033392
 30
0.0
 11
119.30215
 21
129.135636
 31
0.0
  0
LINE
  5
499
  8
010
 10
119.289832
 20
128.931441
 30
0.0
 11
119.295981
 21
129.033392
 31
0.0
  0
LINE
  5
49A
  8
010
 10
119.283704
 20
128.82978
 30
0.0
 11
119.289832
 21
128.931441
 31
0.0
  0
LINE
  5
49B
  8
010
 10
119.277595
 20
128.728406
 30
0.0
 11
119.283704
 21
128.82978
 31
0.0
  0
LINE
  5
49C
  8
010
 10
119.271506
 20
128.627314
 30
0.0
 11
119.277595
 21
128.728406
 31
0.0
  0
LINE
  5
49D
  8
010
 10
119.265437
 20
128.526502
 30
0.0
 11
119.271506
 21
128.627314
 31
0.0
  0
LINE
  5
49E
  8
010
 10
119.259387
 20
128.425965
 30
0.0
 11
119.265437
 21
128.526502
 31
0.0
  0
LINE
  5
49F
  8
010
 10
119.253356
 20
128.3257
 30
0.0
 11
119.259387
 21
128.425965
 31
0.0
  0
LINE
  5
4A0
  8
010
 10
119.247343
 20
128.225704
 30
0.0
 11
119.253356
 21
128.3257
 31
0.0
  0
LINE
  5
4A1
  8
010
 10
119.24135
 20
128.125973
 30
0.0
 11
119.247343
 21
128.225704
 31
0.0
  0
LINE
  5
4A2
  8
010
 10
119.235375
 20
128.026504
 30
0.0
 11
119.24135
 21
128.125973
 31
0.0
  0
LINE
  5
4A3
  8
010
 10
119.229419
 20
127.927292
 30
0.0
 11
119.235375
 21
128.026504
 31
0.0
  0
LINE
  5
4A4
  8
010
 10
119.223481
 20
127.828336
 30
0.0
 11
119.229419
 21
127.927292
 31
0.0
  0
LINE
  5
4A5
  8
010
 10
119.217561
 20
127.72963
 30
0.0
 11
119.223481
 21
127.828336
 31
0.0
  0
LINE
  5
4A6
  8
010
 10
119.211659
 20
127.631172
 30
0.0
 11
119.217561
 21
127.72963
 31
0.0
  0
LINE
  5
4A7
  8
010
 10
119.205775
 20
127.532959
 30
0.0
 11
119.211659
 21
127.631172
 31
0.0
  0
LINE
  5
4A8
  8
010
 10
119.199908
 20
127.434986
 30
0.0
 11
119.205775
 21
127.532959
 31
0.0
  0
LINE
  5
4A9
  8
010
 10
119.194058
 20
127.33725
 30
0.0
 11
119.199908
 21
127.434986
 31
0.0
  0
LINE
  5
4AA
  8
010
 10
119.188226
 20
127.239749
 30
0.0
 11
119.194058
 21
127.33725
 31
0.0
  0
LINE
  5
4AB
  8
010
 10
119.182411
 20
127.142477
 30
0.0
 11
119.188226
 21
127.239749
 31
0.0
  0
LINE
  5
4AC
  8
010
 10
119.176612
 20
127.045433
 30
0.0
 11
119.182411
 21
127.142477
 31
0.0
  0
LINE
  5
4AD
  8
010
 10
119.17083
 20
126.948612
 30
0.0
 11
119.176612
 21
127.045433
 31
0.0
  0
LINE
  5
4AE
  8
010
 10
119.165065
 20
126.852011
 30
0.0
 11
119.17083
 21
126.948612
 31
0.0
  0
LINE
  5
4AF
  8
010
 10
119.159316
 20
126.755627
 30
0.0
 11
119.165065
 21
126.852011
 31
0.0
  0
LINE
  5
4B0
  8
010
 10
119.153583
 20
126.659457
 30
0.0
 11
119.159316
 21
126.755627
 31
0.0
  0
LINE
  5
4B1
  8
010
 10
119.147867
 20
126.563496
 30
0.0
 11
119.153583
 21
126.659457
 31
0.0
  0
LINE
  5
4B2
  8
010
 10
119.142166
 20
126.467742
 30
0.0
 11
119.147867
 21
126.563496
 31
0.0
  0
LINE
  5
4B3
  8
010
 10
119.410311
 20
130.922116
 30
0.0
 11
119.416879
 21
131.03025
 31
0.0
  0
LINE
  5
4B4
  8
010
 10
119.403768
 20
130.814339
 30
0.0
 11
119.410311
 21
130.922116
 31
0.0
  0
LINE
  5
4B5
  8
010
 10
119.397248
 20
130.706917
 30
0.0
 11
119.403768
 21
130.814339
 31
0.0
  0
LINE
  5
4B6
  8
010
 10
119.390752
 20
130.599845
 30
0.0
 11
119.397248
 21
130.706917
 31
0.0
  0
LINE
  5
4B7
  8
010
 10
119.384278
 20
130.49312
 30
0.0
 11
119.390752
 21
130.599845
 31
0.0
  0
LINE
  5
4B8
  8
010
 10
119.377828
 20
130.386738
 30
0.0
 11
119.384278
 21
130.49312
 31
0.0
  0
LINE
  5
4B9
  8
010
 10
119.371401
 20
130.280696
 30
0.0
 11
119.377828
 21
130.386738
 31
0.0
  0
LINE
  5
4BA
  8
010
 10
119.364996
 20
130.17499
 30
0.0
 11
119.371401
 21
130.280696
 31
0.0
  0
LINE
  5
4BB
  8
010
 10
119.358614
 20
130.069617
 30
0.0
 11
119.364996
 21
130.17499
 31
0.0
  0
LINE
  5
4BC
  8
010
 10
118.495917
 20
134.384196
 30
0.0
 11
118.491127
 21
134.291058
 31
0.0
  0
LINE
  5
4BD
  8
010
 10
118.498793
 20
134.47756
 30
0.0
 11
118.495917
 21
134.384196
 31
0.0
  0
LINE
  5
4BE
  8
010
 10
118.499752
 20
134.571039
 30
0.0
 11
118.498793
 21
134.47756
 31
0.0
  0
LINE
  5
4BF
  8
010
 10
119.603971
 20
134.098256
 30
0.0
 11
119.6182
 21
134.33075
 31
0.0
  0
LINE
  5
4C0
  8
010
 10
119.625452
 20
134.571039
 30
0.0
 11
119.625218
 21
134.525781
 31
0.0
  0
LINE
  5
4C1
  8
010
 10
119.783233
 20
134.634294
 30
0.0
 11
119.781115
 21
134.528045
 31
0.0
  0
LINE
  5
4C2
  8
010
 10
119.596681
 20
133.979103
 30
0.0
 11
119.603971
 21
134.098256
 31
0.0
  0
LINE
  5
4C3
  8
010
 10
119.58942
 20
133.860405
 30
0.0
 11
119.596681
 21
133.979103
 31
0.0
  0
LINE
  5
4C4
  8
010
 10
119.582189
 20
133.742158
 30
0.0
 11
119.58942
 21
133.860405
 31
0.0
  0
LINE
  5
4C5
  8
010
 10
119.574987
 20
133.624358
 30
0.0
 11
119.582189
 21
133.742158
 31
0.0
  0
LINE
  5
4C6
  8
010
 10
119.567814
 20
133.507003
 30
0.0
 11
119.574987
 21
133.624358
 31
0.0
  0
LINE
  5
4C7
  8
010
 10
119.560669
 20
133.390087
 30
0.0
 11
119.567814
 21
133.507003
 31
0.0
  0
LINE
  5
4C8
  8
010
 10
119.553553
 20
133.273609
 30
0.0
 11
119.560669
 21
133.390087
 31
0.0
  0
LINE
  5
4C9
  8
010
 10
119.546465
 20
133.157564
 30
0.0
 11
119.553553
 21
133.273609
 31
0.0
  0
LINE
  5
4CA
  8
010
 10
119.539405
 20
133.041948
 30
0.0
 11
119.546465
 21
133.157564
 31
0.0
  0
LINE
  5
4CB
  8
010
 10
119.532373
 20
132.926759
 30
0.0
 11
119.539405
 21
133.041948
 31
0.0
  0
LINE
  5
4CC
  8
010
 10
119.525368
 20
132.811992
 30
0.0
 11
119.532373
 21
132.926759
 31
0.0
  0
LINE
  5
4CD
  8
010
 10
119.518391
 20
132.697644
 30
0.0
 11
119.525368
 21
132.811992
 31
0.0
  0
LINE
  5
4CE
  8
010
 10
119.511441
 20
132.583711
 30
0.0
 11
119.518391
 21
132.697644
 31
0.0
  0
LINE
  5
4CF
  8
010
 10
119.504518
 20
132.47019
 30
0.0
 11
119.511441
 21
132.583711
 31
0.0
  0
LINE
  5
4D0
  8
010
 10
119.497622
 20
132.357077
 30
0.0
 11
119.504518
 21
132.47019
 31
0.0
  0
LINE
  5
4D1
  8
010
 10
119.490752
 20
132.244369
 30
0.0
 11
119.497622
 21
132.357077
 31
0.0
  0
LINE
  5
4D2
  8
010
 10
119.483909
 20
132.132062
 30
0.0
 11
119.490752
 21
132.244369
 31
0.0
  0
LINE
  5
4D3
  8
010
 10
119.477092
 20
132.020152
 30
0.0
 11
119.483909
 21
132.132062
 31
0.0
  0
LINE
  5
4D4
  8
010
 10
119.470301
 20
131.908636
 30
0.0
 11
119.477092
 21
132.020152
 31
0.0
  0
LINE
  5
4D5
  8
010
 10
119.463535
 20
131.79751
 30
0.0
 11
119.470301
 21
131.908636
 31
0.0
  0
LINE
  5
4D6
  8
010
 10
119.456795
 20
131.68677
 30
0.0
 11
119.463535
 21
131.79751
 31
0.0
  0
LINE
  5
4D7
  8
010
 10
119.45008
 20
131.576414
 30
0.0
 11
119.456795
 21
131.68677
 31
0.0
  0
LINE
  5
4D8
  8
010
 10
119.443391
 20
131.466437
 30
0.0
 11
119.45008
 21
131.576414
 31
0.0
  0
LINE
  5
4D9
  8
010
 10
119.436726
 20
131.356836
 30
0.0
 11
119.443391
 21
131.466437
 31
0.0
  0
LINE
  5
4DA
  8
010
 10
119.430086
 20
131.247606
 30
0.0
 11
119.436726
 21
131.356836
 31
0.0
  0
LINE
  5
4DB
  8
010
 10
119.42347
 20
131.138746
 30
0.0
 11
119.430086
 21
131.247606
 31
0.0
  0
LINE
  5
4DC
  8
010
 10
119.783233
 20
134.634294
 30
0.0
 11
119.758141
 21
136.64764
 31
0.0
  0
LINE
  5
4DD
  8
010
 10
119.769125
 20
134.321967
 30
0.0
 11
119.781115
 21
134.528045
 31
0.0
  0
LINE
  5
4DE
  8
010
 10
119.6182
 20
134.33075
 30
0.0
 11
119.625218
 21
134.525781
 31
0.0
  0
LINE
  5
4DF
  8
010
 10
117.397693
 20
143.312073
 30
0.0
 11
117.258172
 21
142.148242
 31
0.0
  0
LINE
  5
4E0
  8
010
 10
117.318171
 20
147.129601
 30
0.0
 11
117.21489
 21
146.292647
 31
0.0
  0
LINE
  5
4E1
  8
010
 10
116.864496
 20
143.374195
 30
0.0
 11
116.726679
 21
142.210581
 31
0.0
  0
LINE
  5
4E2
  8
010
 10
116.729177
 20
138.407517
 30
0.0
 11
116.568637
 21
137.393177
 31
0.0
  0
LINE
  5
4E3
  8
010
 10
116.907099
 20
139.57533
 30
0.0
 11
116.729177
 21
138.407517
 31
0.0
  0
LINE
  5
4E4
  8
010
 10
117.091334
 20
140.864872
 30
0.0
 11
116.907099
 21
139.57533
 31
0.0
  0
LINE
  5
4E5
  8
010
 10
117.258172
 20
142.148242
 30
0.0
 11
117.091334
 21
140.864872
 31
0.0
  0
LINE
  5
4E6
  8
010
 10
116.257384
 20
138.47024
 30
0.0
 11
116.117296
 21
137.456001
 31
0.0
  0
LINE
  5
4E7
  8
010
 10
116.411102
 20
139.637993
 30
0.0
 11
116.257384
 21
138.47024
 31
0.0
  0
LINE
  5
4E8
  8
010
 10
116.572259
 20
140.927408
 30
0.0
 11
116.411102
 21
139.637993
 31
0.0
  0
LINE
  5
4E9
  8
010
 10
116.726679
 20
142.210581
 30
0.0
 11
116.572259
 21
140.927408
 31
0.0
  0
LINE
  5
4EA
  8
010
 10
116.990102
 20
144.431481
 30
0.0
 11
116.864496
 21
143.374195
 31
0.0
  0
LINE
  5
4EB
  8
010
 10
117.106202
 20
145.39879
 30
0.0
 11
116.990102
 21
144.431481
 31
0.0
  0
LINE
  5
4EC
  8
010
 10
117.21489
 20
146.292647
 30
0.0
 11
117.106202
 21
145.39879
 31
0.0
  0
LINE
  5
4ED
  8
010
 10
119.624022
 20
141.243734
 30
0.0
 11
119.626955
 21
147.453781
 31
0.0
  0
LINE
  5
4EE
  8
010
 10
119.775316
 20
141.674973
 30
0.0
 11
119.793108
 21
143.048208
 31
0.0
  0
LINE
  5
4EF
  8
010
 10
119.759366
 20
140.14194
 30
0.0
 11
119.775316
 21
141.674973
 31
0.0
  0
LINE
  5
4F0
  8
010
 10
119.75194
 20
138.473321
 30
0.0
 11
119.759366
 21
140.14194
 31
0.0
  0
LINE
  5
4F1
  8
010
 10
117.518727
 20
144.369532
 30
0.0
 11
117.397693
 21
143.312073
 31
0.0
  0
LINE
  5
4F2
  8
010
 10
117.629191
 20
145.336924
 30
0.0
 11
117.518727
 21
144.369532
 31
0.0
  0
LINE
  5
4F3
  8
010
 10
117.731519
 20
146.230796
 30
0.0
 11
117.629191
 21
145.336924
 31
0.0
  0
LINE
  5
4F4
  8
010
 10
117.828121
 20
147.067717
 30
0.0
 11
117.731519
 21
146.230796
 31
0.0
  0
LINE
  5
4F5
  8
010
 10
117.921709
 20
147.864695
 30
0.0
 11
117.828121
 21
147.067717
 31
0.0
  0
LINE
  5
4F6
  8
010
 10
117.418018
 20
147.92665
 30
0.0
 11
117.318171
 21
147.129601
 31
0.0
  0
LINE
  5
4F7
  8
010
 10
119.626955
 20
147.453781
 30
0.0
 11
119.627949
 21
148.413982
 31
0.0
  0
LINE
  5
4F8
  8
010
 10
119.836977
 20
147.295983
 30
0.0
 11
119.841291
 21
148.159807
 31
0.0
  0
LINE
  5
4F9
  8
010
 10
119.830388
 20
146.375761
 30
0.0
 11
119.836977
 21
147.295983
 31
0.0
  0
LINE
  5
4FA
  8
010
 10
119.821086
 20
145.376162
 30
0.0
 11
119.830388
 21
146.375761
 31
0.0
  0
LINE
  5
4FB
  8
010
 10
119.808728
 20
144.274521
 30
0.0
 11
119.821086
 21
145.376162
 31
0.0
  0
LINE
  5
4FC
  8
010
 10
119.793108
 20
143.048208
 30
0.0
 11
119.808728
 21
144.274521
 31
0.0
  0
LINE
  5
4FD
  8
05
 10
125.435457
 20
121.089053
 30
0.0
 11
126.132986
 21
128.064542
 31
0.0
  0
LINE
  5
4FE
  8
010
 10
125.42048
 20
138.244203
 30
0.0
 11
124.044589
 21
124.993313
 31
0.0
  0
LINE
  5
4FF
  8
010
 10
123.500736
 20
138.244203
 30
0.0
 11
122.259644
 21
124.993313
 31
0.0
  0
LINE
  5
500
  8
010
 10
122.640247
 20
124.993299
 30
0.0
 11
123.881678
 21
138.244188
 31
0.0
  0
LINE
  5
501
  8
010
 10
126.616108
 20
134.291058
 30
0.0
 11
124.54891
 21
113.610826
 31
0.0
  0
LINE
  5
502
  8
05
 10
124.684627
 20
113.581786
 30
0.0
 11
125.435457
 21
121.089053
 31
0.0
  0
LINE
  5
503
  8
010
 10
124.044589
 20
124.993313
 30
0.0
 11
122.688602
 21
111.934604
 31
0.0
  0
LINE
  5
504
  8
010
 10
121.416738
 20
111.934604
 30
0.0
 11
122.640247
 21
124.993299
 31
0.0
  0
LINE
  5
505
  8
05
 10
123.216083
 20
110.864572
 30
0.0
 11
123.7816
 21
111.421036
 31
0.0
  0
LINE
  5
506
  8
010
 10
123.715969
 20
111.768007
 30
0.0
 11
123.365725
 21
111.484807
 31
0.0
  0
LINE
  5
507
  8
010
 10
122.954168
 20
111.934604
 30
0.0
 11
122.944631
 21
111.934604
 31
0.0
  0
LINE
  5
508
  8
010
 10
122.379855
 20
110.905185
 30
0.0
 11
122.416496
 21
110.978697
 31
0.0
  0
LINE
  5
509
  8
010
 10
122.353553
 20
110.850137
 30
0.0
 11
122.379855
 21
110.905185
 31
0.0
  0
LINE
  5
50A
  8
010
 10
122.341934
 20
110.816778
 30
0.0
 11
122.353553
 21
110.850137
 31
0.0
  0
LINE
  5
50B
  8
010
 10
122.351257
 20
110.812938
 30
0.0
 11
122.341934
 21
110.816778
 31
0.0
  0
LINE
  5
50C
  8
010
 10
122.382925
 20
110.843004
 30
0.0
 11
122.351257
 21
110.812938
 31
0.0
  0
LINE
  5
50D
  8
010
 10
122.429056
 20
110.900418
 30
0.0
 11
122.382925
 21
110.843004
 31
0.0
  0
LINE
  5
50E
  8
010
 10
122.636672
 20
111.61109
 30
0.0
 11
122.688602
 21
111.934604
 31
0.0
  0
LINE
  5
50F
  8
010
 10
122.545417
 20
111.286806
 30
0.0
 11
122.636672
 21
111.61109
 31
0.0
  0
LINE
  5
510
  8
010
 10
122.426385
 20
111.00233
 30
0.0
 11
122.545417
 21
111.286806
 31
0.0
  0
LINE
  5
511
  8
010
 10
122.648384
 20
111.287605
 30
0.0
 11
122.482865
 21
110.978697
 31
0.0
  0
LINE
  5
512
  8
05
 10
122.522047
 20
110.43331
 30
0.0
 11
123.216083
 21
110.864572
 31
0.0
  0
LINE
  5
513
  8
05
 10
121.927145
 20
110.229614
 30
0.0
 11
122.522047
 21
110.43331
 31
0.0
  0
LINE
  5
514
  8
010
 10
122.993292
 20
111.299957
 30
0.0
 11
122.764515
 21
111.250669
 31
0.0
  0
LINE
  5
515
  8
010
 10
123.365725
 20
111.484807
 30
0.0
 11
122.993292
 21
111.299957
 31
0.0
  0
LINE
  5
516
  8
010
 10
122.482865
 20
110.978697
 30
0.0
 11
122.429056
 21
110.900418
 31
0.0
  0
ARC
  5
517
  8
010
 10
120.567316
 20
112.185472
 30
0.0
 40
2.4
 50
322.142087
 51
326.0
  0
ARC
  5
518
  8
010
 10
120.567316
 20
112.185472
 30
0.0
 40
2.4
 50
326.0
 51
327.358233
  0
ARC
  5
519
  8
010
 10
120.567316
 20
112.185472
 30
0.0
 40
2.4
 50
327.358233
 51
354.0
  0
LINE
  5
51A
  8
010
 10
122.416496
 20
110.978697
 30
0.0
 11
122.426385
 21
111.00233
 31
0.0
  0
LINE
  5
51B
  8
010
 10
124.68351
 20
113.583376
 30
0.0
 11
124.650625
 21
113.593154
 31
0.0
  0
LINE
  5
51C
  8
010
 10
124.684632
 20
113.581874
 30
0.0
 11
124.68351
 21
113.583376
 31
0.0
  0
LINE
  5
51D
  8
05
 10
124.524628
 20
112.801774
 30
0.0
 11
124.684632
 21
113.581874
 31
0.0
  0
LINE
  5
51E
  8
05
 10
124.211179
 20
112.06338
 30
0.0
 11
124.524628
 21
112.801774
 31
0.0
  0
LINE
  5
51F
  8
05
 10
123.7816
 20
111.421036
 30
0.0
 11
124.211179
 21
112.06338
 31
0.0
  0
LINE
  5
520
  8
010
 10
124.023032
 20
112.136568
 30
0.0
 11
123.715969
 21
111.768007
 31
0.0
  0
LINE
  5
521
  8
010
 10
124.272235
 20
112.577242
 30
0.0
 11
124.023032
 21
112.136568
 31
0.0
  0
LINE
  5
522
  8
010
 10
124.450927
 20
113.074543
 30
0.0
 11
124.272235
 21
112.577242
 31
0.0
  0
LINE
  5
523
  8
010
 10
124.54891
 20
113.610826
 30
0.0
 11
124.450927
 21
113.074543
 31
0.0
  0
LINE
  5
524
  8
010
 10
124.684627
 20
113.581785
 30
0.0
 11
124.684632
 21
113.581874
 31
0.0
  0
LINE
  5
525
  8
05
 10
126.767878
 20
134.571036
 30
0.0
 11
126.767572
 21
143.87165
 31
0.0
  0
LINE
  5
526
  8
05
 10
126.630063
 20
146.908402
 30
0.0
 11
126.630063
 21
134.571039
 31
0.0
  0
LINE
  5
527
  8
05
 10
126.132986
 20
128.064542
 30
0.0
 11
126.752459
 21
134.261646
 31
0.0
  0
LINE
  5
528
  8
05
 10
126.758489
 20
134.329487
 30
0.0
 11
126.752459
 21
134.261646
 31
0.0
  0
LINE
  5
529
  8
05
 10
126.767878
 20
134.571036
 30
0.0
 11
126.767344
 21
134.513368
 31
0.0
  0
LINE
  5
52A
  8
05
 10
126.630063
 20
134.571039
 30
0.0
 11
126.623857
 21
134.384196
 31
0.0
  0
LINE
  5
52B
  8
05
 10
126.758489
 20
134.329487
 30
0.0
 11
126.767344
 21
134.513368
 31
0.0
  0
LINE
  5
52C
  8
05
 10
126.623857
 20
134.384196
 30
0.0
 11
126.616108
 21
134.291058
 31
0.0
  0
LINE
  5
52D
  8
05
 10
126.767572
 20
143.87165
 30
0.0
 11
126.767365
 21
148.214745
 31
0.0
  0
LINE
  5
52E
  8
05
 10
173.0
 20
51.0
 30
0.0
 11
173.0
 21
31.0
 31
0.0
  0
TEXT
  5
52F
  8
025
  6
BYBLOCK
 10
176.666667
 20
47.464724
 30
0.0
 40
2.0
  1
Datum
 41
0.821429
 51
15.0
 72
     5
 11
184.333333
 21
47.464724
 31
0.0
  0
TEXT
  5
530
  8
025
  6
BYBLOCK
 10
174.633929
 20
42.464724
 30
0.0
 40
2.0
  1
12.04.00
 41
1.025974
 51
15.0
 72
     5
 11
185.919643
 21
42.464724
 31
0.0
  0
LINE
  5
531
  8
05
 10
188.0
 20
51.0
 30
0.0
 11
188.0
 21
14.0
 31
0.0
  0
TEXT
  5
532
  8
025
  6
BYBLOCK
 10
188.0625
 20
27.464724
 30
0.0
 40
2.0
  1
 Blatt
 41
0.760369
 51
15.0
 72
     5
 11
195.919643
 21
27.464724
 31
0.0
  0
TEXT
  5
533
  8
025
  6
BYBLOCK
 10
188.0625
 20
18.851323
 30
0.0
 40
2.0
  1
 von Blatt
 41
0.748052
 51
15.0
 72
     5
 11
201.776786
 21
18.851323
 31
0.0
  0
TEXT
  5
534
  8
025
  6
BYBLOCK
 10
193.357143
 20
47.464724
 30
0.0
 40
2.0
  1
Name
 41
0.857143
 51
15.0
 72
     5
 11
199.642857
 21
47.464724
 31
0.0
  0
TEXT
  5
535
  8
025
  6
BYBLOCK
 10
189.633929
 20
42.464724
 30
0.0
 40
2.0
  1
Ganahl
 41
0.801843
 51
15.0
 72
     5
 11
197.919643
 21
42.464724
 31
0.0
  0
LINE
  5
536
  8
BEM1
  6
BYBLOCK
 10
128.899609
 20
182.089606
 30
0.0
 11
128.899609
 21
203.103448
 31
0.0
  0
LINE
  5
537
  8
010
 10
119.280668
 20
177.285472
 30
0.0
 11
121.505534
 21
177.285472
 31
0.0
  0
LINE
  5
538
  8
010
 10
119.271751
 20
165.976458
 30
0.0
 11
121.492827
 21
165.976458
 31
0.0
  0
LINE
  5
539
  8
05
 10
111.649609
 20
175.208856
 30
0.0
 11
111.649609
 21
167.385472
 31
0.0
  0
LINE
  5
53A
  8
010
 10
111.425022
 20
165.976458
 30
0.0
 11
114.191114
 21
165.976458
 31
0.0
  0
LINE
  5
53B
  8
010
 10
110.439053
 20
160.108601
 30
0.0
 11
110.442474
 21
160.080942
 31
0.0
  0
LINE
  5
53C
  8
010
 10
110.29359
 20
160.082314
 30
0.0
 11
110.297625
 21
160.109941
 31
0.0
  0
LINE
  5
53D
  8
010
 10
110.688852
 20
151.889947
 30
0.0
 11
110.621267
 21
154.842503
 31
0.0
  0
LINE
  5
53E
  8
010
 10
109.999274
 20
154.842575
 30
0.0
 11
109.866503
 21
151.889947
 31
0.0
  0
LINE
  5
53F
  8
010
 10
109.862558
 20
151.785543
 30
0.0
 11
109.866503
 21
151.889947
 31
0.0
  0
LINE
  5
540
  8
010
 10
109.860102
 20
151.681315
 30
0.0
 11
109.862558
 21
151.785543
 31
0.0
  0
LINE
  5
541
  8
010
 10
110.690208
 20
151.785543
 30
0.0
 11
110.689516
 21
151.681315
 31
0.0
  0
LINE
  5
542
  8
010
 10
110.688852
 20
151.889947
 30
0.0
 11
110.690208
 21
151.785543
 31
0.0
  0
LINE
  5
543
  8
010
 10
110.547818
 20
158.012179
 30
0.0
 11
110.552546
 21
157.817703
 31
0.0
  0
LINE
  5
544
  8
010
 10
110.543059
 20
158.19104
 30
0.0
 11
110.547818
 21
158.012179
 31
0.0
  0
LINE
  5
545
  8
010
 10
110.538296
 20
158.3557
 30
0.0
 11
110.543059
 21
158.19104
 31
0.0
  0
LINE
  5
546
  8
010
 10
110.533542
 20
158.507542
 30
0.0
 11
110.538296
 21
158.3557
 31
0.0
  0
LINE
  5
547
  8
010
 10
110.528805
 20
158.647965
 30
0.0
 11
110.533542
 21
158.507542
 31
0.0
  0
LINE
  5
548
  8
010
 10
110.524085
 20
158.778219
 30
0.0
 11
110.528805
 21
158.647965
 31
0.0
  0
LINE
  5
549
  8
010
 10
110.519392
 20
158.899127
 30
0.0
 11
110.524085
 21
158.778219
 31
0.0
  0
LINE
  5
54A
  8
010
 10
110.51474
 20
159.011263
 30
0.0
 11
110.519392
 21
158.899127
 31
0.0
  0
LINE
  5
54B
  8
010
 10
110.510141
 20
159.115204
 30
0.0
 11
110.51474
 21
159.011263
 31
0.0
  0
LINE
  5
54C
  8
010
 10
110.505604
 20
159.211534
 30
0.0
 11
110.510141
 21
159.115204
 31
0.0
  0
LINE
  5
54D
  8
010
 10
110.501134
 20
159.300835
 30
0.0
 11
110.505604
 21
159.211534
 31
0.0
  0
LINE
  5
54E
  8
010
 10
110.496731
 20
159.383689
 30
0.0
 11
110.501134
 21
159.300835
 31
0.0
  0
LINE
  5
54F
  8
010
 10
110.492394
 20
159.460688
 30
0.0
 11
110.496731
 21
159.383689
 31
0.0
  0
LINE
  5
550
  8
010
 10
110.488117
 20
159.532355
 30
0.0
 11
110.492394
 21
159.460688
 31
0.0
  0
LINE
  5
551
  8
010
 10
110.483904
 20
159.599049
 30
0.0
 11
110.488117
 21
159.532355
 31
0.0
  0
LINE
  5
552
  8
010
 10
110.47976
 20
159.661031
 30
0.0
 11
110.483904
 21
159.599049
 31
0.0
  0
LINE
  5
553
  8
010
 10
110.475692
 20
159.718568
 30
0.0
 11
110.47976
 21
159.661031
 31
0.0
  0
LINE
  5
554
  8
010
 10
110.471704
 20
159.771929
 30
0.0
 11
110.475692
 21
159.718568
 31
0.0
  0
LINE
  5
555
  8
010
 10
110.467797
 20
159.821384
 30
0.0
 11
110.471704
 21
159.771929
 31
0.0
  0
LINE
  5
556
  8
010
 10
110.463973
 20
159.867205
 30
0.0
 11
110.467797
 21
159.821384
 31
0.0
  0
LINE
  5
557
  8
010
 10
110.460229
 20
159.909662
 30
0.0
 11
110.463973
 21
159.867205
 31
0.0
  0
LINE
  5
558
  8
010
 10
110.456561
 20
159.949027
 30
0.0
 11
110.460229
 21
159.909662
 31
0.0
  0
LINE
  5
559
  8
010
 10
110.452963
 20
159.985569
 30
0.0
 11
110.456561
 21
159.949027
 31
0.0
  0
LINE
  5
55A
  8
010
 10
110.449425
 20
160.019564
 30
0.0
 11
110.452963
 21
159.985569
 31
0.0
  0
LINE
  5
55B
  8
010
 10
110.445932
 20
160.051292
 30
0.0
 11
110.449425
 21
160.019564
 31
0.0
  0
LINE
  5
55C
  8
010
 10
110.442474
 20
160.080942
 30
0.0
 11
110.445932
 21
160.051292
 31
0.0
  0
LINE
  5
55D
  8
010
 10
110.28949
 20
160.052809
 30
0.0
 11
110.29359
 21
160.082314
 31
0.0
  0
LINE
  5
55E
  8
010
 10
110.285292
 20
160.021114
 30
0.0
 11
110.28949
 21
160.052809
 31
0.0
  0
LINE
  5
55F
  8
010
 10
110.280979
 20
159.986988
 30
0.0
 11
110.285292
 21
160.021114
 31
0.0
  0
LINE
  5
560
  8
010
 10
110.276539
 20
159.950189
 30
0.0
 11
110.280979
 21
159.986988
 31
0.0
  0
LINE
  5
561
  8
010
 10
110.271959
 20
159.910477
 30
0.0
 11
110.276539
 21
159.950189
 31
0.0
  0
LINE
  5
562
  8
010
 10
110.267231
 20
159.86761
 30
0.0
 11
110.271959
 21
159.910477
 31
0.0
  0
LINE
  5
563
  8
010
 10
110.26235
 20
159.821345
 30
0.0
 11
110.267231
 21
159.86761
 31
0.0
  0
LINE
  5
564
  8
010
 10
110.25731
 20
159.771443
 30
0.0
 11
110.26235
 21
159.821345
 31
0.0
  0
LINE
  5
565
  8
010
 10
110.252109
 20
159.717662
 30
0.0
 11
110.25731
 21
159.771443
 31
0.0
  0
LINE
  5
566
  8
010
 10
110.246744
 20
159.659764
 30
0.0
 11
110.252109
 21
159.717662
 31
0.0
  0
LINE
  5
567
  8
010
 10
110.241217
 20
159.597515
 30
0.0
 11
110.246744
 21
159.659764
 31
0.0
  0
LINE
  5
568
  8
010
 10
110.235527
 20
159.530659
 30
0.0
 11
110.241217
 21
159.597515
 31
0.0
  0
LINE
  5
569
  8
010
 10
110.229664
 20
159.458814
 30
0.0
 11
110.235527
 21
159.530659
 31
0.0
  0
LINE
  5
56A
  8
010
 10
110.22361
 20
159.381468
 30
0.0
 11
110.229664
 21
159.458814
 31
0.0
  0
LINE
  5
56B
  8
010
 10
110.217353
 20
159.298108
 30
0.0
 11
110.22361
 21
159.381468
 31
0.0
  0
LINE
  5
56C
  8
010
 10
110.210884
 20
159.20822
 30
0.0
 11
110.217353
 21
159.298108
 31
0.0
  0
LINE
  5
56D
  8
010
 10
110.204195
 20
159.111292
 30
0.0
 11
110.210884
 21
159.20822
 31
0.0
  0
LINE
  5
56E
  8
010
 10
110.197285
 20
159.006813
 30
0.0
 11
110.204195
 21
159.111292
 31
0.0
  0
LINE
  5
56F
  8
010
 10
110.190152
 20
158.894274
 30
0.0
 11
110.197285
 21
159.006813
 31
0.0
  0
LINE
  5
570
  8
010
 10
110.182797
 20
158.773155
 30
0.0
 11
110.190152
 21
158.894274
 31
0.0
  0
LINE
  5
571
  8
010
 10
110.175217
 20
158.642788
 30
0.0
 11
110.182797
 21
158.773155
 31
0.0
  0
LINE
  5
572
  8
010
 10
110.167394
 20
158.502212
 30
0.0
 11
110.175217
 21
158.642788
 31
0.0
  0
LINE
  5
573
  8
010
 10
110.159315
 20
158.350419
 30
0.0
 11
110.167394
 21
158.502212
 31
0.0
  0
LINE
  5
574
  8
010
 10
110.150974
 20
158.186404
 30
0.0
 11
110.159315
 21
158.350419
 31
0.0
  0
LINE
  5
575
  8
010
 10
110.142369
 20
158.009166
 30
0.0
 11
110.150974
 21
158.186404
 31
0.0
  0
LINE
  5
576
  8
010
 10
110.133506
 20
157.817703
 30
0.0
 11
110.142369
 21
158.009166
 31
0.0
  0
LINE
  5
577
  8
010
 10
110.621267
 20
154.842503
 30
0.0
 11
110.552546
 21
157.817703
 31
0.0
  0
LINE
  5
578
  8
010
 10
110.133506
 20
157.817703
 30
0.0
 11
109.999274
 21
154.842575
 31
0.0
  0
LINE
  5
579
  8
035
 10
107.149609
 20
168.863933
 30
0.0
 11
109.645657
 21
168.863933
 31
0.0
  0
LINE
  5
57A
  8
010
 10
108.586377
 20
165.976458
 30
0.0
 11
111.425022
 21
165.976458
 31
0.0
  0
LINE
  5
57B
  8
010
 10
105.713292
 20
165.976458
 30
0.0
 11
108.586377
 21
165.976458
 31
0.0
  0
LINE
  5
57C
  8
010
 10
110.43567
 20
160.134365
 30
0.0
 11
110.439053
 21
160.108601
 31
0.0
  0
LINE
  5
57D
  8
010
 10
110.432321
 20
160.158345
 30
0.0
 11
110.43567
 21
160.134365
 31
0.0
  0
LINE
  5
57E
  8
010
 10
110.428998
 20
160.180664
 30
0.0
 11
110.432321
 21
160.158345
 31
0.0
  0
LINE
  5
57F
  8
010
 10
110.425691
 20
160.201452
 30
0.0
 11
110.428998
 21
160.180664
 31
0.0
  0
LINE
  5
580
  8
010
 10
110.422386
 20
160.220843
 30
0.0
 11
110.425691
 21
160.201452
 31
0.0
  0
LINE
  5
581
  8
010
 10
110.419061
 20
160.238971
 30
0.0
 11
110.422386
 21
160.220843
 31
0.0
  0
LINE
  5
582
  8
010
 10
110.415691
 20
160.255969
 30
0.0
 11
110.419061
 21
160.238971
 31
0.0
  0
LINE
  5
583
  8
010
 10
110.41224
 20
160.271967
 30
0.0
 11
110.415691
 21
160.255969
 31
0.0
  0
LINE
  5
584
  8
010
 10
110.408657
 20
160.287086
 30
0.0
 11
110.41224
 21
160.271967
 31
0.0
  0
LINE
  5
585
  8
010
 10
110.404877
 20
160.301433
 30
0.0
 11
110.408657
 21
160.287086
 31
0.0
  0
LINE
  5
586
  8
010
 10
110.400776
 20
160.315157
 30
0.0
 11
110.404877
 21
160.301433
 31
0.0
  0
LINE
  5
587
  8
010
 10
110.39614
 20
160.328423
 30
0.0
 11
110.400776
 21
160.315157
 31
0.0
  0
LINE
  5
588
  8
010
 10
110.390815
 20
160.340769
 30
0.0
 11
110.39614
 21
160.328423
 31
0.0
  0
LINE
  5
589
  8
010
 10
110.384636
 20
160.351309
 30
0.0
 11
110.390815
 21
160.340769
 31
0.0
  0
LINE
  5
58A
  8
010
 10
110.376745
 20
160.359008
 30
0.0
 11
110.384636
 21
160.351309
 31
0.0
  0
LINE
  5
58B
  8
010
 10
110.366736
 20
160.359742
 30
0.0
 11
110.376745
 21
160.359008
 31
0.0
  0
LINE
  5
58C
  8
010
 10
110.357997
 20
160.352362
 30
0.0
 11
110.366736
 21
160.359742
 31
0.0
  0
LINE
  5
58D
  8
010
 10
110.351296
 20
160.341763
 30
0.0
 11
110.357997
 21
160.352362
 31
0.0
  0
LINE
  5
58E
  8
010
 10
110.345735
 20
160.329774
 30
0.0
 11
110.351296
 21
160.341763
 31
0.0
  0
LINE
  5
58F
  8
010
 10
110.340931
 20
160.317114
 30
0.0
 11
110.345735
 21
160.329774
 31
0.0
  0
LINE
  5
590
  8
010
 10
110.336554
 20
160.303744
 30
0.0
 11
110.340931
 21
160.317114
 31
0.0
  0
LINE
  5
591
  8
010
 10
110.332445
 20
160.289614
 30
0.0
 11
110.336554
 21
160.303744
 31
0.0
  0
LINE
  5
592
  8
010
 10
110.328502
 20
160.27463
 30
0.0
 11
110.332445
 21
160.289614
 31
0.0
  0
LINE
  5
593
  8
010
 10
110.324657
 20
160.25868
 30
0.0
 11
110.328502
 21
160.27463
 31
0.0
  0
LINE
  5
594
  8
010
 10
110.320859
 20
160.24164
 30
0.0
 11
110.324657
 21
160.25868
 31
0.0
  0
LINE
  5
595
  8
010
 10
110.317072
 20
160.223382
 30
0.0
 11
110.320859
 21
160.24164
 31
0.0
  0
LINE
  5
596
  8
010
 10
110.313269
 20
160.20378
 30
0.0
 11
110.317072
 21
160.223382
 31
0.0
  0
LINE
  5
597
  8
010
 10
110.309431
 20
160.18272
 30
0.0
 11
110.313269
 21
160.20378
 31
0.0
  0
LINE
  5
598
  8
010
 10
110.305547
 20
160.160105
 30
0.0
 11
110.309431
 21
160.18272
 31
0.0
  0
LINE
  5
599
  8
010
 10
110.301611
 20
160.135859
 30
0.0
 11
110.305547
 21
160.160105
 31
0.0
  0
LINE
  5
59A
  8
010
 10
110.297625
 20
160.109941
 30
0.0
 11
110.301611
 21
160.135859
 31
0.0
  0
LINE
  5
59B
  8
035
 10
109.645657
 20
168.863933
 30
0.0
 11
111.649609
 21
168.863933
 31
0.0
  0
ARC
  5
59C
  8
05
 10
111.049609
 20
167.385472
 30
0.0
 40
0.6
 50
270.0
 51
0.0
  0
LINE
  5
59D
  8
010
 10
119.195236
 20
160.117802
 30
0.0
 11
119.17452
 21
160.07279
 31
0.0
  0
LINE
  5
59E
  8
010
 10
119.308801
 20
160.086112
 30
0.0
 11
119.290717
 21
160.126623
 31
0.0
  0
LINE
  5
59F
  8
010
 10
119.130165
 20
160.114658
 30
0.0
 11
119.09935
 21
160.062159
 31
0.0
  0
LINE
  5
5A0
  8
010
 10
119.374287
 20
160.08025
 30
0.0
 11
119.348576
 21
160.127979
 31
0.0
  0
LINE
  5
5A1
  8
010
 10
118.593275
 20
154.541233
 30
0.0
 11
118.564068
 21
154.065861
 31
0.0
  0
LINE
  5
5A2
  8
010
 10
119.607919
 20
154.114842
 30
0.0
 11
119.602487
 21
154.642592
 31
0.0
  0
LINE
  5
5A3
  8
010
 10
118.184024
 20
154.583082
 30
0.0
 11
118.135746
 21
154.107715
 31
0.0
  0
LINE
  5
5A4
  8
010
 10
119.825132
 20
154.156696
 30
0.0
 11
119.816917
 21
154.684439
 31
0.0
  0
LINE
  5
5A5
  8
010
 10
118.337761
 20
152.963974
 30
0.0
 11
118.499752
 21
152.948518
 31
0.0
  0
LINE
  5
5A6
  8
010
 10
118.176951
 20
152.978281
 30
0.0
 11
118.337761
 21
152.963974
 31
0.0
  0
LINE
  5
5A7
  8
010
 10
118.029291
 20
152.990372
 30
0.0
 11
118.176951
 21
152.978281
 31
0.0
  0
LINE
  5
5A8
  8
010
 10
118.532894
 20
153.536516
 30
0.0
 11
118.499752
 21
152.948518
 31
0.0
  0
LINE
  5
5A9
  8
010
 10
118.564068
 20
154.065861
 30
0.0
 11
118.532894
 21
153.536516
 31
0.0
  0
LINE
  5
5AA
  8
010
 10
118.084162
 20
153.578372
 30
0.0
 11
118.029291
 21
152.990372
 31
0.0
  0
LINE
  5
5AB
  8
010
 10
118.135746
 20
154.107715
 30
0.0
 11
118.084162
 21
153.578372
 31
0.0
  0
LINE
  5
5AC
  8
010
 10
118.458183
 20
152.404234
 30
0.0
 11
118.413744
 21
151.848171
 31
0.0
  0
LINE
  5
5AD
  8
010
 10
118.499752
 20
152.948518
 30
0.0
 11
118.458183
 21
152.404234
 31
0.0
  0
LINE
  5
5AE
  8
010
 10
117.980026
 20
152.446064
 30
0.0
 11
117.93039
 21
151.889947
 31
0.0
  0
LINE
  5
5AF
  8
010
 10
118.029291
 20
152.990372
 30
0.0
 11
117.980026
 21
152.446064
 31
0.0
  0
LINE
  5
5B0
  8
010
 10
118.097819
 20
149.322254
 30
0.0
 11
118.012359
 21
148.622009
 31
0.0
  0
LINE
  5
5B1
  8
010
 10
118.178428
 20
149.969645
 30
0.0
 11
118.097819
 21
149.322254
 31
0.0
  0
LINE
  5
5B2
  8
010
 10
118.25438
 20
150.567461
 30
0.0
 11
118.178428
 21
149.969645
 31
0.0
  0
LINE
  5
5B3
  8
010
 10
118.325658
 20
151.116819
 30
0.0
 11
118.25438
 21
150.567461
 31
0.0
  0
LINE
  5
5B4
  8
010
 10
118.390048
 20
151.618711
 30
0.0
 11
118.325658
 21
151.116819
 31
0.0
  0
LINE
  5
5B5
  8
010
 10
117.604368
 20
149.384413
 30
0.0
 11
117.514252
 21
148.68406
 31
0.0
  0
LINE
  5
5B6
  8
010
 10
117.688569
 20
150.031916
 30
0.0
 11
117.604368
 21
149.384413
 31
0.0
  0
LINE
  5
5B7
  8
010
 10
117.766972
 20
150.629848
 30
0.0
 11
117.688569
 21
150.031916
 31
0.0
  0
LINE
  5
5B8
  8
010
 10
117.839427
 20
151.179305
 30
0.0
 11
117.766972
 21
150.629848
 31
0.0
  0
LINE
  5
5B9
  8
010
 10
117.905934
 20
151.681315
 30
0.0
 11
117.839427
 21
151.179305
 31
0.0
  0
LINE
  5
5BA
  8
010
 10
119.648556
 20
152.963974
 30
0.0
 11
119.615289
 21
152.948518
 31
0.0
  0
LINE
  5
5BB
  8
010
 10
119.723896
 20
152.978281
 30
0.0
 11
119.648556
 21
152.963974
 31
0.0
  0
LINE
  5
5BC
  8
010
 10
119.835702
 20
152.990372
 30
0.0
 11
119.723896
 21
152.978281
 31
0.0
  0
LINE
  5
5BD
  8
010
 10
119.61221
 20
153.552781
 30
0.0
 11
119.607919
 21
154.114842
 31
0.0
  0
LINE
  5
5BE
  8
010
 10
119.615289
 20
152.948518
 30
0.0
 11
119.61221
 21
153.552781
 31
0.0
  0
LINE
  5
5BF
  8
010
 10
119.831437
 20
153.594637
 30
0.0
 11
119.825132
 21
154.156696
 31
0.0
  0
LINE
  5
5C0
  8
010
 10
119.835702
 20
152.990372
 30
0.0
 11
119.831437
 21
153.594637
 31
0.0
  0
LINE
  5
5C1
  8
010
 10
119.623609
 20
151.035289
 30
0.0
 11
119.620999
 21
151.618711
 31
0.0
  0
LINE
  5
5C2
  8
010
 10
119.625936
 20
150.39138
 30
0.0
 11
119.623609
 21
151.035289
 31
0.0
  0
LINE
  5
5C3
  8
010
 10
119.627615
 20
149.687992
 30
0.0
 11
119.625936
 21
150.39138
 31
0.0
  0
LINE
  5
5C4
  8
010
 10
119.62808
 20
149.325335
 30
0.0
 11
119.627615
 21
149.687992
 31
0.0
  0
LINE
  5
5C5
  8
010
 10
119.628256
 20
148.923675
 30
0.0
 11
119.62808
 21
149.325335
 31
0.0
  0
LINE
  5
5C6
  8
010
 10
119.620477
 20
151.732332
 30
0.0
 11
119.620026
 21
151.848171
 31
0.0
  0
LINE
  5
5C7
  8
010
 10
119.620999
 20
151.618711
 30
0.0
 11
119.620477
 21
151.732332
 31
0.0
  0
LINE
  5
5C8
  8
010
 10
119.651304
 20
151.642005
 30
0.0
 11
119.620999
 21
151.618711
 31
0.0
  0
LINE
  5
5C9
  8
010
 10
119.726813
 20
151.663441
 30
0.0
 11
119.651304
 21
151.642005
 31
0.0
  0
LINE
  5
5CA
  8
010
 10
119.841527
 20
151.681315
 30
0.0
 11
119.726813
 21
151.663441
 31
0.0
  0
LINE
  5
5CB
  8
010
 10
119.840545
 20
151.784625
 30
0.0
 11
119.839704
 21
151.889947
 31
0.0
  0
LINE
  5
5CC
  8
010
 10
119.841527
 20
151.681315
 30
0.0
 11
119.840545
 21
151.784625
 31
0.0
  0
LINE
  5
5CD
  8
010
 10
119.650633
 20
151.863693
 30
0.0
 11
119.620026
 21
151.848171
 31
0.0
  0
LINE
  5
5CE
  8
010
 10
119.725823
 20
151.877991
 30
0.0
 11
119.650633
 21
151.863693
 31
0.0
  0
LINE
  5
5CF
  8
010
 10
119.839704
 20
151.889947
 30
0.0
 11
119.725823
 21
151.877991
 31
0.0
  0
LINE
  5
5D0
  8
010
 10
119.617851
 20
152.408536
 30
0.0
 11
119.615289
 21
152.948518
 31
0.0
  0
LINE
  5
5D1
  8
010
 10
119.620026
 20
151.848171
 30
0.0
 11
119.617851
 21
152.408536
 31
0.0
  0
LINE
  5
5D2
  8
010
 10
119.838016
 20
152.450366
 30
0.0
 11
119.835702
 21
152.990372
 31
0.0
  0
LINE
  5
5D3
  8
010
 10
119.839704
 20
151.889947
 30
0.0
 11
119.838016
 21
152.450366
 31
0.0
  0
LINE
  5
5D4
  8
010
 10
119.843057
 20
151.097744
 30
0.0
 11
119.841527
 21
151.681315
 31
0.0
  0
LINE
  5
5D5
  8
010
 10
119.844154
 20
150.453731
 30
0.0
 11
119.843057
 21
151.097744
 31
0.0
  0
LINE
  5
5D6
  8
010
 10
119.844515
 20
149.750211
 30
0.0
 11
119.844154
 21
150.453731
 31
0.0
  0
LINE
  5
5D7
  8
010
 10
119.843709
 20
148.985772
 30
0.0
 11
119.844515
 21
149.750211
 31
0.0
  0
LINE
  5
5D8
  8
010
 10
119.366905
 20
159.852771
 30
0.0
 11
119.353805
 21
159.921975
 31
0.0
  0
LINE
  5
5D9
  8
010
 10
118.620544
 20
154.967328
 30
0.0
 11
118.593275
 21
154.541233
 31
0.0
  0
LINE
  5
5DA
  8
010
 10
118.645937
 20
155.34885
 30
0.0
 11
118.620544
 21
154.967328
 31
0.0
  0
LINE
  5
5DB
  8
010
 10
118.66955
 20
155.690504
 30
0.0
 11
118.645937
 21
155.34885
 31
0.0
  0
LINE
  5
5DC
  8
010
 10
118.69152
 20
155.996995
 30
0.0
 11
118.66955
 21
155.690504
 31
0.0
  0
LINE
  5
5DD
  8
010
 10
118.71202
 20
156.273022
 30
0.0
 11
118.69152
 21
155.996995
 31
0.0
  0
LINE
  5
5DE
  8
010
 10
118.731254
 20
156.52328
 30
0.0
 11
118.71202
 21
156.273022
 31
0.0
  0
LINE
  5
5DF
  8
010
 10
118.749473
 20
156.752459
 30
0.0
 11
118.731254
 21
156.52328
 31
0.0
  0
LINE
  5
5E0
  8
010
 10
118.766964
 20
156.965241
 30
0.0
 11
118.749473
 21
156.752459
 31
0.0
  0
LINE
  5
5E1
  8
010
 10
118.784064
 20
157.166302
 30
0.0
 11
118.766964
 21
156.965241
 31
0.0
  0
LINE
  5
5E2
  8
010
 10
118.801158
 20
157.360311
 30
0.0
 11
118.784064
 21
157.166302
 31
0.0
  0
LINE
  5
5E3
  8
010
 10
118.81867
 20
157.551926
 30
0.0
 11
118.801158
 21
157.360311
 31
0.0
  0
LINE
  5
5E4
  8
010
 10
118.836804
 20
157.745804
 30
0.0
 11
118.81867
 21
157.551926
 31
0.0
  0
LINE
  5
5E5
  8
010
 10
118.856018
 20
157.946789
 30
0.0
 11
118.836804
 21
157.745804
 31
0.0
  0
LINE
  5
5E6
  8
010
 10
118.876917
 20
158.159312
 30
0.0
 11
118.856018
 21
157.946789
 31
0.0
  0
LINE
  5
5E7
  8
010
 10
118.898087
 20
158.367096
 30
0.0
 11
118.876917
 21
158.159312
 31
0.0
  0
LINE
  5
5E8
  8
010
 10
118.918268
 20
158.557076
 30
0.0
 11
118.898087
 21
158.367096
 31
0.0
  0
LINE
  5
5E9
  8
010
 10
118.937416
 20
158.729065
 30
0.0
 11
118.918268
 21
158.557076
 31
0.0
  0
LINE
  5
5EA
  8
010
 10
118.955713
 20
158.885044
 30
0.0
 11
118.937416
 21
158.729065
 31
0.0
  0
LINE
  5
5EB
  8
010
 10
118.973296
 20
159.026495
 30
0.0
 11
118.955713
 21
158.885044
 31
0.0
  0
LINE
  5
5EC
  8
010
 10
118.990322
 20
159.154949
 30
0.0
 11
118.973296
 21
159.026495
 31
0.0
  0
LINE
  5
5ED
  8
010
 10
119.006974
 20
159.271952
 30
0.0
 11
118.990322
 21
159.154949
 31
0.0
  0
LINE
  5
5EE
  8
010
 10
119.023393
 20
159.379046
 30
0.0
 11
119.006974
 21
159.271952
 31
0.0
  0
LINE
  5
5EF
  8
010
 10
119.039231
 20
159.477802
 30
0.0
 11
119.023393
 21
159.379046
 31
0.0
  0
LINE
  5
5F0
  8
010
 10
119.05464
 20
159.56972
 30
0.0
 11
119.039231
 21
159.477802
 31
0.0
  0
LINE
  5
5F1
  8
010
 10
119.069949
 20
159.65628
 30
0.0
 11
119.05464
 21
159.56972
 31
0.0
  0
LINE
  5
5F2
  8
010
 10
119.085568
 20
159.738952
 30
0.0
 11
119.069949
 21
159.65628
 31
0.0
  0
LINE
  5
5F3
  8
010
 10
119.101826
 20
159.818126
 30
0.0
 11
119.085568
 21
159.738952
 31
0.0
  0
LINE
  5
5F4
  8
010
 10
119.118831
 20
159.892538
 30
0.0
 11
119.101826
 21
159.818126
 31
0.0
  0
LINE
  5
5F5
  8
010
 10
119.136615
 20
159.960322
 30
0.0
 11
119.118831
 21
159.892538
 31
0.0
  0
LINE
  5
5F6
  8
010
 10
119.155279
 20
160.020262
 30
0.0
 11
119.136615
 21
159.960322
 31
0.0
  0
LINE
  5
5F7
  8
010
 10
119.17452
 20
160.07279
 30
0.0
 11
119.155279
 21
160.020262
 31
0.0
  0
LINE
  5
5F8
  8
010
 10
119.324773
 20
160.038358
 30
0.0
 11
119.308801
 21
160.086112
 31
0.0
  0
LINE
  5
5F9
  8
010
 10
119.339807
 20
159.983811
 30
0.0
 11
119.324773
 21
160.038358
 31
0.0
  0
LINE
  5
5FA
  8
010
 10
119.353805
 20
159.921975
 30
0.0
 11
119.339807
 21
159.983811
 31
0.0
  0
LINE
  5
5FB
  8
010
 10
118.229032
 20
155.00917
 30
0.0
 11
118.184024
 21
154.583082
 31
0.0
  0
LINE
  5
5FC
  8
010
 10
118.270866
 20
155.390684
 30
0.0
 11
118.229032
 21
155.00917
 31
0.0
  0
LINE
  5
5FD
  8
010
 10
118.309682
 20
155.732331
 30
0.0
 11
118.270866
 21
155.390684
 31
0.0
  0
LINE
  5
5FE
  8
010
 10
118.345699
 20
156.038814
 30
0.0
 11
118.309682
 21
155.732331
 31
0.0
  0
LINE
  5
5FF
  8
010
 10
118.379195
 20
156.314835
 30
0.0
 11
118.345699
 21
156.038814
 31
0.0
  0
LINE
  5
600
  8
010
 10
118.410508
 20
156.565088
 30
0.0
 11
118.379195
 21
156.314835
 31
0.0
  0
LINE
  5
601
  8
010
 10
118.440042
 20
156.794263
 30
0.0
 11
118.410508
 21
156.565088
 31
0.0
  0
LINE
  5
602
  8
010
 10
118.468258
 20
157.007043
 30
0.0
 11
118.440042
 21
156.794263
 31
0.0
  0
LINE
  5
603
  8
010
 10
118.495682
 20
157.208103
 30
0.0
 11
118.468258
 21
157.007043
 31
0.0
  0
LINE
  5
604
  8
010
 10
118.522903
 20
157.402112
 30
0.0
 11
118.495682
 21
157.208103
 31
0.0
  0
LINE
  5
605
  8
010
 10
118.550576
 20
157.593728
 30
0.0
 11
118.522903
 21
157.402112
 31
0.0
  0
LINE
  5
606
  8
010
 10
118.579453
 20
157.787609
 30
0.0
 11
118.550576
 21
157.593728
 31
0.0
  0
LINE
  5
607
  8
010
 10
118.610443
 20
157.9886
 30
0.0
 11
118.579453
 21
157.787609
 31
0.0
  0
LINE
  5
608
  8
010
 10
118.64456
 20
158.201132
 30
0.0
 11
118.610443
 21
157.9886
 31
0.0
  0
LINE
  5
609
  8
010
 10
118.679483
 20
158.408926
 30
0.0
 11
118.64456
 21
158.201132
 31
0.0
  0
LINE
  5
60A
  8
010
 10
118.713019
 20
158.598917
 30
0.0
 11
118.679483
 21
158.408926
 31
0.0
  0
LINE
  5
60B
  8
010
 10
118.744947
 20
158.770917
 30
0.0
 11
118.713019
 21
158.598917
 31
0.0
  0
LINE
  5
60C
  8
010
 10
118.775432
 20
158.926904
 30
0.0
 11
118.744947
 21
158.770917
 31
0.0
  0
LINE
  5
60D
  8
010
 10
118.804562
 20
159.068362
 30
0.0
 11
118.775432
 21
158.926904
 31
0.0
  0
LINE
  5
60E
  8
010
 10
118.832454
 20
159.196821
 30
0.0
 11
118.804562
 21
159.068362
 31
0.0
  0
LINE
  5
60F
  8
010
 10
118.859249
 20
159.313823
 30
0.0
 11
118.832454
 21
159.196821
 31
0.0
  0
LINE
  5
610
  8
010
 10
118.885112
 20
159.420922
 30
0.0
 11
118.859249
 21
159.313823
 31
0.0
  0
LINE
  5
611
  8
010
 10
118.910302
 20
159.519674
 30
0.0
 11
118.885112
 21
159.420922
 31
0.0
  0
LINE
  5
612
  8
010
 10
118.935183
 20
159.611593
 30
0.0
 11
118.910302
 21
159.519674
 31
0.0
  0
LINE
  5
613
  8
010
 10
118.960211
 20
159.698153
 30
0.0
 11
118.935183
 21
159.611593
 31
0.0
  0
LINE
  5
614
  8
010
 10
118.985976
 20
159.780828
 30
0.0
 11
118.960211
 21
159.698153
 31
0.0
  0
LINE
  5
615
  8
010
 10
119.012911
 20
159.860003
 30
0.0
 11
118.985976
 21
159.780828
 31
0.0
  0
LINE
  5
616
  8
010
 10
119.040984
 20
159.934418
 30
0.0
 11
119.012911
 21
159.860003
 31
0.0
  0
LINE
  5
617
  8
010
 10
119.069899
 20
160.002188
 30
0.0
 11
119.040984
 21
159.934418
 31
0.0
  0
LINE
  5
618
  8
010
 10
119.09935
 20
160.062159
 30
0.0
 11
119.069899
 21
160.002188
 31
0.0
  0
LINE
  5
619
  8
010
 10
119.379325
 20
159.776588
 30
0.0
 11
119.366905
 21
159.852771
 31
0.0
  0
LINE
  5
61A
  8
010
 10
119.391229
 20
159.693773
 30
0.0
 11
119.379325
 21
159.776588
 31
0.0
  0
LINE
  5
61B
  8
010
 10
119.402792
 20
159.604185
 30
0.0
 11
119.391229
 21
159.693773
 31
0.0
  0
LINE
  5
61C
  8
010
 10
119.414176
 20
159.507355
 30
0.0
 11
119.402792
 21
159.604185
 31
0.0
  0
LINE
  5
61D
  8
010
 10
119.425582
 20
159.402006
 30
0.0
 11
119.414176
 21
159.507355
 31
0.0
  0
LINE
  5
61E
  8
010
 10
119.437216
 20
159.28578
 30
0.0
 11
119.425582
 21
159.402006
 31
0.0
  0
LINE
  5
61F
  8
010
 10
119.448798
 20
159.1563
 30
0.0
 11
119.437216
 21
159.28578
 31
0.0
  0
LINE
  5
620
  8
010
 10
119.459815
 20
159.018196
 30
0.0
 11
119.448798
 21
159.1563
 31
0.0
  0
LINE
  5
621
  8
010
 10
119.469525
 20
158.88349
 30
0.0
 11
119.459815
 21
159.018196
 31
0.0
  0
LINE
  5
622
  8
010
 10
119.477953
 20
158.756058
 30
0.0
 11
119.469525
 21
158.88349
 31
0.0
  0
LINE
  5
623
  8
010
 10
119.485545
 20
158.632441
 30
0.0
 11
119.477953
 21
158.756058
 31
0.0
  0
LINE
  5
624
  8
010
 10
119.492607
 20
158.509558
 30
0.0
 11
119.485545
 21
158.632441
 31
0.0
  0
LINE
  5
625
  8
010
 10
119.499374
 20
158.384338
 30
0.0
 11
119.492607
 21
158.509558
 31
0.0
  0
LINE
  5
626
  8
010
 10
119.506032
 20
158.253696
 30
0.0
 11
119.499374
 21
158.384338
 31
0.0
  0
LINE
  5
627
  8
010
 10
119.512727
 20
158.114533
 30
0.0
 11
119.506032
 21
158.253696
 31
0.0
  0
LINE
  5
628
  8
010
 10
119.519576
 20
157.963742
 30
0.0
 11
119.512727
 21
158.114533
 31
0.0
  0
LINE
  5
629
  8
010
 10
119.526668
 20
157.798208
 30
0.0
 11
119.519576
 21
157.963742
 31
0.0
  0
LINE
  5
62A
  8
010
 10
119.534067
 20
157.614805
 30
0.0
 11
119.526668
 21
157.798208
 31
0.0
  0
LINE
  5
62B
  8
010
 10
119.541801
 20
157.410404
 30
0.0
 11
119.534067
 21
157.614805
 31
0.0
  0
LINE
  5
62C
  8
010
 10
119.549725
 20
157.181855
 30
0.0
 11
119.541801
 21
157.410404
 31
0.0
  0
LINE
  5
62D
  8
010
 10
119.557758
 20
156.926011
 30
0.0
 11
119.549725
 21
157.181855
 31
0.0
  0
LINE
  5
62E
  8
010
 10
119.565824
 20
156.639723
 30
0.0
 11
119.557758
 21
156.926011
 31
0.0
  0
LINE
  5
62F
  8
010
 10
119.573827
 20
156.319848
 30
0.0
 11
119.565824
 21
156.639723
 31
0.0
  0
LINE
  5
630
  8
010
 10
119.581646
 20
155.963257
 30
0.0
 11
119.573827
 21
156.319848
 31
0.0
  0
LINE
  5
631
  8
010
 10
119.589138
 20
155.566849
 30
0.0
 11
119.581646
 21
155.963257
 31
0.0
  0
LINE
  5
632
  8
010
 10
119.596146
 20
155.127498
 30
0.0
 11
119.589138
 21
155.566849
 31
0.0
  0
LINE
  5
633
  8
010
 10
119.602487
 20
154.642592
 30
0.0
 11
119.596146
 21
155.127498
 31
0.0
  0
LINE
  5
634
  8
010
 10
119.397836
 20
160.025662
 30
0.0
 11
119.374287
 21
160.08025
 31
0.0
  0
LINE
  5
635
  8
010
 10
119.420212
 20
159.963855
 30
0.0
 11
119.397836
 21
160.025662
 31
0.0
  0
LINE
  5
636
  8
010
 10
119.44159
 20
159.894647
 30
0.0
 11
119.420212
 21
159.963855
 31
0.0
  0
LINE
  5
637
  8
010
 10
119.461998
 20
159.818465
 30
0.0
 11
119.44159
 21
159.894647
 31
0.0
  0
LINE
  5
638
  8
010
 10
119.481519
 20
159.735647
 30
0.0
 11
119.461998
 21
159.818465
 31
0.0
  0
LINE
  5
639
  8
010
 10
119.500323
 20
159.646059
 30
0.0
 11
119.481519
 21
159.735647
 31
0.0
  0
LINE
  5
63A
  8
010
 10
119.518598
 20
159.549227
 30
0.0
 11
119.500323
 21
159.646059
 31
0.0
  0
LINE
  5
63B
  8
010
 10
119.53661
 20
159.443882
 30
0.0
 11
119.518598
 21
159.549227
 31
0.0
  0
LINE
  5
63C
  8
010
 10
119.554705
 20
159.327648
 30
0.0
 11
119.53661
 21
159.443882
 31
0.0
  0
LINE
  5
63D
  8
010
 10
119.573061
 20
159.198173
 30
0.0
 11
119.554705
 21
159.327648
 31
0.0
  0
LINE
  5
63E
  8
010
 10
119.590852
 20
159.060064
 30
0.0
 11
119.573061
 21
159.198173
 31
0.0
  0
LINE
  5
63F
  8
010
 10
119.606692
 20
158.925351
 30
0.0
 11
119.590852
 21
159.060064
 31
0.0
  0
LINE
  5
640
  8
010
 10
119.620497
 20
158.79791
 30
0.0
 11
119.606692
 21
158.925351
 31
0.0
  0
LINE
  5
641
  8
010
 10
119.632935
 20
158.674287
 30
0.0
 11
119.620497
 21
158.79791
 31
0.0
  0
LINE
  5
642
  8
010
 10
119.644482
 20
158.551397
 30
0.0
 11
119.632935
 21
158.674287
 31
0.0
  0
LINE
  5
643
  8
010
 10
119.655502
 20
158.42617
 30
0.0
 11
119.644482
 21
158.551397
 31
0.0
  0
LINE
  5
644
  8
010
 10
119.666283
 20
158.29552
 30
0.0
 11
119.655502
 21
158.42617
 31
0.0
  0
LINE
  5
645
  8
010
 10
119.677049
 20
158.156351
 30
0.0
 11
119.666283
 21
158.29552
 31
0.0
  0
LINE
  5
646
  8
010
 10
119.687966
 20
158.005554
 30
0.0
 11
119.677049
 21
158.156351
 31
0.0
  0
LINE
  5
647
  8
010
 10
119.699152
 20
157.840014
 30
0.0
 11
119.687966
 21
158.005554
 31
0.0
  0
LINE
  5
648
  8
010
 10
119.710676
 20
157.656608
 30
0.0
 11
119.699152
 21
157.840014
 31
0.0
  0
LINE
  5
649
  8
010
 10
119.722568
 20
157.452204
 30
0.0
 11
119.710676
 21
157.656608
 31
0.0
  0
LINE
  5
64A
  8
010
 10
119.7348
 20
157.223656
 30
0.0
 11
119.722568
 21
157.452204
 31
0.0
  0
LINE
  5
64B
  8
010
 10
119.747278
 20
156.967813
 30
0.0
 11
119.7348
 21
157.223656
 31
0.0
  0
LINE
  5
64C
  8
010
 10
119.759863
 20
156.681529
 30
0.0
 11
119.747278
 21
156.967813
 31
0.0
  0
LINE
  5
64D
  8
010
 10
119.772377
 20
156.36166
 30
0.0
 11
119.759863
 21
156.681529
 31
0.0
  0
LINE
  5
64E
  8
010
 10
119.784604
 20
156.005078
 30
0.0
 11
119.772377
 21
156.36166
 31
0.0
  0
LINE
  5
64F
  8
010
 10
119.796295
 20
155.608678
 30
0.0
 11
119.784604
 21
156.005078
 31
0.0
  0
LINE
  5
650
  8
010
 10
119.807171
 20
155.169337
 30
0.0
 11
119.796295
 21
155.608678
 31
0.0
  0
LINE
  5
651
  8
010
 10
119.816917
 20
154.684439
 30
0.0
 11
119.807171
 21
155.169337
 31
0.0
  0
LINE
  5
652
  8
010
 10
116.818698
 20
165.976458
 30
0.0
 11
119.271751
 21
165.976458
 31
0.0
  0
LINE
  5
653
  8
010
 10
114.191114
 20
165.976458
 30
0.0
 11
116.818698
 21
165.976458
 31
0.0
  0
LINE
  5
654
  8
010
 10
119.218349
 20
160.150753
 30
0.0
 11
119.195236
 21
160.117802
 31
0.0
  0
LINE
  5
655
  8
010
 10
119.244086
 20
160.164333
 30
0.0
 11
119.218349
 21
160.150753
 31
0.0
  0
LINE
  5
656
  8
010
 10
119.269261
 20
160.155151
 30
0.0
 11
119.244086
 21
160.164333
 31
0.0
  0
LINE
  5
657
  8
010
 10
119.290717
 20
160.126623
 30
0.0
 11
119.269261
 21
160.155151
 31
0.0
  0
LINE
  5
658
  8
010
 10
119.164106
 20
160.159811
 30
0.0
 11
119.130165
 21
160.114658
 31
0.0
  0
LINE
  5
659
  8
010
 10
119.202287
 20
160.192766
 30
0.0
 11
119.164106
 21
160.159811
 31
0.0
  0
LINE
  5
65A
  8
010
 10
119.243502
 20
160.205945
 30
0.0
 11
119.202287
 21
160.192766
 31
0.0
  0
LINE
  5
65B
  8
010
 10
119.283623
 20
160.197056
 30
0.0
 11
119.243502
 21
160.205945
 31
0.0
  0
LINE
  5
65C
  8
010
 10
119.318954
 20
160.168669
 30
0.0
 11
119.283623
 21
160.197056
 31
0.0
  0
LINE
  5
65D
  8
010
 10
119.348576
 20
160.127979
 30
0.0
 11
119.318954
 21
160.168669
 31
0.0
  0
LINE
  5
65E
  8
010
 10
111.430647
 20
177.285472
 30
0.0
 11
114.195439
 21
177.285472
 31
0.0
  0
LINE
  5
65F
  8
05
 10
109.297703
 20
176.618285
 30
0.0
 11
108.203092
 21
176.930703
 31
0.0
  0
LINE
  5
660
  8
010
 10
108.585891
 20
177.285472
 30
0.0
 11
111.430647
 21
177.285472
 31
0.0
  0
LINE
  5
661
  8
05
 10
107.149604
 20
177.029382
 30
0.0
 11
106.096106
 21
176.930699
 31
0.0
  0
LINE
  5
662
  8
010
 10
105.714149
 20
177.285472
 30
0.0
 11
108.585891
 21
177.285472
 31
0.0
  0
LINE
  5
663
  8
05
 10
106.096106
 20
176.930699
 30
0.0
 11
105.001497
 21
176.618277
 31
0.0
  0
LINE
  5
664
  8
05
 10
108.203092
 20
176.930703
 30
0.0
 11
107.149604
 21
177.029382
 31
0.0
  0
LINE
  5
665
  8
05
 10
111.649609
 20
175.208856
 30
0.0
 11
110.454091
 21
176.053003
 31
0.0
  0
ARC
  5
666
  8
035
 10
111.049609
 20
172.185472
 30
0.0
 40
0.6
 50
0.0
 51
90.0
  0
LINE
  5
667
  8
05
 10
110.454091
 20
176.053003
 30
0.0
 11
109.297703
 21
176.618285
 31
0.0
  0
ARC
  5
668
  8
035
 10
110.699257
 20
172.185472
 30
0.0
 40
0.6
 50
90.0
 51
170.405932
  0
LINE
  5
669
  8
035
 10
111.049609
 20
172.785472
 30
0.0
 11
110.699257
 21
172.785472
 31
0.0
  0
LINE
  5
66A
  8
010
 10
116.828508
 20
177.285472
 30
0.0
 11
119.280668
 21
177.285472
 31
0.0
  0
LINE
  5
66B
  8
010
 10
114.195439
 20
177.285472
 30
0.0
 11
116.828508
 21
177.285472
 31
0.0
  0
LINE
  5
66C
  8
05
 10
128.149609
 20
177.285472
 30
0.0
 11
128.149609
 21
166.394996
 31
0.0
  0
LINE
  5
66D
  8
05
 10
128.149609
 20
177.285472
 30
0.0
 11
128.149609
 21
166.394996
 31
0.0
  0
LINE
  5
66E
  8
010
 10
125.514564
 20
160.108601
 30
0.0
 11
125.514541
 21
160.080942
 31
0.0
  0
LINE
  5
66F
  8
010
 10
125.446186
 20
160.082314
 30
0.0
 11
125.449634
 21
160.109941
 31
0.0
  0
LINE
  5
670
  8
010
 10
127.457631
 20
160.082314
 30
0.0
 11
127.460143
 21
160.109941
 31
0.0
  0
LINE
  5
671
  8
010
 10
127.482453
 20
160.108601
 30
0.0
 11
127.481119
 21
160.080942
 31
0.0
  0
LINE
  5
672
  8
05
 10
127.939829
 20
163.185472
 30
0.0
 11
127.149969
 21
151.889947
 31
0.0
  0
LINE
  5
673
  8
010
 10
125.511212
 20
159.821384
 30
0.0
 11
125.510156
 21
159.771929
 31
0.0
  0
LINE
  5
674
  8
010
 10
125.008889
 20
154.842575
 30
0.0
 11
124.777203
 21
151.889947
 31
0.0
  0
LINE
  5
675
  8
010
 10
125.155196
 20
151.889947
 30
0.0
 11
125.294784
 21
154.842502
 31
0.0
  0
LINE
  5
676
  8
010
 10
124.878699
 20
151.880442
 30
0.0
 11
125.43304
 21
157.799822
 31
0.0
  0
LINE
  5
677
  8
010
 10
124.768612
 20
151.785543
 30
0.0
 11
124.777203
 21
151.889947
 31
0.0
  0
LINE
  5
678
  8
010
 10
124.759246
 20
151.681315
 30
0.0
 11
124.768612
 21
151.785543
 31
0.0
  0
LINE
  5
679
  8
010
 10
125.149041
 20
151.785543
 30
0.0
 11
125.140486
 21
151.681315
 31
0.0
  0
LINE
  5
67A
  8
010
 10
125.155196
 20
151.889947
 30
0.0
 11
125.149041
 21
151.785543
 31
0.0
  0
LINE
  5
67B
  8
010
 10
124.859174
 20
151.671957
 30
0.0
 11
124.878699
 21
151.880442
 31
0.0
  0
LINE
  5
67C
  8
010
 10
125.476955
 20
158.778219
 30
0.0
 11
125.47162
 21
158.647965
 31
0.0
  0
LINE
  5
67D
  8
010
 10
125.481764
 20
158.899127
 30
0.0
 11
125.476955
 21
158.778219
 31
0.0
  0
LINE
  5
67E
  8
010
 10
125.486088
 20
159.011263
 30
0.0
 11
125.481764
 21
158.899127
 31
0.0
  0
LINE
  5
67F
  8
010
 10
125.489964
 20
159.115204
 30
0.0
 11
125.486088
 21
159.011263
 31
0.0
  0
LINE
  5
680
  8
010
 10
125.493431
 20
159.211534
 30
0.0
 11
125.489964
 21
159.115204
 31
0.0
  0
LINE
  5
681
  8
010
 10
125.496524
 20
159.300835
 30
0.0
 11
125.493431
 21
159.211534
 31
0.0
  0
LINE
  5
682
  8
010
 10
125.499276
 20
159.383689
 30
0.0
 11
125.496524
 21
159.300835
 31
0.0
  0
LINE
  5
683
  8
010
 10
125.501721
 20
159.460688
 30
0.0
 11
125.499276
 21
159.383689
 31
0.0
  0
LINE
  5
684
  8
010
 10
125.503887
 20
159.532355
 30
0.0
 11
125.501721
 21
159.460688
 31
0.0
  0
LINE
  5
685
  8
010
 10
125.505795
 20
159.599049
 30
0.0
 11
125.503887
 21
159.532355
 31
0.0
  0
LINE
  5
686
  8
010
 10
125.507465
 20
159.661031
 30
0.0
 11
125.505795
 21
159.599049
 31
0.0
  0
LINE
  5
687
  8
010
 10
125.508912
 20
159.718568
 30
0.0
 11
125.507465
 21
159.661031
 31
0.0
  0
LINE
  5
688
  8
010
 10
125.510156
 20
159.771929
 30
0.0
 11
125.508912
 21
159.718568
 31
0.0
  0
LINE
  5
689
  8
010
 10
125.442599
 20
160.052809
 30
0.0
 11
125.446186
 21
160.082314
 31
0.0
  0
LINE
  5
68A
  8
010
 10
125.438842
 20
160.021114
 30
0.0
 11
125.442599
 21
160.052809
 31
0.0
  0
LINE
  5
68B
  8
010
 10
125.434891
 20
159.986988
 30
0.0
 11
125.438842
 21
160.021114
 31
0.0
  0
LINE
  5
68C
  8
010
 10
125.430728
 20
159.950189
 30
0.0
 11
125.434891
 21
159.986988
 31
0.0
  0
LINE
  5
68D
  8
010
 10
125.426333
 20
159.910477
 30
0.0
 11
125.430728
 21
159.950189
 31
0.0
  0
LINE
  5
68E
  8
010
 10
125.421688
 20
159.86761
 30
0.0
 11
125.426333
 21
159.910477
 31
0.0
  0
LINE
  5
68F
  8
010
 10
125.416776
 20
159.821345
 30
0.0
 11
125.421688
 21
159.86761
 31
0.0
  0
LINE
  5
690
  8
010
 10
125.411582
 20
159.771443
 30
0.0
 11
125.416776
 21
159.821345
 31
0.0
  0
LINE
  5
691
  8
010
 10
125.40609
 20
159.717662
 30
0.0
 11
125.411582
 21
159.771443
 31
0.0
  0
LINE
  5
692
  8
010
 10
125.400286
 20
159.659764
 30
0.0
 11
125.40609
 21
159.717662
 31
0.0
  0
LINE
  5
693
  8
010
 10
125.394156
 20
159.597515
 30
0.0
 11
125.400286
 21
159.659764
 31
0.0
  0
LINE
  5
694
  8
010
 10
125.387686
 20
159.530659
 30
0.0
 11
125.394156
 21
159.597515
 31
0.0
  0
LINE
  5
695
  8
010
 10
125.380849
 20
159.458814
 30
0.0
 11
125.387686
 21
159.530659
 31
0.0
  0
LINE
  5
696
  8
010
 10
125.377282
 20
159.420861
 30
0.0
 11
125.380849
 21
159.458814
 31
0.0
  0
LINE
  5
697
  8
010
 10
125.373608
 20
159.381468
 30
0.0
 11
125.377282
 21
159.420861
 31
0.0
  0
LINE
  5
698
  8
010
 10
125.365927
 20
159.298108
 30
0.0
 11
125.373608
 21
159.381468
 31
0.0
  0
LINE
  5
699
  8
010
 10
125.357772
 20
159.20822
 30
0.0
 11
125.365927
 21
159.298108
 31
0.0
  0
LINE
  5
69A
  8
010
 10
125.349111
 20
159.111292
 30
0.0
 11
125.357772
 21
159.20822
 31
0.0
  0
LINE
  5
69B
  8
010
 10
125.339914
 20
159.006813
 30
0.0
 11
125.349111
 21
159.111292
 31
0.0
  0
LINE
  5
69C
  8
010
 10
125.33015
 20
158.894274
 30
0.0
 11
125.339914
 21
159.006813
 31
0.0
  0
LINE
  5
69D
  8
010
 10
125.31979
 20
158.773155
 30
0.0
 11
125.33015
 21
158.894274
 31
0.0
  0
LINE
  5
69E
  8
010
 10
125.308795
 20
158.642788
 30
0.0
 11
125.31979
 21
158.773155
 31
0.0
  0
LINE
  5
69F
  8
010
 10
125.297101
 20
158.502212
 30
0.0
 11
125.308795
 21
158.642788
 31
0.0
  0
LINE
  5
6A0
  8
010
 10
125.284643
 20
158.350419
 30
0.0
 11
125.297101
 21
158.502212
 31
0.0
  0
LINE
  5
6A1
  8
010
 10
125.271363
 20
158.186404
 30
0.0
 11
125.284643
 21
158.350419
 31
0.0
  0
LINE
  5
6A2
  8
010
 10
125.257201
 20
158.009166
 30
0.0
 11
125.271363
 21
158.186404
 31
0.0
  0
LINE
  5
6A3
  8
010
 10
125.242103
 20
157.817703
 30
0.0
 11
125.257201
 21
158.009166
 31
0.0
  0
LINE
  5
6A4
  8
010
 10
125.443739
 20
158.012179
 30
0.0
 11
125.434714
 21
157.817703
 31
0.0
  0
LINE
  5
6A5
  8
010
 10
125.451852
 20
158.19104
 30
0.0
 11
125.443739
 21
158.012179
 31
0.0
  0
LINE
  5
6A6
  8
010
 10
125.459146
 20
158.3557
 30
0.0
 11
125.451852
 21
158.19104
 31
0.0
  0
LINE
  5
6A7
  8
010
 10
125.465708
 20
158.507542
 30
0.0
 11
125.459146
 21
158.3557
 31
0.0
  0
LINE
  5
6A8
  8
010
 10
125.47162
 20
158.647965
 30
0.0
 11
125.465708
 21
158.507542
 31
0.0
  0
LINE
  5
6A9
  8
010
 10
125.242103
 20
157.817703
 30
0.0
 11
125.008889
 21
154.842575
 31
0.0
  0
LINE
  5
6AA
  8
010
 10
125.294784
 20
154.842502
 30
0.0
 11
125.434714
 21
157.817703
 31
0.0
  0
LINE
  5
6AB
  8
010
 10
125.43304
 20
157.799822
 30
0.0
 11
125.434714
 21
157.817703
 31
0.0
  0
LINE
  5
6AC
  8
010
 10
127.055977
 20
154.842575
 30
0.0
 11
126.834328
 21
151.889947
 31
0.0
  0
LINE
  5
6AD
  8
010
 10
126.964575
 20
151.889947
 30
0.0
 11
127.154486
 21
154.842502
 31
0.0
  0
LINE
  5
6AE
  8
010
 10
126.825735
 20
151.785543
 30
0.0
 11
126.834328
 21
151.889947
 31
0.0
  0
LINE
  5
6AF
  8
010
 10
126.815663
 20
151.681315
 30
0.0
 11
126.825735
 21
151.785543
 31
0.0
  0
LINE
  5
6B0
  8
010
 10
126.956822
 20
151.785543
 30
0.0
 11
126.947029
 21
151.681315
 31
0.0
  0
LINE
  5
6B1
  8
010
 10
126.964575
 20
151.889947
 30
0.0
 11
126.956822
 21
151.785543
 31
0.0
  0
LINE
  5
6B2
  8
05
 10
127.135252
 20
151.889947
 30
0.0
 11
127.149969
 21
151.889947
 31
0.0
  0
LINE
  5
6B3
  8
05
 10
127.131716
 20
151.681315
 30
0.0
 11
127.11692
 21
151.681315
 31
0.0
  0
LINE
  5
6B4
  8
010
 10
126.945627
 20
151.66782
 30
0.0
 11
126.947029
 21
151.681315
 31
0.0
  0
LINE
  5
6B5
  8
05
 10
127.149969
 20
151.889947
 30
0.0
 11
127.131716
 21
151.681315
 31
0.0
  0
LINE
  5
6B6
  8
010
 10
125.512096
 20
159.867205
 30
0.0
 11
125.511212
 21
159.821384
 31
0.0
  0
LINE
  5
6B7
  8
010
 10
125.512824
 20
159.909662
 30
0.0
 11
125.512096
 21
159.867205
 31
0.0
  0
LINE
  5
6B8
  8
010
 10
125.513408
 20
159.949027
 30
0.0
 11
125.512824
 21
159.909662
 31
0.0
  0
LINE
  5
6B9
  8
010
 10
125.513862
 20
159.985569
 30
0.0
 11
125.513408
 21
159.949027
 31
0.0
  0
LINE
  5
6BA
  8
010
 10
125.514196
 20
160.019564
 30
0.0
 11
125.513862
 21
159.985569
 31
0.0
  0
LINE
  5
6BB
  8
010
 10
125.51442
 20
160.051292
 30
0.0
 11
125.514196
 21
160.019564
 31
0.0
  0
LINE
  5
6BC
  8
010
 10
125.514541
 20
160.080942
 30
0.0
 11
125.51442
 21
160.051292
 31
0.0
  0
LINE
  5
6BD
  8
010
 10
127.454981
 20
160.052809
 30
0.0
 11
127.457631
 21
160.082314
 31
0.0
  0
LINE
  5
6BE
  8
010
 10
127.452167
 20
160.021114
 30
0.0
 11
127.454981
 21
160.052809
 31
0.0
  0
LINE
  5
6BF
  8
010
 10
127.449171
 20
159.986988
 30
0.0
 11
127.452167
 21
160.021114
 31
0.0
  0
LINE
  5
6C0
  8
010
 10
127.445972
 20
159.950189
 30
0.0
 11
127.449171
 21
159.986988
 31
0.0
  0
LINE
  5
6C1
  8
010
 10
127.442555
 20
159.910477
 30
0.0
 11
127.445972
 21
159.950189
 31
0.0
  0
LINE
  5
6C2
  8
010
 10
127.4389
 20
159.867609
 30
0.0
 11
127.442555
 21
159.910477
 31
0.0
  0
LINE
  5
6C3
  8
010
 10
127.434991
 20
159.821345
 30
0.0
 11
127.4389
 21
159.867609
 31
0.0
  0
LINE
  5
6C4
  8
010
 10
127.43081
 20
159.771443
 30
0.0
 11
127.434991
 21
159.821345
 31
0.0
  0
LINE
  5
6C5
  8
010
 10
127.42634
 20
159.717662
 30
0.0
 11
127.43081
 21
159.771443
 31
0.0
  0
LINE
  5
6C6
  8
010
 10
127.421566
 20
159.659764
 30
0.0
 11
127.42634
 21
159.717662
 31
0.0
  0
LINE
  5
6C7
  8
010
 10
127.416472
 20
159.597515
 30
0.0
 11
127.421566
 21
159.659764
 31
0.0
  0
LINE
  5
6C8
  8
010
 10
127.411039
 20
159.530659
 30
0.0
 11
127.416472
 21
159.597515
 31
0.0
  0
LINE
  5
6C9
  8
010
 10
127.405241
 20
159.458814
 30
0.0
 11
127.411039
 21
159.530659
 31
0.0
  0
LINE
  5
6CA
  8
010
 10
127.399041
 20
159.381468
 30
0.0
 11
127.405241
 21
159.458814
 31
0.0
  0
LINE
  5
6CB
  8
010
 10
127.392401
 20
159.298108
 30
0.0
 11
127.399041
 21
159.381468
 31
0.0
  0
LINE
  5
6CC
  8
010
 10
127.385286
 20
159.20822
 30
0.0
 11
127.392401
 21
159.298108
 31
0.0
  0
LINE
  5
6CD
  8
010
 10
127.377659
 20
159.111292
 30
0.0
 11
127.385286
 21
159.20822
 31
0.0
  0
LINE
  5
6CE
  8
010
 10
127.369486
 20
159.006813
 30
0.0
 11
127.377659
 21
159.111292
 31
0.0
  0
LINE
  5
6CF
  8
010
 10
127.360732
 20
158.894274
 30
0.0
 11
127.369486
 21
159.006813
 31
0.0
  0
LINE
  5
6D0
  8
010
 10
127.351363
 20
158.773155
 30
0.0
 11
127.360732
 21
158.894274
 31
0.0
  0
LINE
  5
6D1
  8
010
 10
127.341333
 20
158.642788
 30
0.0
 11
127.351363
 21
158.773155
 31
0.0
  0
LINE
  5
6D2
  8
010
 10
127.330574
 20
158.502212
 30
0.0
 11
127.341333
 21
158.642788
 31
0.0
  0
LINE
  5
6D3
  8
010
 10
127.319015
 20
158.350419
 30
0.0
 11
127.330574
 21
158.502212
 31
0.0
  0
LINE
  5
6D4
  8
010
 10
127.306589
 20
158.186404
 30
0.0
 11
127.319015
 21
158.350419
 31
0.0
  0
LINE
  5
6D5
  8
010
 10
127.293227
 20
158.009166
 30
0.0
 11
127.306589
 21
158.186404
 31
0.0
  0
LINE
  5
6D6
  8
010
 10
127.278864
 20
157.817703
 30
0.0
 11
127.293227
 21
158.009166
 31
0.0
  0
LINE
  5
6D7
  8
010
 10
127.357648
 20
158.012179
 30
0.0
 11
127.345233
 21
157.817703
 31
0.0
  0
LINE
  5
6D8
  8
010
 10
127.369003
 20
158.19104
 30
0.0
 11
127.357648
 21
158.012179
 31
0.0
  0
LINE
  5
6D9
  8
010
 10
127.379397
 20
158.3557
 30
0.0
 11
127.369003
 21
158.19104
 31
0.0
  0
LINE
  5
6DA
  8
010
 10
127.388927
 20
158.507542
 30
0.0
 11
127.379397
 21
158.3557
 31
0.0
  0
LINE
  5
6DB
  8
010
 10
127.397686
 20
158.647965
 30
0.0
 11
127.388927
 21
158.507542
 31
0.0
  0
LINE
  5
6DC
  8
010
 10
127.405761
 20
158.778219
 30
0.0
 11
127.397686
 21
158.647965
 31
0.0
  0
LINE
  5
6DD
  8
010
 10
127.413208
 20
158.899127
 30
0.0
 11
127.405761
 21
158.778219
 31
0.0
  0
LINE
  5
6DE
  8
010
 10
127.420067
 20
159.011262
 30
0.0
 11
127.413208
 21
158.899127
 31
0.0
  0
LINE
  5
6DF
  8
010
 10
127.426381
 20
159.115204
 30
0.0
 11
127.420067
 21
159.011262
 31
0.0
  0
LINE
  5
6E0
  8
010
 10
127.432189
 20
159.211534
 30
0.0
 11
127.426381
 21
159.115204
 31
0.0
  0
LINE
  5
6E1
  8
010
 10
127.437532
 20
159.300834
 30
0.0
 11
127.432189
 21
159.211534
 31
0.0
  0
LINE
  5
6E2
  8
010
 10
127.44245
 20
159.383689
 30
0.0
 11
127.437532
 21
159.300834
 31
0.0
  0
LINE
  5
6E3
  8
010
 10
127.446981
 20
159.460687
 30
0.0
 11
127.44245
 21
159.383689
 31
0.0
  0
LINE
  5
6E4
  8
010
 10
127.45116
 20
159.532355
 30
0.0
 11
127.446981
 21
159.460687
 31
0.0
  0
LINE
  5
6E5
  8
010
 10
127.455013
 20
159.599049
 30
0.0
 11
127.45116
 21
159.532355
 31
0.0
  0
LINE
  5
6E6
  8
010
 10
127.458558
 20
159.661031
 30
0.0
 11
127.455013
 21
159.599049
 31
0.0
  0
LINE
  5
6E7
  8
010
 10
127.461814
 20
159.718568
 30
0.0
 11
127.458558
 21
159.661031
 31
0.0
  0
LINE
  5
6E8
  8
010
 10
127.464799
 20
159.771929
 30
0.0
 11
127.461814
 21
159.718568
 31
0.0
  0
LINE
  5
6E9
  8
010
 10
127.467533
 20
159.821384
 30
0.0
 11
127.464799
 21
159.771929
 31
0.0
  0
LINE
  5
6EA
  8
010
 10
127.470033
 20
159.867205
 30
0.0
 11
127.467533
 21
159.821384
 31
0.0
  0
LINE
  5
6EB
  8
010
 10
127.472319
 20
159.909662
 30
0.0
 11
127.470033
 21
159.867205
 31
0.0
  0
LINE
  5
6EC
  8
010
 10
127.474406
 20
159.949027
 30
0.0
 11
127.472319
 21
159.909662
 31
0.0
  0
LINE
  5
6ED
  8
010
 10
127.476314
 20
159.985569
 30
0.0
 11
127.474406
 21
159.949027
 31
0.0
  0
LINE
  5
6EE
  8
010
 10
127.478058
 20
160.019563
 30
0.0
 11
127.476314
 21
159.985569
 31
0.0
  0
LINE
  5
6EF
  8
010
 10
127.479656
 20
160.051292
 30
0.0
 11
127.478058
 21
160.019563
 31
0.0
  0
LINE
  5
6F0
  8
010
 10
127.481119
 20
160.080942
 30
0.0
 11
127.479656
 21
160.051292
 31
0.0
  0
LINE
  5
6F1
  8
010
 10
127.278864
 20
157.817703
 30
0.0
 11
127.055977
 21
154.842575
 31
0.0
  0
LINE
  5
6F2
  8
010
 10
127.154486
 20
154.842502
 30
0.0
 11
127.345233
 21
157.817703
 31
0.0
  0
LINE
  5
6F3
  8
010
 10
127.106778
 20
155.52067
 30
0.0
 11
127.345233
 21
157.817703
 31
0.0
  0
LINE
  5
6F4
  8
010
 10
125.509978
 20
160.301433
 30
0.0
 11
125.510888
 21
160.287086
 31
0.0
  0
LINE
  5
6F5
  8
010
 10
125.099405
 20
165.976458
 30
0.0
 11
126.415475
 21
165.976458
 31
0.0
  0
LINE
  5
6F6
  8
010
 10
125.508885
 20
160.315157
 30
0.0
 11
125.509978
 21
160.301433
 31
0.0
  0
LINE
  5
6F7
  8
010
 10
125.507519
 20
160.328423
 30
0.0
 11
125.508885
 21
160.315157
 31
0.0
  0
LINE
  5
6F8
  8
010
 10
125.505783
 20
160.340769
 30
0.0
 11
125.507519
 21
160.328423
 31
0.0
  0
LINE
  5
6F9
  8
010
 10
125.503551
 20
160.351309
 30
0.0
 11
125.505783
 21
160.340769
 31
0.0
  0
LINE
  5
6FA
  8
010
 10
125.500368
 20
160.359008
 30
0.0
 11
125.503551
 21
160.351309
 31
0.0
  0
LINE
  5
6FB
  8
010
 10
125.49581
 20
160.359742
 30
0.0
 11
125.500368
 21
160.359008
 31
0.0
  0
LINE
  5
6FC
  8
010
 10
125.491368
 20
160.352362
 30
0.0
 11
125.49581
 21
160.359742
 31
0.0
  0
LINE
  5
6FD
  8
010
 10
125.487676
 20
160.341763
 30
0.0
 11
125.491368
 21
160.352362
 31
0.0
  0
LINE
  5
6FE
  8
010
 10
125.484428
 20
160.329774
 30
0.0
 11
125.487676
 21
160.341763
 31
0.0
  0
LINE
  5
6FF
  8
010
 10
125.481489
 20
160.317114
 30
0.0
 11
125.484428
 21
160.329774
 31
0.0
  0
LINE
  5
700
  8
010
 10
125.478706
 20
160.303744
 30
0.0
 11
125.481489
 21
160.317114
 31
0.0
  0
LINE
  5
701
  8
010
 10
125.476002
 20
160.289614
 30
0.0
 11
125.478706
 21
160.303744
 31
0.0
  0
LINE
  5
702
  8
010
 10
125.473326
 20
160.27463
 30
0.0
 11
125.476002
 21
160.289614
 31
0.0
  0
LINE
  5
703
  8
010
 10
125.470639
 20
160.25868
 30
0.0
 11
125.473326
 21
160.27463
 31
0.0
  0
LINE
  5
704
  8
010
 10
125.46791
 20
160.24164
 30
0.0
 11
125.470639
 21
160.25868
 31
0.0
  0
LINE
  5
705
  8
010
 10
125.465116
 20
160.223382
 30
0.0
 11
125.46791
 21
160.24164
 31
0.0
  0
LINE
  5
706
  8
010
 10
125.462237
 20
160.20378
 30
0.0
 11
125.465116
 21
160.223382
 31
0.0
  0
LINE
  5
707
  8
010
 10
125.459258
 20
160.18272
 30
0.0
 11
125.462237
 21
160.20378
 31
0.0
  0
LINE
  5
708
  8
010
 10
125.456168
 20
160.160105
 30
0.0
 11
125.459258
 21
160.18272
 31
0.0
  0
LINE
  5
709
  8
010
 10
125.452961
 20
160.135859
 30
0.0
 11
125.456168
 21
160.160105
 31
0.0
  0
LINE
  5
70A
  8
010
 10
125.449634
 20
160.109941
 30
0.0
 11
125.452961
 21
160.135859
 31
0.0
  0
LINE
  5
70B
  8
010
 10
123.450193
 20
165.976458
 30
0.0
 11
125.099405
 21
165.976458
 31
0.0
  0
LINE
  5
70C
  8
010
 10
121.492827
 20
165.976458
 30
0.0
 11
123.450193
 21
165.976458
 31
0.0
  0
LINE
  5
70D
  8
05
 10
128.134994
 20
165.976458
 30
0.0
 11
127.939829
 21
163.185472
 31
0.0
  0
LINE
  5
70E
  8
05
 10
128.134994
 20
165.976458
 30
0.0
 11
127.939829
 21
163.185472
 31
0.0
  0
LINE
  5
70F
  8
010
 10
125.514495
 20
160.134365
 30
0.0
 11
125.514564
 21
160.108601
 31
0.0
  0
LINE
  5
710
  8
010
 10
125.514338
 20
160.158345
 30
0.0
 11
125.514495
 21
160.134365
 31
0.0
  0
LINE
  5
711
  8
010
 10
125.514098
 20
160.180664
 30
0.0
 11
125.514338
 21
160.158345
 31
0.0
  0
LINE
  5
712
  8
010
 10
125.513778
 20
160.201452
 30
0.0
 11
125.514098
 21
160.180664
 31
0.0
  0
LINE
  5
713
  8
010
 10
125.513377
 20
160.220843
 30
0.0
 11
125.513778
 21
160.201452
 31
0.0
  0
LINE
  5
714
  8
010
 10
125.512895
 20
160.238971
 30
0.0
 11
125.513377
 21
160.220843
 31
0.0
  0
LINE
  5
715
  8
010
 10
125.512326
 20
160.255969
 30
0.0
 11
125.512895
 21
160.238971
 31
0.0
  0
LINE
  5
716
  8
010
 10
125.511662
 20
160.271967
 30
0.0
 11
125.512326
 21
160.255969
 31
0.0
  0
LINE
  5
717
  8
010
 10
125.510888
 20
160.287086
 30
0.0
 11
125.511662
 21
160.271967
 31
0.0
  0
LINE
  5
718
  8
010
 10
127.472754
 20
160.24164
 30
0.0
 11
127.473641
 21
160.250305
 31
0.0
  0
LINE
  5
719
  8
010
 10
127.470916
 20
160.223382
 30
0.0
 11
127.472754
 21
160.24164
 31
0.0
  0
LINE
  5
71A
  8
010
 10
127.468984
 20
160.20378
 30
0.0
 11
127.470916
 21
160.223382
 31
0.0
  0
LINE
  5
71B
  8
010
 10
127.466948
 20
160.18272
 30
0.0
 11
127.468984
 21
160.20378
 31
0.0
  0
LINE
  5
71C
  8
010
 10
127.464799
 20
160.160105
 30
0.0
 11
127.466948
 21
160.18272
 31
0.0
  0
LINE
  5
71D
  8
010
 10
127.462532
 20
160.135859
 30
0.0
 11
127.464799
 21
160.160105
 31
0.0
  0
LINE
  5
71E
  8
010
 10
127.460143
 20
160.109941
 30
0.0
 11
127.462532
 21
160.135859
 31
0.0
  0
LINE
  5
71F
  8
010
 10
127.483664
 20
160.134365
 30
0.0
 11
127.482453
 21
160.108601
 31
0.0
  0
LINE
  5
720
  8
010
 10
127.484759
 20
160.158345
 30
0.0
 11
127.483664
 21
160.134365
 31
0.0
  0
LINE
  5
721
  8
010
 10
127.485746
 20
160.180664
 30
0.0
 11
127.484759
 21
160.158345
 31
0.0
  0
LINE
  5
722
  8
010
 10
127.486632
 20
160.201452
 30
0.0
 11
127.485746
 21
160.180664
 31
0.0
  0
LINE
  5
723
  8
010
 10
127.487423
 20
160.220843
 30
0.0
 11
127.486632
 21
160.201452
 31
0.0
  0
LINE
  5
724
  8
010
 10
127.488126
 20
160.238971
 30
0.0
 11
127.487423
 21
160.220843
 31
0.0
  0
LINE
  5
725
  8
010
 10
127.488745
 20
160.255969
 30
0.0
 11
127.488126
 21
160.238971
 31
0.0
  0
LINE
  5
726
  8
010
 10
127.489283
 20
160.271967
 30
0.0
 11
127.488745
 21
160.255969
 31
0.0
  0
LINE
  5
727
  8
010
 10
127.489741
 20
160.287086
 30
0.0
 11
127.489283
 21
160.271967
 31
0.0
  0
LINE
  5
728
  8
010
 10
127.490115
 20
160.301433
 30
0.0
 11
127.489741
 21
160.287086
 31
0.0
  0
LINE
  5
729
  8
010
 10
127.490397
 20
160.315157
 30
0.0
 11
127.490115
 21
160.301433
 31
0.0
  0
LINE
  5
72A
  8
010
 10
127.490562
 20
160.328423
 30
0.0
 11
127.490397
 21
160.315157
 31
0.0
  0
LINE
  5
72B
  8
010
 10
127.490556
 20
160.340769
 30
0.0
 11
127.490562
 21
160.328423
 31
0.0
  0
LINE
  5
72C
  8
010
 10
127.490292
 20
160.351309
 30
0.0
 11
127.490556
 21
160.340769
 31
0.0
  0
LINE
  5
72D
  8
010
 10
127.489564
 20
160.359008
 30
0.0
 11
127.490292
 21
160.351309
 31
0.0
  0
LINE
  5
72E
  8
010
 10
127.488029
 20
160.359742
 30
0.0
 11
127.489564
 21
160.359008
 31
0.0
  0
LINE
  5
72F
  8
010
 10
127.486144
 20
160.352362
 30
0.0
 11
127.488029
 21
160.359742
 31
0.0
  0
LINE
  5
730
  8
010
 10
127.484364
 20
160.341763
 30
0.0
 11
127.486144
 21
160.352362
 31
0.0
  0
LINE
  5
731
  8
010
 10
127.48267
 20
160.329774
 30
0.0
 11
127.484364
 21
160.341763
 31
0.0
  0
LINE
  5
732
  8
010
 10
127.481051
 20
160.317114
 30
0.0
 11
127.48267
 21
160.329774
 31
0.0
  0
LINE
  5
733
  8
010
 10
127.479451
 20
160.303744
 30
0.0
 11
127.481051
 21
160.317114
 31
0.0
  0
LINE
  5
734
  8
010
 10
127.477842
 20
160.289614
 30
0.0
 11
127.479451
 21
160.303744
 31
0.0
  0
LINE
  5
735
  8
010
 10
127.476201
 20
160.27463
 30
0.0
 11
127.477842
 21
160.289614
 31
0.0
  0
LINE
  5
736
  8
010
 10
127.474511
 20
160.25868
 30
0.0
 11
127.476201
 21
160.27463
 31
0.0
  0
LINE
  5
737
  8
010
 10
127.473641
 20
160.250305
 30
0.0
 11
127.474511
 21
160.25868
 31
0.0
  0
LINE
  5
738
  8
010
 10
127.369831
 20
165.976458
 30
0.0
 11
127.94374
 21
165.976458
 31
0.0
  0
LINE
  5
739
  8
010
 10
126.415475
 20
165.976458
 30
0.0
 11
127.369831
 21
165.976458
 31
0.0
  0
LINE
  5
73A
  8
010
 10
127.94374
 20
165.976458
 30
0.0
 11
128.134994
 21
165.976458
 31
0.0
  0
LINE
  5
73B
  8
05
 10
128.149609
 20
166.394996
 30
0.0
 11
128.134994
 21
165.976458
 31
0.0
  0
LINE
  5
73C
  8
05
 10
128.149609
 20
166.394996
 30
0.0
 11
128.134994
 21
165.976458
 31
0.0
  0
LINE
  5
73D
  8
010
 10
125.114316
 20
177.285472
 30
0.0
 11
126.431047
 21
177.285472
 31
0.0
  0
LINE
  5
73E
  8
010
 10
122.749609
 20
177.285472
 30
0.0
 11
123.461933
 21
177.285472
 31
0.0
  0
LINE
  5
73F
  8
010
 10
121.505534
 20
177.285472
 30
0.0
 11
122.254245
 21
177.285472
 31
0.0
  0
LINE
  5
740
  8
010
 10
122.729693
 20
177.285472
 30
0.0
 11
122.749609
 21
177.285472
 31
0.0
  0
LINE
  5
741
  8
010
 10
122.254245
 20
177.285472
 30
0.0
 11
122.729693
 21
177.285472
 31
0.0
  0
LINE
  5
742
  8
010
 10
123.461933
 20
177.285472
 30
0.0
 11
123.952957
 21
177.285472
 31
0.0
  0
LINE
  5
743
  8
010
 10
123.952957
 20
177.285472
 30
0.0
 11
125.114316
 21
177.285472
 31
0.0
  0
ARC
  5
744
  8
05
 10
126.649609
 20
177.285472
 30
0.0
 40
1.5
 50
0.0
 51
90.0
  0
ARC
  5
745
  8
05
 10
126.649609
 20
177.285472
 30
0.0
 40
1.5
 50
0.0
 51
90.0
  0
LINE
  5
746
  8
010
 10
127.384855
 20
177.285472
 30
0.0
 11
127.959131
 21
177.285472
 31
0.0
  0
LINE
  5
747
  8
010
 10
126.431047
 20
177.285472
 30
0.0
 11
127.384855
 21
177.285472
 31
0.0
  0
LINE
  5
748
  8
010
 10
127.959131
 20
177.285472
 30
0.0
 11
128.149609
 21
177.285472
 31
0.0
  0
LINE
  5
749
  8
05
 10
125.859722
 20
178.785472
 30
0.0
 11
125.911509
 21
178.785472
 31
0.0
  0
LINE
  5
74A
  8
05
 10
125.911509
 20
178.785472
 30
0.0
 11
126.649609
 21
178.785472
 31
0.0
  0
LINE
  5
74B
  8
05
 10
125.939654
 20
178.785472
 30
0.0
 11
126.649609
 21
178.785472
 31
0.0
  0
LINE
  5
74C
  8
05
 10
125.89941
 20
178.785472
 30
0.0
 11
125.939654
 21
178.785472
 31
0.0
  0
LINE
  5
74D
  8
BEM1
  6
BYBLOCK
 10
128.899609
 20
201.603448
 30
0.0
 11
107.149609
 21
201.603448
 31
0.0
  0
TEXT
  5
74E
  8
BEM1
  6
BYBLOCK
 62
     3
 10
110.377315
 20
202.509315
 30
0.0
 40
3.5
  1
mm
 41
1.114286
 51
15.0
 72
     5
 11
116.877315
 21
202.509315
 31
0.0
  0
SOLID
  5
74F
  8
BEM1
  6
BYBLOCK
 10
125.399609
 20
202.040948
 30
0.0
 11
125.399609
 21
201.165948
 31
0.0
 12
128.899609
 22
201.603448
 32
0.0
 13
128.899609
 23
201.603448
 33
0.0
  0
ENDSEC
  0
EOF
