999
DXF file: nl4mpr.dxf
999
Pro/ENGINEER 2001040 by Parametric Technology Corporation
0
SECTION
2
HEADER
9
$ACADVER
1
AC1012
9
$EXTMAX
10
420.0000000000
20
297.0000000000
9
$EXTMIN
10
0.0000000000
20
0.0000000000
9
$LIMMIN
10
0.0000000000
20
0.0000000000
9
$LIMMAX
10
420.0000000000
20
297.0000000000
9
$VIEWCTR
10
210.0000000000
20
148.5000000000
9
$VIEWSIZE
40
297.0000000000
9
$CLAYER
8
0
9
$LTSCALE
40
23.1000000000
9
$CELTYPE
6
BYLAYER
9
$DIMSCALE
40
1
9
$DIMASZ
40
3.5000000000
9
$DIMEXO
40
2.6250000000
9
$DIMDLI
40
15.9600000000
9
$DIMEXE
40
7.5600000000
9
$DIMCEN
40
3.7800000000
9
$DIMTXT
40
4.7460937500
9
$DIMLFAC
40
1.0000000000
0
ENDSEC
0
SECTION
2
CLASSES
0
ENDSEC
0
SECTION
2
TABLES
0
TABLE
2
VPORT
5
1F4
100
AcDbSymbolTable
70
2
0
VPORT
5
1F5
100
AcDbSymbolTableRecord
100
AcDbViewportTableRecord
2
*ACTIVE
70
0
10
0.0
20
0.0
11
1.0
21
1.0
12
210.0000000000
22
148.5000000000
13
0.0
23
0.0
14
1.0
24
1.0
15
0.0
25
0.0
16
0.0
26
0.0
36
1.0
17
0.0
27
0.0
37
0.0
40
297.0000000000
41
1.4141414141
42
50.0
43
0.0
44
0.0
50
0.0
51
0.0
71
0
72
100
73
1
74
1
75
0
76
0
77
0
78
0
0
ENDTAB
0
TABLE
2
LTYPE
5
1F6
100
AcDbSymbolTable
70
6
0
LTYPE
5
1F7
100
AcDbSymbolTableRecord
100
AcDbLinetypeTableRecord
2
BYBLOCK
70
0
3

72
65
73
0
40
0.0
0
LTYPE
5
1F8
100
AcDbSymbolTableRecord
100
AcDbLinetypeTableRecord
2
BYLAYER
70
0
3

72
65
73
0
40
0.0
0
LTYPE
5
1F9
100
AcDbSymbolTableRecord
100
AcDbLinetypeTableRecord
2
CONTINUOUS
70
64
3
Solid line
72
65
73
0
40
0
0
LTYPE
5
1FA
100
AcDbSymbolTableRecord
100
AcDbLinetypeTableRecord
2
CENTER
70
64
3
____ _ ____ _ ____ _ ____ _ ____ _ ____ _ ____
72
65
73
4
40
0.6
49
0.375
74
0
49
-0.075
74
0
49
0.075
74
0
49
-0.075
74
0
0
LTYPE
5
1FB
100
AcDbSymbolTableRecord
100
AcDbLinetypeTableRecord
2
HIDDEN
70
64
3
- - - - - - - - - - - - - - - - - - - -
72
65
73
2
40
0.2
49
0.1
74
0
49
-0.1
74
0
0
LTYPE
5
1FC
100
AcDbSymbolTableRecord
100
AcDbLinetypeTableRecord
2
PHANTOM
70
64
3
_____ _ _ _____ _ _ _____ _ _ _____
72
65
73
6
40
0.8
49
0.45
74
0
49
-0.05
74
0
49
0.1
74
0
49
-0.05
74
0
49
0.1
74
0
49
-0.05
74
0
0
LTYPE
5
1FD
100
AcDbSymbolTableRecord
100
AcDbLinetypeTableRecord
2
DOT
70
64
3
. . . . . . . . . . . . . . . . . . . .
72
65
73
2
40
0.2
49
0.1
74
0
49
-0.1
74
0
0
LTYPE
5
1FE
100
AcDbSymbolTableRecord
100
AcDbLinetypeTableRecord
2
DASHED
70
64
3
- - - - - - - - - - - - - - - - - - - -
72
65
73
2
40
0.2
49
0.1
74
0
49
-0.1
74
0
0
ENDTAB
0
TABLE
2
LAYER
5
1FF
100
AcDbSymbolTable
70
36
0
LAYER
5
200
100
AcDbSymbolTableRecord
100
AcDbLayerTableRecord
2
0
70
0
62
7
6
CONTINUOUS
0
LAYER
5
201
100
AcDbSymbolTableRecord
100
AcDbLayerTableRecord
2
DEFAULT_1
70
0
62
7
6
CENTER
0
LAYER
5
202
100
AcDbSymbolTableRecord
100
AcDbLayerTableRecord
2
DEFAULT_2
70
0
62
8
6
HIDDEN
0
LAYER
5
203
100
AcDbSymbolTableRecord
100
AcDbLayerTableRecord
2
DEFAULT_3
70
0
62
7
6
PHANTOM
0
LAYER
5
204
100
AcDbSymbolTableRecord
100
AcDbLayerTableRecord
2
0
70
0
62
7
6
CONTINUOUS
0
LAYER
5
205
100
AcDbSymbolTableRecord
100
AcDbLayerTableRecord
2
025
70
0
62
7
6
CONTINUOUS
0
LAYER
5
206
100
AcDbSymbolTableRecord
100
AcDbLayerTableRecord
2
035
70
0
62
7
6
CONTINUOUS
0
LAYER
5
207
100
AcDbSymbolTableRecord
100
AcDbLayerTableRecord
2
05
70
0
62
7
6
CONTINUOUS
0
LAYER
5
208
100
AcDbSymbolTableRecord
100
AcDbLayerTableRecord
2
07
70
0
62
7
6
CONTINUOUS
0
LAYER
5
209
100
AcDbSymbolTableRecord
100
AcDbLayerTableRecord
2
BEM1
70
0
62
7
6
CONTINUOUS
0
LAYER
5
20A
100
AcDbSymbolTableRecord
100
AcDbLayerTableRecord
2
DEFAULT_1
70
0
62
7
6
CONTINUOUS
0
LAYER
5
20B
100
AcDbSymbolTableRecord
100
AcDbLayerTableRecord
2
DEFAULT_2
70
0
62
7
6
CONTINUOUS
0
LAYER
5
20C
100
AcDbSymbolTableRecord
100
AcDbLayerTableRecord
2
DEFAULT_3
70
0
62
7
6
CONTINUOUS
0
LAYER
5
20D
100
AcDbSymbolTableRecord
100
AcDbLayerTableRecord
2
MITTE
70
0
62
7
6
CONTINUOUS
0
LAYER
5
20E
100
AcDbSymbolTableRecord
100
AcDbLayerTableRecord
2
RAHMEN
70
0
62
7
6
CONTINUOUS
0
LAYER
5
20F
100
AcDbSymbolTableRecord
100
AcDbLayerTableRecord
2
SCHRAFFIERT
70
0
62
7
6
CONTINUOUS
0
LAYER
5
210
100
AcDbSymbolTableRecord
100
AcDbLayerTableRecord
2
VERDECKT
70
0
62
7
6
CONTINUOUS
0
ENDTAB
0
TABLE
2
STYLE
5
211
100
AcDbSymbolTable
70
1
0
STYLE
5
212
100
AcDbSymbolTableRecord
100
AcDbTextStyleTableRecord
2
STANDARD
70
0
40
0.0
41
0.80
50
0.0
71
0
42
0.2
3
txt
4

0
ENDTAB
0
TABLE
2
VIEW
5
213
100
AcDbSymbolTable
70
0
0
ENDTAB
0
TABLE
2
UCS
5
214
100
AcDbSymbolTable
70
0
0
ENDTAB
0
TABLE
2
APPID
5
215
100
AcDbSymbolTable
70
1
0
APPID
5
216
100
AcDbSymbolTableRecord
100
AcDbRegAppTableRecord
2
ACAD
70
0
0
ENDTAB
0
TABLE
2
DIMSTYLE
5
217
100
AcDbSymbolTable
0
DIMSTYLE
105
218
100
AcDbSymbolTableRecord
100
AcDbDimStyleTableRecord
2
STANDARD
70
0
3

4

5

6

7

40
1.0
41
0.18
42
0.0625
43
0.38
44
0.18
45
0.0
46
0.0
47
0.0
48
0.0
140
0.18
141
0.09
142
0.0
143
25.4
144
1.0
145
0.0
146
1.0
147
0.09
71
0
72
0
73
1
74
1
75
0
76
0
77
0
78
0
170
0
171
2
172
0
173
0
174
0
175
0
176
0
177
0
178
0
270
2
271
4
272
4
273
2
274
2
340
212
275
0
280
0
281
0
282
0
283
1
284
0
285
0
286
0
287
3
288
0
0
ENDTAB
0
TABLE
2
BLOCK_RECORD
5
219
100
AcDbSymbolTable
70
0
0
BLOCK_RECORD
5
21A
100
AcDbSymbolTableRecord
100
AcDbBlockTableRecord
2
*MODEL_SPACE
0
BLOCK_RECORD
5
21B
100
AcDbSymbolTableRecord
100
AcDbBlockTableRecord
2
*PAPER_SPACE
0
ENDTAB
0
ENDSEC
0
SECTION
2
BLOCKS
0
BLOCK
5
21C
100
AcDbEntity
8
0
100
AcDbBlockBegin
2
*MODEL_SPACE
70
0
10
0.0000000000
20
0.0000000000
3
*MODEL_SPACE
1

3
*MODEL_SPACE
1

0
ENDBLK
5
21D
100
AcDbEntity
8
0
100
AcDbBlockEnd
0
BLOCK
5
21E
100
AcDbEntity
8
0
100
AcDbBlockBegin
2
*PAPER_SPACE
70
0
10
0.0000000000
20
0.0000000000
3
*PAPER_SPACE
1

3
*PAPER_SPACE
1

0
ENDBLK
5
21F
100
AcDbEntity
8
0
100
AcDbBlockEnd
0
ENDSEC
0
SECTION
2
ENTITIES
0
LINE
5
220
100
AcDbEntity
8
0
100
AcDbLine
62
7
6
CONTINUOUS
10
0.0000000000
20
0.0000000000
11
420.0000000000
21
0.0000000000
0
LINE
5
221
100
AcDbEntity
8
0
100
AcDbLine
62
7
6
CONTINUOUS
10
420.0000000000
20
0.0000000000
11
420.0000000000
21
297.0000000000
0
LINE
5
222
100
AcDbEntity
8
0
100
AcDbLine
62
7
6
CONTINUOUS
10
0.0000000000
20
297.0000000000
11
420.0000000000
21
297.0000000000
0
LINE
5
223
100
AcDbEntity
8
0
100
AcDbLine
62
7
6
CONTINUOUS
10
0.0000000000
20
0.0000000000
11
0.0000000000
21
297.0000000000
0
LINE
5
224
100
AcDbEntity
8
MITTE
100
AcDbLine
62
4
6
CENTER
10
35.4465510000
20
186.3433150000
11
147.2065510000
21
186.3433150000
0
LINE
5
225
100
AcDbEntity
8
MITTE
100
AcDbLine
62
4
6
CENTER
10
91.3265510000
20
242.2233150000
11
91.3265510000
21
130.4633150000
0
LINE
5
226
100
AcDbEntity
8
MITTE
100
AcDbLine
62
4
6
CENTER
10
114.8696970000
20
209.8864610000
11
126.1834050000
21
221.2001690000
0
ARC
5
227
100
AcDbEntity
8
MITTE
100
AcDbCircle
62
4
6
CENTER
10
91.3265510000
20
186.3433150000
40
41.3000000000
100
AcDbArc
50
33.8834510000
51
56.1165490000
0
ARC
5
228
100
AcDbEntity
8
MITTE
100
AcDbCircle
62
4
6
CENTER
10
91.3265510000
20
186.3433150000
40
41.3000000000
100
AcDbArc
50
123.8834510000
51
146.1165490000
0
LINE
5
229
100
AcDbEntity
8
MITTE
100
AcDbLine
62
4
6
CENTER
10
67.7834050000
20
209.8864610000
11
56.4696970000
21
221.2001690000
0
ARC
5
22A
100
AcDbEntity
8
MITTE
100
AcDbCircle
62
4
6
CENTER
10
91.3265510000
20
186.3433150000
40
41.3000000000
100
AcDbArc
50
213.8834510000
51
236.1165490000
0
LINE
5
22B
100
AcDbEntity
8
MITTE
100
AcDbLine
62
4
6
CENTER
10
67.7834050000
20
162.8001690000
11
56.4696970000
21
151.4864610000
0
ARC
5
22C
100
AcDbEntity
8
MITTE
100
AcDbCircle
62
4
6
CENTER
10
91.3265510000
20
186.3433150000
40
41.3000000000
100
AcDbArc
50
303.8834510000
51
326.1165490000
0
LINE
5
22D
100
AcDbEntity
8
MITTE
100
AcDbLine
62
4
6
CENTER
10
114.8696970000
20
162.8001690000
11
126.1834050000
21
151.4864610000
0
LINE
5
22E
100
AcDbEntity
8
MITTE
100
AcDbLine
62
4
6
CENTER
10
316.7483170000
20
162.8001690000
11
305.4346090000
21
151.4864610000
0
ARC
5
22F
100
AcDbEntity
8
MITTE
100
AcDbCircle
62
4
6
CENTER
10
340.2914630000
20
186.3433150000
40
41.3000000000
100
AcDbArc
50
213.8834510000
51
236.1165490000
0
LINE
5
230
100
AcDbEntity
8
MITTE
100
AcDbLine
62
4
6
CENTER
10
363.8346090000
20
162.8001690000
11
375.1483170000
21
151.4864610000
0
ARC
5
231
100
AcDbEntity
8
MITTE
100
AcDbCircle
62
4
6
CENTER
10
340.2914630000
20
186.3433150000
40
41.3000000000
100
AcDbArc
50
303.8834510000
51
326.1165490000
0
LINE
5
232
100
AcDbEntity
8
MITTE
100
AcDbLine
62
4
6
CENTER
10
363.8346090000
20
209.8864610000
11
375.1483170000
21
221.2001690000
0
ARC
5
233
100
AcDbEntity
8
MITTE
100
AcDbCircle
62
4
6
CENTER
10
340.2914630000
20
186.3433150000
40
41.3000000000
100
AcDbArc
50
33.8834510000
51
56.1165490000
0
ARC
5
234
100
AcDbEntity
8
MITTE
100
AcDbCircle
62
4
6
CENTER
10
340.2914630000
20
186.3433150000
40
41.3000000000
100
AcDbArc
50
123.8834510000
51
146.1165490000
0
LINE
5
235
100
AcDbEntity
8
MITTE
100
AcDbLine
62
4
6
CENTER
10
316.7483170000
20
209.8864610000
11
305.4346090000
21
221.2001690000
0
LINE
5
236
100
AcDbEntity
8
MITTE
100
AcDbLine
62
4
6
CENTER
10
114.5265510000
20
157.1433150000
11
114.5265510000
21
99.5920590000
0
LINE
5
237
100
AcDbEntity
8
MITTE
100
AcDbLine
62
4
6
CENTER
10
126.5265510000
20
157.1433150000
11
126.5265510000
21
99.2542270000
0
LINE
5
238
100
AcDbEntity
8
MITTE
100
AcDbLine
62
4
6
CENTER
10
183.6521350000
20
186.3433150000
11
253.2054760000
21
186.3433150000
0
LINE
5
239
100
AcDbEntity
8
MITTE
100
AcDbLine
62
4
6
CENTER
10
284.4114630000
20
186.3433150000
11
396.1714630000
21
186.3433150000
0
LINE
5
23A
100
AcDbEntity
8
MITTE
100
AcDbLine
62
4
6
CENTER
10
340.2914630000
20
130.4633150000
11
340.2914630000
21
242.2233150000
0
LINE
5
23B
100
AcDbEntity
8
MITTE
100
AcDbLine
62
4
6
CENTER
10
116.7300610000
20
157.1398050000
11
116.7300610000
21
95.9774160000
0
LINE
5
23C
100
AcDbEntity
8
MITTE
100
AcDbLine
62
4
6
CENTER
10
124.3300610000
20
157.1398050000
11
124.3230410000
21
95.9774160000
0
CIRCLE
5
23D
100
AcDbEntity
8
05
100
AcDbCircle
62
2
6
CONTINUOUS
10
91.3265510000
20
186.3433150000
40
50.8000000000
0
CIRCLE
5
23E
100
AcDbEntity
8
05
100
AcDbCircle
62
2
6
CONTINUOUS
10
120.5265510000
20
215.5433150000
40
6.0000000000
0
CIRCLE
5
23F
100
AcDbEntity
8
05
100
AcDbCircle
62
2
6
CONTINUOUS
10
62.1265510000
20
215.5433150000
40
6.0000000000
0
CIRCLE
5
240
100
AcDbEntity
8
05
100
AcDbCircle
62
2
6
CONTINUOUS
10
62.1265510000
20
157.1433150000
40
6.0000000000
0
CIRCLE
5
241
100
AcDbEntity
8
05
100
AcDbCircle
62
2
6
CONTINUOUS
10
120.5265510000
20
157.1433150000
40
6.0000000000
0
CIRCLE
5
242
100
AcDbEntity
8
05
100
AcDbCircle
62
2
6
CONTINUOUS
10
91.3265510000
20
186.3433150000
40
23.6000000000
0
ARC
5
243
100
AcDbEntity
8
05
100
AcDbCircle
62
2
6
CONTINUOUS
10
91.3265510000
20
186.3433150000
40
20.0000000000
100
AcDbArc
50
259.0472160000
51
280.9527840000
0
ARC
5
244
100
AcDbEntity
8
05
100
AcDbCircle
62
2
6
CONTINUOUS
10
91.3265510000
20
186.3433150000
40
17.6000000000
100
AcDbArc
50
109.9322700000
51
257.5311330000
0
ARC
5
245
100
AcDbEntity
8
05
100
AcDbCircle
62
2
6
CONTINUOUS
10
91.3265510000
20
186.3433150000
40
17.6000000000
100
AcDbArc
50
282.4688670000
51
70.0677300000
0
LINE
5
246
100
AcDbEntity
8
05
100
AcDbLine
62
2
6
CONTINUOUS
10
87.5265510000
20
169.1584380000
11
87.5265510000
21
166.7076330000
0
LINE
5
247
100
AcDbEntity
8
05
100
AcDbLine
62
2
6
CONTINUOUS
10
95.1265510000
20
169.1584380000
11
95.1265510000
21
166.7076330000
0
LINE
5
248
100
AcDbEntity
8
05
100
AcDbLine
62
2
6
CONTINUOUS
10
88.1265510000
20
180.1175620000
11
88.1265510000
21
181.6263240000
0
LINE
5
249
100
AcDbEntity
8
05
100
AcDbLine
62
2
6
CONTINUOUS
10
94.5265510000
20
191.0603060000
11
94.5265510000
21
192.5690680000
0
LINE
5
24A
100
AcDbEntity
8
05
100
AcDbLine
62
2
6
CONTINUOUS
10
85.2643730000
20
189.8433150000
11
86.3902060000
21
189.1933150000
0
LINE
5
24B
100
AcDbEntity
8
05
100
AcDbLine
62
2
6
CONTINUOUS
10
96.2628960000
20
183.4933150000
11
97.3887290000
21
182.8433150000
0
ARC
5
24C
100
AcDbEntity
8
05
100
AcDbCircle
62
2
6
CONTINUOUS
10
91.3265510000
20
186.3433150000
40
5.7000000000
100
AcDbArc
50
330.0000000000
51
55.8470850000
0
ARC
5
24D
100
AcDbEntity
8
05
100
AcDbCircle
62
2
6
CONTINUOUS
10
91.3265510000
20
186.3433150000
40
7.0000000000
100
AcDbArc
50
62.7971060000
51
150.0000000000
0
ARC
5
24E
100
AcDbEntity
8
05
100
AcDbCircle
62
2
6
CONTINUOUS
10
91.3265510000
20
186.3433150000
40
7.0000000000
100
AcDbArc
50
242.7971060000
51
330.0000000000
0
ARC
5
24F
100
AcDbEntity
8
05
100
AcDbCircle
62
2
6
CONTINUOUS
10
91.3265510000
20
186.3433150000
40
5.7000000000
100
AcDbArc
50
150.0000000000
51
235.8470850000
0
LINE
5
250
100
AcDbEntity
8
05
100
AcDbLine
62
2
6
CONTINUOUS
10
82.6291370000
20
177.6459020000
11
83.1948230000
21
178.2115870000
0
LINE
5
251
100
AcDbEntity
8
05
100
AcDbLine
62
2
6
CONTINUOUS
10
79.3265510000
20
191.3433150000
11
80.9703930000
21
191.3433150000
0
LINE
5
252
100
AcDbEntity
8
05
100
AcDbLine
62
2
6
CONTINUOUS
10
101.6827080000
20
181.3433150000
11
103.3265510000
21
181.3433150000
0
ARC
5
253
100
AcDbEntity
8
05
100
AcDbCircle
62
2
6
CONTINUOUS
10
91.3265510000
20
186.3433150000
40
11.5000000000
100
AcDbArc
50
154.2285380000
51
225.0000000000
0
ARC
5
254
100
AcDbEntity
8
05
100
AcDbCircle
62
2
6
CONTINUOUS
10
91.3265510000
20
186.3433150000
40
11.5000000000
100
AcDbArc
50
334.2285380000
51
45.0000000000
0
ARC
5
255
100
AcDbEntity
8
05
100
AcDbCircle
62
2
6
CONTINUOUS
10
91.3265510000
20
186.3433150000
40
12.3000000000
100
AcDbArc
50
23.9854140000
51
156.0145860000
0
ARC
5
256
100
AcDbEntity
8
05
100
AcDbCircle
62
2
6
CONTINUOUS
10
91.3265510000
20
186.3433150000
40
12.3000000000
100
AcDbArc
50
203.9854140000
51
336.0145860000
0
LINE
5
257
100
AcDbEntity
8
05
100
AcDbLine
62
2
6
CONTINUOUS
10
99.4582790000
20
194.4750430000
11
100.0239640000
21
195.0407280000
0
LINE
5
258
100
AcDbEntity
8
05
100
AcDbLine
62
2
6
CONTINUOUS
10
86.3616740000
20
189.1433150000
11
96.2914280000
21
189.1433150000
0
LINE
5
259
100
AcDbEntity
8
05
100
AcDbLine
62
2
6
CONTINUOUS
10
86.3616740000
20
183.5433150000
11
96.2914280000
21
183.5433150000
0
LINE
5
25A
100
AcDbEntity
8
05
100
AcDbLine
62
2
6
CONTINUOUS
10
79.3265510000
20
181.3433150000
11
80.9703930000
21
181.3433150000
0
LINE
5
25B
100
AcDbEntity
8
05
100
AcDbLine
62
2
6
CONTINUOUS
10
101.6827080000
20
191.3433150000
11
103.3265510000
21
191.3433150000
0
ARC
5
25C
100
AcDbEntity
8
05
100
AcDbCircle
62
2
6
CONTINUOUS
10
91.3265510000
20
186.3433150000
40
13.0000000000
100
AcDbArc
50
4.7021560000
51
174.0708260000
0
ARC
5
25D
100
AcDbEntity
8
05
100
AcDbCircle
62
2
6
CONTINUOUS
10
91.3265510000
20
186.3433150000
40
13.0000000000
100
AcDbArc
50
184.7021560000
51
354.0708260000
0
CIRCLE
5
25E
100
AcDbEntity
8
05
100
AcDbCircle
62
2
6
CONTINUOUS
10
132.3870560000
20
186.5777120000
40
5.0000000000
0
CIRCLE
5
25F
100
AcDbEntity
8
05
100
AcDbCircle
62
2
6
CONTINUOUS
10
50.2660460000
20
186.5777120000
40
5.0000000000
0
LINE
5
260
100
AcDbEntity
8
05
100
AcDbLine
62
2
6
CONTINUOUS
10
237.5121350000
20
237.1433150000
11
237.5121350000
21
135.5433150000
0
LINE
5
261
100
AcDbEntity
8
05
100
AcDbLine
62
2
6
CONTINUOUS
10
246.5121350000
20
236.3433150000
11
246.5121350000
21
136.3433150000
0
LINE
5
262
100
AcDbEntity
8
05
100
AcDbLine
62
2
6
CONTINUOUS
10
237.5121350000
20
237.1433150000
11
245.7121350000
21
237.1433150000
0
LINE
5
263
100
AcDbEntity
8
05
100
AcDbLine
62
2
6
CONTINUOUS
10
237.5121350000
20
135.5433150000
11
245.7121350000
21
135.5433150000
0
ARC
5
264
100
AcDbEntity
8
05
100
AcDbCircle
62
2
6
CONTINUOUS
10
245.7121350000
20
136.3433150000
40
0.8000000000
100
AcDbArc
50
270.0000000000
51
360.0000000000
0
ARC
5
265
100
AcDbEntity
8
05
100
AcDbCircle
62
2
6
CONTINUOUS
10
245.7121350000
20
236.3433150000
40
0.8000000000
100
AcDbArc
50
0.0000000000
51
90.0000000000
0
CIRCLE
5
266
100
AcDbEntity
8
05
100
AcDbCircle
62
2
6
CONTINUOUS
10
311.0879530000
20
157.1398050000
40
3.5000000000
0
CIRCLE
5
267
100
AcDbEntity
8
05
100
AcDbCircle
62
2
6
CONTINUOUS
10
369.4949730000
20
157.1398050000
40
3.5000000000
0
CIRCLE
5
268
100
AcDbEntity
8
05
100
AcDbCircle
62
2
6
CONTINUOUS
10
369.4949730000
20
215.5468250000
40
3.5000000000
0
CIRCLE
5
269
100
AcDbEntity
8
05
100
AcDbCircle
62
2
6
CONTINUOUS
10
311.0879530000
20
215.5468250000
40
3.5000000000
0
CIRCLE
5
26A
100
AcDbEntity
8
05
100
AcDbCircle
62
2
6
CONTINUOUS
10
340.2914630000
20
186.3433150000
40
50.8000000000
0
LINE
5
26B
100
AcDbEntity
8
05
100
AcDbLine
62
2
6
CONTINUOUS
10
126.5265510000
20
98.5809260000
11
114.5265510000
21
98.5809260000
0
LINE
5
26C
100
AcDbEntity
8
05
100
AcDbLine
62
2
6
CONTINUOUS
10
126.5265510000
20
98.1809260000
11
114.5265510000
21
98.1809260000
0
LINE
5
26D
100
AcDbEntity
8
05
100
AcDbLine
62
2
6
CONTINUOUS
10
124.3300610000
20
89.5809260000
11
116.7300610000
21
89.5809260000
0
LINE
5
26E
100
AcDbEntity
8
05
100
AcDbLine
62
2
6
CONTINUOUS
10
114.5265510000
20
98.1809260000
11
116.7300610000
21
95.9774160000
0
LINE
5
26F
100
AcDbEntity
8
05
100
AcDbLine
62
2
6
CONTINUOUS
10
126.5265510000
20
98.1809260000
11
124.3230410000
21
95.9774160000
0
LINE
5
270
100
AcDbEntity
8
05
100
AcDbLine
62
2
6
CONTINUOUS
10
114.5265510000
20
98.1809260000
11
114.5265510000
21
98.5809260000
0
LINE
5
271
100
AcDbEntity
8
05
100
AcDbLine
62
2
6
CONTINUOUS
10
126.5265510000
20
98.1809260000
11
126.5265510000
21
98.5809260000
0
LINE
5
272
100
AcDbEntity
8
05
100
AcDbLine
62
2
6
CONTINUOUS
10
251.5121350000
20
209.5433150000
11
251.5121350000
21
163.1433150000
0
LINE
5
273
100
AcDbEntity
8
05
100
AcDbLine
62
2
6
CONTINUOUS
10
199.1121350000
20
209.9433150000
11
237.5121350000
21
209.9433150000
0
LINE
5
274
100
AcDbEntity
8
05
100
AcDbLine
62
2
6
CONTINUOUS
10
199.1121350000
20
162.7433150000
11
237.5121350000
21
162.7433150000
0
LINE
5
275
100
AcDbEntity
8
05
100
AcDbLine
62
2
6
CONTINUOUS
10
246.5121350000
20
209.9433150000
11
251.1121350000
21
209.9433150000
0
LINE
5
276
100
AcDbEntity
8
05
100
AcDbLine
62
2
6
CONTINUOUS
10
246.5121350000
20
162.7433150000
11
251.1121350000
21
162.7433150000
0
ARC
5
277
100
AcDbEntity
8
05
100
AcDbCircle
62
2
6
CONTINUOUS
10
251.1121350000
20
209.5433150000
40
0.4000000000
100
AcDbArc
50
0.0000000000
51
90.0000000000
0
ARC
5
278
100
AcDbEntity
8
05
100
AcDbCircle
62
2
6
CONTINUOUS
10
251.1121350000
20
163.1433150000
40
0.4000000000
100
AcDbArc
50
270.0000000000
51
360.0000000000
0
CIRCLE
5
279
100
AcDbEntity
8
05
100
AcDbCircle
62
2
6
CONTINUOUS
10
340.2914630000
20
186.3433150000
40
23.6000000000
0
LINE
5
27A
100
AcDbEntity
8
05
100
AcDbLine
62
2
6
CONTINUOUS
10
322.7914630000
20
178.7433150000
11
320.6077130000
21
178.7433150000
0
LINE
5
27B
100
AcDbEntity
8
05
100
AcDbLine
62
2
6
CONTINUOUS
10
323.2914630000
20
180.9433150000
11
323.2914630000
21
178.8433150000
0
LINE
5
27C
100
AcDbEntity
8
05
100
AcDbLine
62
2
6
CONTINUOUS
10
319.8941590000
20
180.9433150000
11
323.2914630000
21
180.9433150000
0
ARC
5
27D
100
AcDbEntity
8
05
100
AcDbCircle
62
2
6
CONTINUOUS
10
340.2914630000
20
186.3433150000
40
21.1000000000
100
AcDbArc
50
201.1118390000
51
194.8283530000
0
LINE
5
27E
100
AcDbEntity
8
05
100
AcDbLine
62
2
6
CONTINUOUS
10
322.7914630000
20
177.2433150000
11
322.7914630000
21
178.8433150000
0
LINE
5
27F
100
AcDbEntity
8
05
100
AcDbLine
62
2
6
CONTINUOUS
10
322.7914630000
20
178.8433150000
11
322.7914630000
21
178.5433150000
0
LINE
5
280
100
AcDbEntity
8
05
100
AcDbLine
62
2
6
CONTINUOUS
10
333.7914630000
20
168.8433150000
11
332.1914630000
21
168.8433150000
0
LINE
5
281
100
AcDbEntity
8
05
100
AcDbLine
62
2
6
CONTINUOUS
10
357.7914630000
20
178.8433150000
11
357.7914630000
21
177.2433150000
0
LINE
5
282
100
AcDbEntity
8
05
100
AcDbLine
62
2
6
CONTINUOUS
10
333.7914630000
20
203.8433150000
11
332.1914630000
21
203.8433150000
0
LINE
5
283
100
AcDbEntity
8
05
100
AcDbLine
62
2
6
CONTINUOUS
10
348.3914630000
20
168.8433150000
11
346.7914630000
21
168.8433150000
0
LINE
5
284
100
AcDbEntity
8
05
100
AcDbLine
62
2
6
CONTINUOUS
10
348.3914630000
20
203.8433150000
11
346.7914630000
21
203.8433150000
0
LINE
5
285
100
AcDbEntity
8
05
100
AcDbLine
62
2
6
CONTINUOUS
10
322.7914630000
20
195.4433150000
11
322.7914630000
21
193.8433150000
0
LINE
5
286
100
AcDbEntity
8
05
100
AcDbLine
62
2
6
CONTINUOUS
10
357.7914630000
20
195.4433150000
11
357.7914630000
21
193.8433150000
0
LINE
5
287
100
AcDbEntity
8
05
100
AcDbLine
62
2
6
CONTINUOUS
10
332.1914630000
20
177.2433150000
11
332.1914630000
21
168.8433150000
0
LINE
5
288
100
AcDbEntity
8
05
100
AcDbLine
62
2
6
CONTINUOUS
10
332.1914630000
20
177.2433150000
11
322.7914630000
21
177.2433150000
0
LINE
5
289
100
AcDbEntity
8
05
100
AcDbLine
62
2
6
CONTINUOUS
10
332.1914630000
20
178.8433150000
11
322.7914630000
21
178.8433150000
0
LINE
5
28A
100
AcDbEntity
8
05
100
AcDbLine
62
2
6
CONTINUOUS
10
332.1914630000
20
193.8433150000
11
332.1914630000
21
178.8433150000
0
LINE
5
28B
100
AcDbEntity
8
05
100
AcDbLine
62
2
6
CONTINUOUS
10
332.1914630000
20
193.8433150000
11
322.7914630000
21
193.8433150000
0
LINE
5
28C
100
AcDbEntity
8
05
100
AcDbLine
62
2
6
CONTINUOUS
10
332.1914630000
20
195.4433150000
11
322.7914630000
21
195.4433150000
0
LINE
5
28D
100
AcDbEntity
8
05
100
AcDbLine
62
2
6
CONTINUOUS
10
332.1914630000
20
203.8433150000
11
332.1914630000
21
195.4433150000
0
LINE
5
28E
100
AcDbEntity
8
05
100
AcDbLine
62
2
6
CONTINUOUS
10
348.3914630000
20
177.2433150000
11
348.3914630000
21
168.8433150000
0
LINE
5
28F
100
AcDbEntity
8
05
100
AcDbLine
62
2
6
CONTINUOUS
10
348.3914630000
20
193.8433150000
11
348.3914630000
21
178.8433150000
0
LINE
5
290
100
AcDbEntity
8
05
100
AcDbLine
62
2
6
CONTINUOUS
10
348.3914630000
20
195.4433150000
11
357.7914630000
21
195.4433150000
0
LINE
5
291
100
AcDbEntity
8
05
100
AcDbLine
62
2
6
CONTINUOUS
10
348.3914630000
20
177.2433150000
11
357.7914630000
21
177.2433150000
0
LINE
5
292
100
AcDbEntity
8
05
100
AcDbLine
62
2
6
CONTINUOUS
10
348.3914630000
20
178.8433150000
11
357.7914630000
21
178.8433150000
0
LINE
5
293
100
AcDbEntity
8
05
100
AcDbLine
62
2
6
CONTINUOUS
10
348.3914630000
20
193.8433150000
11
357.7914630000
21
193.8433150000
0
LINE
5
294
100
AcDbEntity
8
05
100
AcDbLine
62
2
6
CONTINUOUS
10
346.7914630000
20
185.3433150000
11
346.7914630000
21
168.8433150000
0
LINE
5
295
100
AcDbEntity
8
05
100
AcDbLine
62
2
6
CONTINUOUS
10
333.7914630000
20
185.3433150000
11
333.7914630000
21
168.8433150000
0
LINE
5
296
100
AcDbEntity
8
05
100
AcDbLine
62
2
6
CONTINUOUS
10
348.3914630000
20
203.8433150000
11
348.3914630000
21
195.4433150000
0
LINE
5
297
100
AcDbEntity
8
05
100
AcDbLine
62
2
6
CONTINUOUS
10
346.7914630000
20
203.8433150000
11
346.7914630000
21
187.3433150000
0
LINE
5
298
100
AcDbEntity
8
05
100
AcDbLine
62
2
6
CONTINUOUS
10
333.7914630000
20
203.8433150000
11
333.7914630000
21
187.3433150000
0
LINE
5
299
100
AcDbEntity
8
05
100
AcDbLine
62
2
6
CONTINUOUS
10
333.7914630000
20
185.3433150000
11
346.7914630000
21
185.3433150000
0
LINE
5
29A
100
AcDbEntity
8
05
100
AcDbLine
62
2
6
CONTINUOUS
10
333.7914630000
20
187.3433150000
11
346.7914630000
21
187.3433150000
0
LINE
5
29B
100
AcDbEntity
8
05
100
AcDbLine
62
2
6
CONTINUOUS
10
199.1121350000
20
203.8433150000
11
195.1121350000
21
203.8433150000
0
LINE
5
29C
100
AcDbEntity
8
05
100
AcDbLine
62
2
6
CONTINUOUS
10
199.1121350000
20
195.4433150000
11
195.1121350000
21
195.4433150000
0
LINE
5
29D
100
AcDbEntity
8
05
100
AcDbLine
62
2
6
CONTINUOUS
10
199.1121350000
20
193.8433150000
11
195.1121350000
21
193.8433150000
0
LINE
5
29E
100
AcDbEntity
8
05
100
AcDbLine
62
2
6
CONTINUOUS
10
199.1121350000
20
178.8433150000
11
195.1121350000
21
178.8433150000
0
LINE
5
29F
100
AcDbEntity
8
05
100
AcDbLine
62
2
6
CONTINUOUS
10
199.1121350000
20
177.2433150000
11
195.1121350000
21
177.2433150000
0
LINE
5
2A0
100
AcDbEntity
8
05
100
AcDbLine
62
2
6
CONTINUOUS
10
199.1121350000
20
168.8433150000
11
195.1121350000
21
168.8433150000
0
LINE
5
2A1
100
AcDbEntity
8
05
100
AcDbLine
62
2
6
CONTINUOUS
10
199.1121350000
20
209.9433150000
11
199.1121350000
21
162.7433150000
0
LINE
5
2A2
100
AcDbEntity
8
05
100
AcDbLine
62
2
6
CONTINUOUS
10
195.1121350000
20
203.8433150000
11
195.1121350000
21
191.1433150000
0
LINE
5
2A3
100
AcDbEntity
8
05
100
AcDbLine
62
2
6
CONTINUOUS
10
195.1121350000
20
181.5433150000
11
195.1121350000
21
168.8433150000
0
ARC
5
2A4
100
AcDbEntity
8
05
100
AcDbCircle
62
2
6
CONTINUOUS
10
340.2914630000
20
186.3433150000
40
30.0000000000
100
AcDbArc
50
123.8225540000
51
176.1774460000
0
LINE
5
2A5
100
AcDbEntity
8
05
100
AcDbLine
62
2
6
CONTINUOUS
10
310.3582040000
20
188.3433150000
11
316.7763610000
21
188.3433150000
0
LINE
5
2A6
100
AcDbEntity
8
05
100
AcDbLine
62
2
6
CONTINUOUS
10
310.3582040000
20
184.3433150000
11
316.7763610000
21
184.3433150000
0
LINE
5
2A7
100
AcDbEntity
8
05
100
AcDbLine
62
2
6
CONTINUOUS
10
350.3169630000
20
207.7079900000
11
353.5260420000
21
213.2662780000
0
LINE
5
2A8
100
AcDbEntity
8
05
100
AcDbLine
62
2
6
CONTINUOUS
10
353.7810650000
20
205.7079900000
11
356.9901430000
21
211.2662780000
0
LINE
5
2A9
100
AcDbEntity
8
05
100
AcDbLine
62
2
6
CONTINUOUS
10
326.8018610000
20
205.7079900000
11
323.5927830000
21
211.2662780000
0
LINE
5
2AA
100
AcDbEntity
8
05
100
AcDbLine
62
2
6
CONTINUOUS
10
330.2659630000
20
207.7079900000
11
327.0568840000
21
213.2662780000
0
LINE
5
2AB
100
AcDbEntity
8
05
100
AcDbLine
62
2
6
CONTINUOUS
10
370.2247220000
20
188.3433150000
11
363.8065640000
21
188.3433150000
0
LINE
5
2AC
100
AcDbEntity
8
05
100
AcDbLine
62
2
6
CONTINUOUS
10
370.2247220000
20
184.3433150000
11
363.8065640000
21
184.3433150000
0
LINE
5
2AD
100
AcDbEntity
8
05
100
AcDbLine
62
2
6
CONTINUOUS
10
330.2659630000
20
164.9786400000
11
327.0568840000
21
159.4203520000
0
LINE
5
2AE
100
AcDbEntity
8
05
100
AcDbLine
62
2
6
CONTINUOUS
10
326.8018610000
20
166.9786400000
11
323.5927830000
21
161.4203520000
0
LINE
5
2AF
100
AcDbEntity
8
05
100
AcDbLine
62
2
6
CONTINUOUS
10
353.7810650000
20
166.9786400000
11
356.9901430000
21
161.4203520000
0
LINE
5
2B0
100
AcDbEntity
8
05
100
AcDbLine
62
2
6
CONTINUOUS
10
350.3169630000
20
164.9786400000
11
353.5260420000
21
159.4203520000
0
ARC
5
2B1
100
AcDbEntity
8
05
100
AcDbCircle
62
2
6
CONTINUOUS
10
340.2914630000
20
186.3433150000
40
30.0000000000
100
AcDbArc
50
183.8225540000
51
236.1774460000
0
ARC
5
2B2
100
AcDbEntity
8
05
100
AcDbCircle
62
2
6
CONTINUOUS
10
340.2914630000
20
186.3433150000
40
30.0000000000
100
AcDbArc
50
303.8225540000
51
356.1774460000
0
ARC
5
2B3
100
AcDbEntity
8
05
100
AcDbCircle
62
2
6
CONTINUOUS
10
340.2914630000
20
186.3433150000
40
30.0000000000
100
AcDbArc
50
3.8225540000
51
56.1774460000
0
ARC
5
2B4
100
AcDbEntity
8
05
100
AcDbCircle
62
2
6
CONTINUOUS
10
340.2914630000
20
186.3433150000
40
30.0000000000
100
AcDbArc
50
63.8225540000
51
116.1774460000
0
ARC
5
2B5
100
AcDbEntity
8
05
100
AcDbCircle
62
2
6
CONTINUOUS
10
340.2914630000
20
186.3433150000
40
30.0000000000
100
AcDbArc
50
243.8225540000
51
296.1774460000
0
CIRCLE
5
2B6
100
AcDbEntity
8
05
100
AcDbCircle
62
2
6
CONTINUOUS
10
62.1265510000
20
157.1433150000
40
3.8000000000
0
CIRCLE
5
2B7
100
AcDbEntity
8
05
100
AcDbCircle
62
2
6
CONTINUOUS
10
62.1230410000
20
215.5468250000
40
3.8000000000
0
CIRCLE
5
2B8
100
AcDbEntity
8
05
100
AcDbCircle
62
2
6
CONTINUOUS
10
120.5300610000
20
215.5468250000
40
3.8000000000
0
CIRCLE
5
2B9
100
AcDbEntity
8
05
100
AcDbCircle
62
2
6
CONTINUOUS
10
120.5300610000
20
157.1398050000
40
3.8000000000
0
LINE
5
2BA
100
AcDbEntity
8
05
100
AcDbLine
62
2
6
CONTINUOUS
10
116.7300610000
20
95.9774160000
11
116.7300610000
21
89.5809260000
0
LINE
5
2BB
100
AcDbEntity
8
05
100
AcDbLine
62
2
6
CONTINUOUS
10
124.3300610000
20
95.9774160000
11
124.3300610000
21
89.5809260000
0
LINE
5
2BC
100
AcDbEntity
8
05
100
AcDbLine
62
2
6
CONTINUOUS
10
116.7300610000
20
95.9774160000
11
124.3230410000
21
95.9774160000
0
LINE
5
2BD
100
AcDbEntity
8
05
100
AcDbLine
62
2
6
CONTINUOUS
10
342.2914630000
20
192.4433150000
11
338.2914630000
21
192.4433150000
0
LINE
5
2BE
100
AcDbEntity
8
05
100
AcDbLine
62
2
6
CONTINUOUS
10
342.2914630000
20
192.2433150000
11
338.2914630000
21
192.2433150000
0
LINE
5
2BF
100
AcDbEntity
8
05
100
AcDbLine
62
2
6
CONTINUOUS
10
342.2914630000
20
191.0433150000
11
342.2914630000
21
192.4433150000
0
LINE
5
2C0
100
AcDbEntity
8
05
100
AcDbLine
62
2
6
CONTINUOUS
10
338.2914630000
20
191.0433150000
11
342.2914630000
21
191.0433150000
0
LINE
5
2C1
100
AcDbEntity
8
05
100
AcDbLine
62
2
6
CONTINUOUS
10
338.2914630000
20
192.4433150000
11
338.2914630000
21
191.0433150000
0
LINE
5
2C2
100
AcDbEntity
8
05
100
AcDbLine
62
2
6
CONTINUOUS
10
330.0914630000
20
188.3433150000
11
330.0914630000
21
184.3433150000
0
LINE
5
2C3
100
AcDbEntity
8
05
100
AcDbLine
62
2
6
CONTINUOUS
10
330.2914630000
20
188.3433150000
11
330.2914630000
21
184.3433150000
0
LINE
5
2C4
100
AcDbEntity
8
05
100
AcDbLine
62
2
6
CONTINUOUS
10
331.4914630000
20
188.3433150000
11
331.4914630000
21
184.3433150000
0
LINE
5
2C5
100
AcDbEntity
8
05
100
AcDbLine
62
2
6
CONTINUOUS
10
331.4914630000
20
188.3433150000
11
330.0914630000
21
188.3433150000
0
LINE
5
2C6
100
AcDbEntity
8
05
100
AcDbLine
62
2
6
CONTINUOUS
10
331.4914630000
20
184.3433150000
11
330.0914630000
21
184.3433150000
0
LINE
5
2C7
100
AcDbEntity
8
05
100
AcDbLine
62
2
6
CONTINUOUS
10
350.4914630000
20
188.3433150000
11
350.4914630000
21
184.3433150000
0
LINE
5
2C8
100
AcDbEntity
8
05
100
AcDbLine
62
2
6
CONTINUOUS
10
349.0914630000
20
184.3433150000
11
350.4914630000
21
184.3433150000
0
LINE
5
2C9
100
AcDbEntity
8
05
100
AcDbLine
62
2
6
CONTINUOUS
10
349.0914630000
20
188.3433150000
11
350.4914630000
21
188.3433150000
0
LINE
5
2CA
100
AcDbEntity
8
05
100
AcDbLine
62
2
6
CONTINUOUS
10
349.0914630000
20
188.3433150000
11
349.0914630000
21
184.3433150000
0
LINE
5
2CB
100
AcDbEntity
8
05
100
AcDbLine
62
2
6
CONTINUOUS
10
350.2914630000
20
188.3433150000
11
350.2914630000
21
184.3433150000
0
LINE
5
2CC
100
AcDbEntity
8
05
100
AcDbLine
62
2
6
CONTINUOUS
10
342.2914630000
20
180.2433150000
11
338.2914630000
21
180.2433150000
0
LINE
5
2CD
100
AcDbEntity
8
05
100
AcDbLine
62
2
6
CONTINUOUS
10
338.2914630000
20
180.2433150000
11
338.2914630000
21
181.6433150000
0
LINE
5
2CE
100
AcDbEntity
8
05
100
AcDbLine
62
2
6
CONTINUOUS
10
338.2914630000
20
181.6433150000
11
342.2914630000
21
181.6433150000
0
LINE
5
2CF
100
AcDbEntity
8
05
100
AcDbLine
62
2
6
CONTINUOUS
10
342.2914630000
20
181.6433150000
11
342.2914630000
21
180.2433150000
0
LINE
5
2D0
100
AcDbEntity
8
05
100
AcDbLine
62
2
6
CONTINUOUS
10
342.2914630000
20
180.4433150000
11
338.2914630000
21
180.4433150000
0
LINE
5
2D1
100
AcDbEntity
8
RAHMEN
100
AcDbLine
62
2
6
CONTINUOUS
10
10.0000000000
20
10.0000000000
11
410.0000000000
21
10.0000000000
0
LINE
5
2D2
100
AcDbEntity
8
RAHMEN
100
AcDbLine
62
2
6
CONTINUOUS
10
410.0000000000
20
10.0000000000
11
410.0000000000
21
287.0000000000
0
LINE
5
2D3
100
AcDbEntity
8
RAHMEN
100
AcDbLine
62
2
6
CONTINUOUS
10
410.0000000000
20
287.0000000000
11
10.0000000000
21
287.0000000000
0
LINE
5
2D4
100
AcDbEntity
8
RAHMEN
100
AcDbLine
62
2
6
CONTINUOUS
10
10.0000000000
20
287.0000000000
11
10.0000000000
21
10.0000000000
0
LINE
5
2D5
100
AcDbEntity
8
05
100
AcDbLine
62
2
6
CONTINUOUS
10
359.0000000000
20
10.0000000000
11
359.0000000000
21
56.0000000000
0
LINE
5
2D6
100
AcDbEntity
8
05
100
AcDbLine
62
2
6
CONTINUOUS
10
393.0000000000
20
19.0000000000
11
393.0000000000
21
56.0000000000
0
LINE
5
2D7
100
AcDbEntity
8
05
100
AcDbLine
62
2
6
CONTINUOUS
10
378.0000000000
20
36.0000000000
11
378.0000000000
21
56.0000000000
0
LINE
5
2D8
100
AcDbEntity
8
05
100
AcDbLine
62
2
6
CONTINUOUS
10
277.0000000000
20
51.0000000000
11
318.0000000000
21
51.0000000000
0
LINE
5
2D9
100
AcDbEntity
8
05
100
AcDbLine
62
2
6
CONTINUOUS
10
265.0000000000
20
10.0000000000
11
265.0000000000
21
56.0000000000
0
LINE
5
2DA
100
AcDbEntity
8
05
100
AcDbLine
62
2
6
CONTINUOUS
10
252.0000000000
20
10.0000000000
11
252.0000000000
21
56.0000000000
0
LINE
5
2DB
100
AcDbEntity
8
05
100
AcDbLine
62
2
6
CONTINUOUS
10
210.0000000000
20
16.0000000000
11
277.0000000000
21
16.0000000000
0
LINE
5
2DC
100
AcDbEntity
8
05
100
AcDbLine
62
2
6
CONTINUOUS
10
277.0000000000
20
43.0000000000
11
318.0000000000
21
43.0000000000
0
LINE
5
2DD
100
AcDbEntity
8
05
100
AcDbLine
62
2
6
CONTINUOUS
10
219.0000000000
20
10.0000000000
11
219.0000000000
21
56.0000000000
0
LINE
5
2DE
100
AcDbEntity
8
05
100
AcDbLine
62
2
6
CONTINUOUS
10
277.0000000000
20
10.0000000000
11
277.0000000000
21
56.0000000000
0
LINE
5
2DF
100
AcDbEntity
8
05
100
AcDbLine
62
2
6
CONTINUOUS
10
318.0000000000
20
36.0000000000
11
318.0000000000
21
56.0000000000
0
LINE
5
2E0
100
AcDbEntity
8
05
100
AcDbLine
62
2
6
CONTINUOUS
10
341.0000000000
20
36.0000000000
11
341.0000000000
21
56.0000000000
0
LINE
5
2E1
100
AcDbEntity
8
05
100
AcDbLine
62
2
6
CONTINUOUS
10
410.0000000000
20
10.0000000000
11
410.0000000000
21
56.0000000000
0
LINE
5
2E2
100
AcDbEntity
8
05
100
AcDbLine
62
2
6
CONTINUOUS
10
210.0000000000
20
56.0000000000
11
210.0000000000
21
10.0000000000
0
LINE
5
2E3
100
AcDbEntity
8
05
100
AcDbLine
62
2
6
CONTINUOUS
10
410.0000000000
20
19.0000000000
11
277.0000000000
21
19.0000000000
0
LINE
5
2E4
100
AcDbEntity
8
05
100
AcDbLine
62
2
6
CONTINUOUS
10
410.0000000000
20
28.0000000000
11
359.0000000000
21
28.0000000000
0
LINE
5
2E5
100
AcDbEntity
8
05
100
AcDbLine
62
2
6
CONTINUOUS
10
410.0000000000
20
36.0000000000
11
277.0000000000
21
36.0000000000
0
LINE
5
2E6
100
AcDbEntity
8
05
100
AcDbLine
62
2
6
CONTINUOUS
10
410.0000000000
20
41.0000000000
11
359.0000000000
21
41.0000000000
0
LINE
5
2E7
100
AcDbEntity
8
05
100
AcDbLine
62
2
6
CONTINUOUS
10
410.0000000000
20
46.0000000000
11
359.0000000000
21
46.0000000000
0
LINE
5
2E8
100
AcDbEntity
8
05
100
AcDbLine
62
2
6
CONTINUOUS
10
410.0000000000
20
51.0000000000
11
359.0000000000
21
51.0000000000
0
LINE
5
2E9
100
AcDbEntity
8
05
100
AcDbLine
62
2
6
CONTINUOUS
10
410.0000000000
20
56.0000000000
11
210.0000000000
21
56.0000000000
0
LINE
5
2EA
100
AcDbEntity
8
05
100
AcDbLine
62
2
6
CONTINUOUS
10
109.3265510000
20
151.3433150000
11
73.3265510000
21
151.3433150000
0
LINE
5
2EB
100
AcDbEntity
8
05
100
AcDbLine
62
2
6
CONTINUOUS
10
109.3265510000
20
145.3433150000
11
73.3265510000
21
145.3433150000
0
LINE
5
2EC
100
AcDbEntity
8
05
100
AcDbLine
62
2
6
CONTINUOUS
10
72.3265510000
20
150.3433150000
11
72.3265510000
21
146.3433150000
0
ARC
5
2ED
100
AcDbEntity
8
05
100
AcDbCircle
62
2
6
CONTINUOUS
10
73.3265510000
20
146.3433150000
40
1.0000000000
100
AcDbArc
50
180.0000000000
51
270.0000000000
0
ARC
5
2EE
100
AcDbEntity
8
05
100
AcDbCircle
62
2
6
CONTINUOUS
10
73.3265510000
20
150.3433150000
40
1.0000000000
100
AcDbArc
50
90.0000000000
51
180.0000000000
0
LINE
5
2EF
100
AcDbEntity
8
05
100
AcDbLine
62
2
6
CONTINUOUS
10
110.3265510000
20
150.3433150000
11
110.3265510000
21
146.3433150000
0
ARC
5
2F0
100
AcDbEntity
8
05
100
AcDbCircle
62
2
6
CONTINUOUS
10
109.3265510000
20
146.3433150000
40
1.0000000000
100
AcDbArc
50
270.0000000000
51
360.0000000000
0
ARC
5
2F1
100
AcDbEntity
8
05
100
AcDbCircle
62
2
6
CONTINUOUS
10
109.3265510000
20
150.3433150000
40
1.0000000000
100
AcDbArc
50
0.0000000000
51
90.0000000000
0
ARC
5
2F2
100
AcDbEntity
8
05
100
AcDbCircle
62
2
6
CONTINUOUS
10
91.3265510000
20
186.2369820000
40
17.9000000000
100
AcDbArc
50
73.1028960000
51
106.8971040000
0
ARC
5
2F3
100
AcDbEntity
8
05
100
AcDbCircle
62
2
6
CONTINUOUS
10
91.3265510000
20
186.2369820000
40
20.0000000000
100
AcDbArc
50
75.5975700000
51
104.4024300000
0
LINE
5
2F4
100
AcDbEntity
8
05
100
AcDbLine
62
2
6
CONTINUOUS
10
85.3265510000
20
202.8890090000
11
85.3265510000
21
203.1559070000
0
LINE
5
2F5
100
AcDbEntity
8
05
100
AcDbLine
62
2
6
CONTINUOUS
10
86.1265510000
20
203.1559070000
11
85.3265510000
21
203.1559070000
0
ARC
5
2F6
100
AcDbEntity
8
05
100
AcDbCircle
62
2
6
CONTINUOUS
10
86.4265510000
20
205.3178630000
40
0.3000000000
100
AcDbArc
50
104.4024300000
51
180.0000000000
0
LINE
5
2F7
100
AcDbEntity
8
05
100
AcDbLine
62
2
6
CONTINUOUS
10
86.1265510000
20
203.1559070000
11
86.1265510000
21
205.3178630000
0
LINE
5
2F8
100
AcDbEntity
8
05
100
AcDbLine
62
2
6
CONTINUOUS
10
96.5265510000
20
203.1559070000
11
97.3265510000
21
203.1559070000
0
ARC
5
2F9
100
AcDbEntity
8
05
100
AcDbCircle
62
2
6
CONTINUOUS
10
96.2265510000
20
205.3178630000
40
0.3000000000
100
AcDbArc
50
0.0000000000
51
75.5975700000
0
LINE
5
2FA
100
AcDbEntity
8
05
100
AcDbLine
62
2
6
CONTINUOUS
10
96.5265510000
20
205.3178630000
11
96.5265510000
21
203.1559070000
0
LINE
5
2FB
100
AcDbEntity
8
05
100
AcDbLine
62
2
6
CONTINUOUS
10
97.3265510000
20
202.8890090000
11
97.3265510000
21
203.1559070000
0
LINE
5
2FC
100
AcDbEntity
8
VERDECKT
100
AcDbLine
62
8
6
HIDDEN
10
323.2914630000
20
178.8433150000
11
323.2914630000
21
178.7433150000
0
LINE
5
2FD
100
AcDbEntity
8
VERDECKT
100
AcDbLine
62
8
6
HIDDEN
10
323.2914630000
20
178.7433150000
11
322.7914630000
21
178.7433150000
0
LINE
5
2FE
100
AcDbEntity
8
0
100
AcDbLine
62
7
6
CONTINUOUS
10
0.0000000000
20
0.0000000000
11
420.0000000000
21
0.0000000000
0
LINE
5
2FF
100
AcDbEntity
8
0
100
AcDbLine
62
7
6
CONTINUOUS
10
420.0000000000
20
0.0000000000
11
420.0000000000
21
297.0000000000
0
LINE
5
300
100
AcDbEntity
8
0
100
AcDbLine
62
7
6
CONTINUOUS
10
0.0000000000
20
297.0000000000
11
420.0000000000
21
297.0000000000
0
LINE
5
301
100
AcDbEntity
8
0
100
AcDbLine
62
7
6
CONTINUOUS
10
0.0000000000
20
0.0000000000
11
0.0000000000
21
297.0000000000
0
LINE
5
302
100
AcDbEntity
8
RAHMEN
100
AcDbLine
62
7
6
CONTINUOUS
10
0.0000000000
20
0.0000000000
11
420.0000000000
21
0.0000000000
0
LINE
5
303
100
AcDbEntity
8
RAHMEN
100
AcDbLine
62
7
6
CONTINUOUS
10
420.0000000000
20
0.0000000000
11
420.0000000000
21
297.0000000000
0
LINE
5
304
100
AcDbEntity
8
RAHMEN
100
AcDbLine
62
7
6
CONTINUOUS
10
420.0000000000
20
297.0000000000
11
0.0000000000
21
297.0000000000
0
LINE
5
305
100
AcDbEntity
8
RAHMEN
100
AcDbLine
62
7
6
CONTINUOUS
10
0.0000000000
20
297.0000000000
11
0.0000000000
21
0.0000000000
0
LINE
5
306
100
AcDbEntity
8
05
100
AcDbLine
62
7
6
CONTINUOUS
10
230.0000000000
20
0.0000000000
11
230.0000000000
21
2.0000000000
0
LINE
5
307
100
AcDbEntity
8
05
100
AcDbLine
62
7
6
CONTINUOUS
10
20.0000000000
20
0.0000000000
11
20.0000000000
21
2.0000000000
0
LINE
5
308
100
AcDbEntity
8
05
100
AcDbLine
62
7
6
CONTINUOUS
10
230.0000000000
20
295.0000000000
11
230.0000000000
21
297.0000000000
0
LINE
5
309
100
AcDbEntity
8
05
100
AcDbLine
62
7
6
CONTINUOUS
10
20.0000000000
20
295.0000000000
11
20.0000000000
21
297.0000000000
0
LINE
5
30A
100
AcDbEntity
8
05
100
AcDbLine
62
7
6
CONTINUOUS
10
302.5761270000
20
13.2089520000
11
302.8594800000
21
13.4923040000
0
LINE
5
30B
100
AcDbEntity
8
05
100
AcDbLine
62
7
6
CONTINUOUS
10
304.6202690000
20
15.2530940000
11
305.0602470000
21
15.6930720000
0
LINE
5
30C
100
AcDbEntity
8
05
100
AcDbLine
62
7
6
CONTINUOUS
10
303.5024150000
20
14.1352400000
11
303.7923930000
21
14.4252180000
0
LINE
5
30D
100
AcDbEntity
8
05
100
AcDbLine
62
7
6
CONTINUOUS
10
302.2579290000
20
13.2089520000
11
302.9501160000
21
13.9011390000
0
LINE
5
30E
100
AcDbEntity
8
05
100
AcDbLine
62
7
6
CONTINUOUS
10
304.3020710000
20
15.2530940000
11
304.7420490000
21
15.6930720000
0
LINE
5
30F
100
AcDbEntity
8
05
100
AcDbLine
62
7
6
CONTINUOUS
10
303.1842170000
20
14.1352400000
11
303.4741950000
21
14.4252180000
0
LINE
5
310
100
AcDbEntity
8
05
100
AcDbLine
62
7
6
CONTINUOUS
10
301.9397310000
20
13.2089520000
11
303.1559970000
21
14.4252180000
0
LINE
5
311
100
AcDbEntity
8
05
100
AcDbLine
62
7
6
CONTINUOUS
10
303.9838730000
20
15.2530940000
11
304.4238510000
21
15.6930720000
0
LINE
5
312
100
AcDbEntity
8
05
100
AcDbLine
62
7
6
CONTINUOUS
10
301.6215330000
20
13.2089520000
11
303.1313890000
21
14.7188080000
0
LINE
5
313
100
AcDbEntity
8
05
100
AcDbLine
62
7
6
CONTINUOUS
10
303.6656750000
20
15.2530940000
11
304.1056530000
21
15.6930720000
0
LINE
5
314
100
AcDbEntity
8
05
100
AcDbLine
62
7
6
CONTINUOUS
10
301.3033350000
20
13.2089520000
11
303.2220250000
21
15.1276420000
0
LINE
5
315
100
AcDbEntity
8
05
100
AcDbLine
62
7
6
CONTINUOUS
10
303.3474770000
20
15.2530940000
11
303.7874550000
21
15.6930720000
0
LINE
5
316
100
AcDbEntity
8
05
100
AcDbLine
62
7
6
CONTINUOUS
10
301.1183660000
20
13.3421810000
11
303.4692570000
21
15.6930720000
0
LINE
5
317
100
AcDbEntity
8
05
100
AcDbLine
62
7
6
CONTINUOUS
10
301.2090020000
20
13.7510150000
11
303.1510590000
21
15.6930720000
0
LINE
5
318
100
AcDbEntity
8
05
100
AcDbLine
62
7
6
CONTINUOUS
10
301.2996390000
20
14.1598500000
11
302.8328610000
21
15.6930720000
0
LINE
5
319
100
AcDbEntity
8
05
100
AcDbLine
62
7
6
CONTINUOUS
10
301.3902750000
20
14.5686840000
11
302.5146630000
21
15.6930720000
0
LINE
5
31A
100
AcDbEntity
8
05
100
AcDbLine
62
7
6
CONTINUOUS
10
301.4809110000
20
14.9775190000
11
302.1964650000
21
15.6930720000
0
LINE
5
31B
100
AcDbEntity
8
05
100
AcDbLine
62
7
6
CONTINUOUS
10
301.5715480000
20
15.3863530000
11
301.8782670000
21
15.6930720000
0
LINE
5
31C
100
AcDbEntity
8
05
100
AcDbLine
62
7
6
CONTINUOUS
10
300.9390390000
20
15.0720420000
11
300.9639990000
21
15.0970020000
0
LINE
5
31D
100
AcDbEntity
8
05
100
AcDbLine
62
7
6
CONTINUOUS
10
298.7577510000
20
13.2089520000
11
298.9600800000
21
13.4112820000
0
LINE
5
31E
100
AcDbEntity
8
05
100
AcDbLine
62
7
6
CONTINUOUS
10
300.6208410000
20
15.0720420000
11
301.0546360000
21
15.5058370000
0
LINE
5
31F
100
AcDbEntity
8
05
100
AcDbLine
62
7
6
CONTINUOUS
10
298.4395530000
20
13.2089520000
11
299.0507170000
21
13.8201160000
0
LINE
5
320
100
AcDbEntity
8
05
100
AcDbLine
62
7
6
CONTINUOUS
10
300.3026430000
20
15.0720420000
11
300.9236730000
21
15.6930720000
0
LINE
5
321
100
AcDbEntity
8
05
100
AcDbLine
62
7
6
CONTINUOUS
10
298.1213550000
20
13.2089520000
11
299.1413530000
21
14.2289510000
0
LINE
5
322
100
AcDbEntity
8
05
100
AcDbLine
62
7
6
CONTINUOUS
10
299.9844450000
20
15.0720420000
11
300.6054740000
21
15.6930720000
0
LINE
5
323
100
AcDbEntity
8
05
100
AcDbLine
62
7
6
CONTINUOUS
10
297.8031570000
20
13.2089520000
11
299.2319900000
21
14.6377850000
0
LINE
5
324
100
AcDbEntity
8
05
100
AcDbLine
62
7
6
CONTINUOUS
10
299.6662460000
20
15.0720420000
11
300.2872760000
21
15.6930720000
0
LINE
5
325
100
AcDbEntity
8
05
100
AcDbLine
62
7
6
CONTINUOUS
10
297.4849590000
20
13.2089520000
11
299.3226260000
21
15.0466200000
0
LINE
5
326
100
AcDbEntity
8
05
100
AcDbLine
62
7
6
CONTINUOUS
10
299.3480480000
20
15.0720420000
11
299.9690780000
21
15.6930720000
0
LINE
5
327
100
AcDbEntity
8
05
100
AcDbLine
62
7
6
CONTINUOUS
10
297.2189660000
20
13.2611580000
11
299.6508800000
21
15.6930720000
0
LINE
5
328
100
AcDbEntity
8
05
100
AcDbLine
62
7
6
CONTINUOUS
10
297.3096030000
20
13.6699920000
11
299.3326820000
21
15.6930720000
0
LINE
5
329
100
AcDbEntity
8
05
100
AcDbLine
62
7
6
CONTINUOUS
10
297.4002390000
20
14.0788270000
11
299.0144840000
21
15.6930720000
0
LINE
5
32A
100
AcDbEntity
8
05
100
AcDbLine
62
7
6
CONTINUOUS
10
297.4908760000
20
14.4876610000
11
298.6962860000
21
15.6930720000
0
LINE
5
32B
100
AcDbEntity
8
05
100
AcDbLine
62
7
6
CONTINUOUS
10
297.5815120000
20
14.8964960000
11
298.3780880000
21
15.6930720000
0
LINE
5
32C
100
AcDbEntity
8
05
100
AcDbLine
62
7
6
CONTINUOUS
10
297.4388600000
20
15.0720420000
11
298.0598900000
21
15.6930720000
0
LINE
5
32D
100
AcDbEntity
8
05
100
AcDbLine
62
7
6
CONTINUOUS
10
297.1206620000
20
15.0720420000
11
297.7416920000
21
15.6930720000
0
LINE
5
32E
100
AcDbEntity
8
05
100
AcDbLine
62
7
6
CONTINUOUS
10
296.8024640000
20
15.0720420000
11
297.4234940000
21
15.6930720000
0
LINE
5
32F
100
AcDbEntity
8
05
100
AcDbLine
62
7
6
CONTINUOUS
10
294.8883760000
20
13.4761520000
11
295.3685390000
21
13.9563150000
0
LINE
5
330
100
AcDbEntity
8
05
100
AcDbLine
62
7
6
CONTINUOUS
10
296.4842660000
20
15.0720420000
11
297.1052960000
21
15.6930720000
0
LINE
5
331
100
AcDbEntity
8
05
100
AcDbLine
62
7
6
CONTINUOUS
10
294.4054660000
20
13.3114400000
11
295.4591750000
21
14.3651490000
0
LINE
5
332
100
AcDbEntity
8
05
100
AcDbLine
62
7
6
CONTINUOUS
10
296.1660680000
20
15.0720420000
11
296.7870980000
21
15.6930720000
0
LINE
5
333
100
AcDbEntity
8
05
100
AcDbLine
62
7
6
CONTINUOUS
10
294.0027690000
20
13.2269410000
11
295.5498110000
21
14.7739840000
0
LINE
5
334
100
AcDbEntity
8
05
100
AcDbLine
62
7
6
CONTINUOUS
10
296.1305160000
20
15.3546880000
11
296.4689000000
21
15.6930720000
0
LINE
5
335
100
AcDbEntity
8
05
100
AcDbLine
62
7
6
CONTINUOUS
10
293.6368590000
20
13.1792300000
11
295.6404480000
21
15.1828180000
0
LINE
5
336
100
AcDbEntity
8
05
100
AcDbLine
62
7
6
CONTINUOUS
10
293.2894110000
20
13.1499790000
11
295.7310840000
21
15.5916520000
0
LINE
5
337
100
AcDbEntity
8
05
100
AcDbLine
62
7
6
CONTINUOUS
10
292.9558910000
20
13.1346570000
11
295.5143060000
21
15.6930720000
0
LINE
5
338
100
AcDbEntity
8
05
100
AcDbLine
62
7
6
CONTINUOUS
10
292.6346880000
20
13.1316520000
11
293.3351190000
21
13.8320840000
0
LINE
5
339
100
AcDbEntity
8
05
100
AcDbLine
62
7
6
CONTINUOUS
10
293.7236060000
20
14.2205700000
11
295.1961080000
21
15.6930720000
0
LINE
5
33A
100
AcDbEntity
8
05
100
AcDbLine
62
7
6
CONTINUOUS
10
292.3245180000
20
13.1396810000
11
292.9444690000
21
13.7596310000
0
LINE
5
33B
100
AcDbEntity
8
05
100
AcDbLine
62
7
6
CONTINUOUS
10
293.8142420000
20
14.6294040000
11
294.8779100000
21
15.6930720000
0
LINE
5
33C
100
AcDbEntity
8
05
100
AcDbLine
62
7
6
CONTINUOUS
10
292.0243430000
20
13.1577030000
11
292.6233120000
21
13.7566730000
0
LINE
5
33D
100
AcDbEntity
8
05
100
AcDbLine
62
7
6
CONTINUOUS
10
293.9048780000
20
15.0382390000
11
294.5597110000
21
15.6930720000
0
LINE
5
33E
100
AcDbEntity
8
05
100
AcDbLine
62
7
6
CONTINUOUS
10
291.7333060000
20
13.1848640000
11
292.3407990000
21
13.7923570000
0
LINE
5
33F
100
AcDbEntity
8
05
100
AcDbLine
62
7
6
CONTINUOUS
10
293.9955150000
20
15.4470730000
11
294.2415130000
21
15.6930720000
0
LINE
5
340
100
AcDbEntity
8
05
100
AcDbLine
62
7
6
CONTINUOUS
10
291.4520070000
20
13.2217640000
11
292.0972290000
21
13.8669850000
0
LINE
5
341
100
AcDbEntity
8
05
100
AcDbLine
62
7
6
CONTINUOUS
10
291.1841710000
20
13.2721250000
11
291.9024090000
21
13.9903630000
0
LINE
5
342
100
AcDbEntity
8
05
100
AcDbLine
62
7
6
CONTINUOUS
10
290.9287580000
20
13.3349100000
11
291.8448360000
21
14.2509890000
0
LINE
5
343
100
AcDbEntity
8
05
100
AcDbLine
62
7
6
CONTINUOUS
10
290.6873210000
20
13.4116710000
11
291.9354730000
21
14.6598230000
0
LINE
5
344
100
AcDbEntity
8
05
100
AcDbLine
62
7
6
CONTINUOUS
10
290.4667180000
20
13.5092670000
11
292.0261090000
21
15.0686580000
0
LINE
5
345
100
AcDbEntity
8
05
100
AcDbLine
62
7
6
CONTINUOUS
10
290.2651030000
20
13.6258500000
11
292.1167450000
21
15.4774920000
0
LINE
5
346
100
AcDbEntity
8
05
100
AcDbLine
62
7
6
CONTINUOUS
10
290.1018940000
20
13.7808390000
11
292.0141270000
21
15.6930720000
0
LINE
5
347
100
AcDbEntity
8
05
100
AcDbLine
62
7
6
CONTINUOUS
10
290.1092480000
20
14.1063910000
11
291.6959290000
21
15.6930720000
0
LINE
5
348
100
AcDbEntity
8
05
100
AcDbLine
62
7
6
CONTINUOUS
10
288.8936110000
20
13.2089520000
11
289.2024780000
21
13.5178190000
0
LINE
5
349
100
AcDbEntity
8
05
100
AcDbLine
62
7
6
CONTINUOUS
10
290.1998850000
20
14.5152260000
11
291.3777310000
21
15.6930720000
0
LINE
5
34A
100
AcDbEntity
8
05
100
AcDbLine
62
7
6
CONTINUOUS
10
288.5754130000
20
13.2089520000
11
289.0153920000
21
13.6489310000
0
LINE
5
34B
100
AcDbEntity
8
05
100
AcDbLine
62
7
6
CONTINUOUS
10
290.2905210000
20
14.9240600000
11
291.0595330000
21
15.6930720000
0
LINE
5
34C
100
AcDbEntity
8
05
100
AcDbLine
62
7
6
CONTINUOUS
10
288.2572150000
20
13.2089520000
11
288.6971940000
21
13.6489310000
0
LINE
5
34D
100
AcDbEntity
8
05
100
AcDbLine
62
7
6
CONTINUOUS
10
290.3811580000
20
15.3328950000
11
290.7413350000
21
15.6930720000
0
LINE
5
34E
100
AcDbEntity
8
05
100
AcDbLine
62
7
6
CONTINUOUS
10
287.9390170000
20
13.2089520000
11
288.3789960000
21
13.6489310000
0
LINE
5
34F
100
AcDbEntity
8
05
100
AcDbLine
62
7
6
CONTINUOUS
10
289.0360880000
20
14.3060230000
11
289.1751650000
21
14.4451000000
0
LINE
5
350
100
AcDbEntity
8
05
100
AcDbLine
62
7
6
CONTINUOUS
10
287.6208190000
20
13.2089520000
11
288.0607970000
21
13.6489310000
0
LINE
5
351
100
AcDbEntity
8
05
100
AcDbLine
62
7
6
CONTINUOUS
10
288.7178900000
20
14.3060230000
11
289.0078680000
21
14.5960010000
0
LINE
5
352
100
AcDbEntity
8
05
100
AcDbLine
62
7
6
CONTINUOUS
10
287.3026210000
20
13.2089520000
11
287.7425990000
21
13.6489310000
0
LINE
5
353
100
AcDbEntity
8
05
100
AcDbLine
62
7
6
CONTINUOUS
10
289.3467620000
20
15.2530940000
11
289.6556600000
21
15.5619910000
0
LINE
5
354
100
AcDbEntity
8
05
100
AcDbLine
62
7
6
CONTINUOUS
10
288.3996920000
20
14.3060230000
11
288.6896700000
21
14.5960010000
0
LINE
5
355
100
AcDbEntity
8
05
100
AcDbLine
62
7
6
CONTINUOUS
10
286.9844230000
20
13.2089520000
11
287.4244010000
21
13.6489310000
0
LINE
5
356
100
AcDbEntity
8
05
100
AcDbLine
62
7
6
CONTINUOUS
10
289.0285640000
20
15.2530940000
11
289.4685430000
21
15.6930720000
0
LINE
5
357
100
AcDbEntity
8
05
100
AcDbLine
62
7
6
CONTINUOUS
10
288.0814940000
20
14.3060230000
11
288.3714720000
21
14.5960010000
0
LINE
5
358
100
AcDbEntity
8
05
100
AcDbLine
62
7
6
CONTINUOUS
10
286.6662250000
20
13.2089520000
11
287.1062030000
21
13.6489310000
0
LINE
5
359
100
AcDbEntity
8
05
100
AcDbLine
62
7
6
CONTINUOUS
10
288.7103660000
20
15.2530940000
11
289.1503450000
21
15.6930720000
0
LINE
5
35A
100
AcDbEntity
8
05
100
AcDbLine
62
7
6
CONTINUOUS
10
287.7632960000
20
14.3060230000
11
288.0532740000
21
14.5960010000
0
LINE
5
35B
100
AcDbEntity
8
05
100
AcDbLine
62
7
6
CONTINUOUS
10
286.3480270000
20
13.2089520000
11
286.7880050000
21
13.6489310000
0
LINE
5
35C
100
AcDbEntity
8
05
100
AcDbLine
62
7
6
CONTINUOUS
10
288.3921680000
20
15.2530940000
11
288.8321470000
21
15.6930720000
0
LINE
5
35D
100
AcDbEntity
8
05
100
AcDbLine
62
7
6
CONTINUOUS
10
287.4450970000
20
14.3060230000
11
287.7350760000
21
14.5960010000
0
LINE
5
35E
100
AcDbEntity
8
05
100
AcDbLine
62
7
6
CONTINUOUS
10
286.0298290000
20
13.2089520000
11
286.4698070000
21
13.6489310000
0
LINE
5
35F
100
AcDbEntity
8
05
100
AcDbLine
62
7
6
CONTINUOUS
10
288.0739700000
20
15.2530940000
11
288.5139480000
21
15.6930720000
0
LINE
5
360
100
AcDbEntity
8
05
100
AcDbLine
62
7
6
CONTINUOUS
10
287.1268990000
20
14.3060230000
11
287.4168780000
21
14.5960010000
0
LINE
5
361
100
AcDbEntity
8
05
100
AcDbLine
62
7
6
CONTINUOUS
10
285.7116310000
20
13.2089520000
11
286.3186940000
21
13.8160160000
0
LINE
5
362
100
AcDbEntity
8
05
100
AcDbLine
62
7
6
CONTINUOUS
10
287.7557720000
20
15.2530940000
11
288.1957500000
21
15.6930720000
0
LINE
5
363
100
AcDbEntity
8
05
100
AcDbLine
62
7
6
CONTINUOUS
10
286.8087010000
20
14.3060230000
11
287.0986800000
21
14.5960010000
0
LINE
5
364
100
AcDbEntity
8
05
100
AcDbLine
62
7
6
CONTINUOUS
10
285.3934330000
20
13.2089520000
11
286.4093310000
21
14.2248500000
0
LINE
5
365
100
AcDbEntity
8
05
100
AcDbLine
62
7
6
CONTINUOUS
10
287.4375740000
20
15.2530940000
11
287.8775520000
21
15.6930720000
0
LINE
5
366
100
AcDbEntity
8
05
100
AcDbLine
62
7
6
CONTINUOUS
10
286.4905030000
20
14.3060230000
11
286.7804820000
21
14.5960010000
0
LINE
5
367
100
AcDbEntity
8
05
100
AcDbLine
62
7
6
CONTINUOUS
10
285.0752350000
20
13.2089520000
11
286.4999670000
21
14.6336850000
0
LINE
5
368
100
AcDbEntity
8
05
100
AcDbLine
62
7
6
CONTINUOUS
10
287.1193760000
20
15.2530940000
11
287.5593540000
21
15.6930720000
0
LINE
5
369
100
AcDbEntity
8
05
100
AcDbLine
62
7
6
CONTINUOUS
10
284.7570370000
20
13.2089520000
11
286.5906030000
21
15.0425190000
0
LINE
5
36A
100
AcDbEntity
8
05
100
AcDbLine
62
7
6
CONTINUOUS
10
286.8011780000
20
15.2530940000
11
287.2411560000
21
15.6930720000
0
LINE
5
36B
100
AcDbEntity
8
05
100
AcDbLine
62
7
6
CONTINUOUS
10
284.4869440000
20
13.2570570000
11
286.9229580000
21
15.6930720000
0
LINE
5
36C
100
AcDbEntity
8
05
100
AcDbLine
62
7
6
CONTINUOUS
10
284.5775800000
20
13.6658920000
11
286.6047600000
21
15.6930720000
0
LINE
5
36D
100
AcDbEntity
8
05
100
AcDbLine
62
7
6
CONTINUOUS
10
284.6682170000
20
14.0747260000
11
286.2865620000
21
15.6930720000
0
LINE
5
36E
100
AcDbEntity
8
05
100
AcDbLine
62
7
6
CONTINUOUS
10
283.4842440000
20
13.2089520000
11
283.6617050000
21
13.3864130000
0
LINE
5
36F
100
AcDbEntity
8
05
100
AcDbLine
62
7
6
CONTINUOUS
10
284.7588530000
20
14.4835610000
11
285.9683640000
21
15.6930720000
0
LINE
5
370
100
AcDbEntity
8
05
100
AcDbLine
62
7
6
CONTINUOUS
10
283.1660460000
20
13.2089520000
11
283.7523410000
21
13.7952470000
0
LINE
5
371
100
AcDbEntity
8
05
100
AcDbLine
62
7
6
CONTINUOUS
10
284.8494890000
20
14.8923950000
11
285.6501660000
21
15.6930720000
0
LINE
5
372
100
AcDbEntity
8
05
100
AcDbLine
62
7
6
CONTINUOUS
10
282.8478480000
20
13.2089520000
11
283.8429780000
21
14.2040820000
0
LINE
5
373
100
AcDbEntity
8
05
100
AcDbLine
62
7
6
CONTINUOUS
10
284.9401260000
20
15.3012300000
11
285.3319680000
21
15.6930720000
0
LINE
5
374
100
AcDbEntity
8
05
100
AcDbLine
62
7
6
CONTINUOUS
10
282.5296500000
20
13.2089520000
11
283.9336140000
21
14.6129160000
0
LINE
5
375
100
AcDbEntity
8
05
100
AcDbLine
62
7
6
CONTINUOUS
10
282.2114520000
20
13.2089520000
11
284.0242510000
21
15.0217510000
0
LINE
5
376
100
AcDbEntity
8
05
100
AcDbLine
62
7
6
CONTINUOUS
10
281.8932540000
20
13.2089520000
11
284.1148870000
21
15.4305850000
0
LINE
5
377
100
AcDbEntity
8
05
100
AcDbLine
62
7
6
CONTINUOUS
10
281.6255330000
20
13.2594290000
11
284.0591760000
21
15.6930720000
0
LINE
5
378
100
AcDbEntity
8
05
100
AcDbLine
62
7
6
CONTINUOUS
10
281.4580220000
20
13.4101170000
11
283.7409780000
21
15.6930720000
0
LINE
5
379
100
AcDbEntity
8
05
100
AcDbLine
62
7
6
CONTINUOUS
10
281.2905120000
20
13.5608040000
11
283.4227800000
21
15.6930720000
0
LINE
5
37A
100
AcDbEntity
8
05
100
AcDbLine
62
7
6
CONTINUOUS
10
281.1230020000
20
13.7114920000
11
282.1030810000
21
14.6915710000
0
LINE
5
37B
100
AcDbEntity
8
05
100
AcDbLine
62
7
6
CONTINUOUS
10
282.2831370000
20
14.8716270000
11
283.1045820000
21
15.6930720000
0
LINE
5
37C
100
AcDbEntity
8
05
100
AcDbLine
62
7
6
CONTINUOUS
10
280.9554910000
20
13.8621800000
11
281.9163070000
21
14.8229950000
0
LINE
5
37D
100
AcDbEntity
8
05
100
AcDbLine
62
7
6
CONTINUOUS
10
282.3737730000
20
15.2804620000
11
282.7863840000
21
15.6930720000
0
LINE
5
37E
100
AcDbEntity
8
05
100
AcDbLine
62
7
6
CONTINUOUS
10
280.7879810000
20
14.0128680000
11
281.7295320000
21
14.9544190000
0
LINE
5
37F
100
AcDbEntity
8
05
100
AcDbLine
62
7
6
CONTINUOUS
10
282.4644100000
20
15.6892960000
11
282.4681860000
21
15.6930720000
0
LINE
5
380
100
AcDbEntity
8
05
100
AcDbLine
62
7
6
CONTINUOUS
10
279.6658680000
20
13.2089520000
11
279.8620460000
21
13.4051310000
0
LINE
5
381
100
AcDbEntity
8
05
100
AcDbLine
62
7
6
CONTINUOUS
10
280.6204710000
20
14.1635550000
11
281.5427580000
21
15.0858420000
0
LINE
5
382
100
AcDbEntity
8
05
100
AcDbLine
62
7
6
CONTINUOUS
10
279.3476700000
20
13.2089520000
11
279.9526830000
21
13.8139650000
0
LINE
5
383
100
AcDbEntity
8
05
100
AcDbLine
62
7
6
CONTINUOUS
10
280.4529600000
20
14.3142430000
11
281.3559830000
21
15.2172660000
0
LINE
5
384
100
AcDbEntity
8
05
100
AcDbLine
62
7
6
CONTINUOUS
10
279.0294720000
20
13.2089520000
11
280.0433190000
21
14.2228000000
0
LINE
5
385
100
AcDbEntity
8
05
100
AcDbLine
62
7
6
CONTINUOUS
10
280.2854500000
20
14.4649310000
11
281.1692090000
21
15.3486900000
0
LINE
5
386
100
AcDbEntity
8
05
100
AcDbLine
62
7
6
CONTINUOUS
10
278.7112740000
20
13.2089520000
11
280.9824350000
21
15.4801130000
0
LINE
5
387
100
AcDbEntity
8
05
100
AcDbLine
62
7
6
CONTINUOUS
10
278.3930760000
20
13.2089520000
11
280.7956600000
21
15.6115370000
0
LINE
5
388
100
AcDbEntity
8
05
100
AcDbLine
62
7
6
CONTINUOUS
10
278.1209320000
20
13.2550070000
11
280.5589970000
21
15.6930720000
0
LINE
5
389
100
AcDbEntity
8
05
100
AcDbLine
62
7
6
CONTINUOUS
10
278.2115690000
20
13.6638420000
11
280.2407990000
21
15.6930720000
0
LINE
5
38A
100
AcDbEntity
8
05
100
AcDbLine
62
7
6
CONTINUOUS
10
278.3022050000
20
14.0726760000
11
279.9226010000
21
15.6930720000
0
LINE
5
38B
100
AcDbEntity
8
05
100
AcDbLine
62
7
6
CONTINUOUS
10
278.3928420000
20
14.4815110000
11
279.6044030000
21
15.6930720000
0
LINE
5
38C
100
AcDbEntity
8
05
100
AcDbLine
62
7
6
CONTINUOUS
10
278.4834780000
20
14.8903450000
11
279.2862050000
21
15.6930720000
0
LINE
5
38D
100
AcDbEntity
8
05
100
AcDbLine
62
7
6
CONTINUOUS
10
278.5741150000
20
15.2991800000
11
278.9680070000
21
15.6930720000
0
LINE
5
38E
100
AcDbEntity
8
05
100
AcDbLine
62
7
6
CONTINUOUS
10
303.8206130000
20
14.1352400000
11
304.1105910000
21
14.4252180000
0
LINE
5
38F
100
AcDbEntity
8
05
100
AcDbLine
62
7
6
CONTINUOUS
10
304.8666600000
20
15.1812870000
11
305.3784450000
21
15.6930720000
0
LINE
5
390
100
AcDbEntity
8
05
100
AcDbLine
62
7
6
CONTINUOUS
10
304.1388110000
20
14.1352400000
11
304.4292410000
21
14.4256700000
0
LINE
5
391
100
AcDbEntity
8
05
100
AcDbLine
62
7
6
CONTINUOUS
10
304.9467390000
20
14.9431670000
11
305.6966430000
21
15.6930720000
0
LINE
5
392
100
AcDbEntity
8
05
100
AcDbLine
62
7
6
CONTINUOUS
10
304.4562560000
20
14.1344860000
11
306.0146710000
21
15.6929020000
0
LINE
5
393
100
AcDbEntity
8
05
100
AcDbLine
62
7
6
CONTINUOUS
10
304.6305160000
20
13.9905480000
11
306.2989430000
21
15.6589760000
0
LINE
5
394
100
AcDbEntity
8
05
100
AcDbLine
62
7
6
CONTINUOUS
10
304.6130000000
20
13.6548350000
11
306.5351130000
21
15.5769480000
0
LINE
5
395
100
AcDbEntity
8
05
100
AcDbLine
62
7
6
CONTINUOUS
10
304.6052610000
20
13.3288970000
11
306.7250750000
21
15.4487110000
0
LINE
5
396
100
AcDbEntity
8
05
100
AcDbLine
62
7
6
CONTINUOUS
10
304.8035140000
20
13.2089520000
11
306.8509000000
21
15.2563380000
0
LINE
5
397
100
AcDbEntity
8
05
100
AcDbLine
62
7
6
CONTINUOUS
10
305.1217120000
20
13.2089520000
11
306.2212130000
21
14.3084530000
0
LINE
5
398
100
AcDbEntity
8
05
100
AcDbLine
62
7
6
CONTINUOUS
10
306.2660830000
20
14.3533230000
11
306.8342290000
21
14.9214690000
0
LINE
5
399
100
AcDbEntity
8
05
100
AcDbLine
62
7
6
CONTINUOUS
10
305.4399100000
20
13.2089520000
11
306.3457580000
21
14.1148000000
0
LINE
5
39A
100
AcDbEntity
8
05
100
AcDbLine
62
7
6
CONTINUOUS
10
307.6292330000
20
15.3982750000
11
307.9240300000
21
15.6930720000
0
LINE
5
39B
100
AcDbEntity
8
05
100
AcDbLine
62
7
6
CONTINUOUS
10
305.7581080000
20
13.2089520000
11
306.3299420000
21
13.7807860000
0
LINE
5
39C
100
AcDbEntity
8
05
100
AcDbLine
62
7
6
CONTINUOUS
10
307.5385960000
20
14.9894400000
11
308.2422280000
21
15.6930720000
0
LINE
5
39D
100
AcDbEntity
8
05
100
AcDbLine
62
7
6
CONTINUOUS
10
306.0763060000
20
13.2089520000
11
306.3071930000
21
13.4398390000
0
LINE
5
39E
100
AcDbEntity
8
05
100
AcDbLine
62
7
6
CONTINUOUS
10
307.4479600000
20
14.5806060000
11
308.5604260000
21
15.6930720000
0
LINE
5
39F
100
AcDbEntity
8
05
100
AcDbLine
62
7
6
CONTINUOUS
10
307.3573230000
20
14.1717720000
11
308.8786240000
21
15.6930720000
0
LINE
5
3A0
100
AcDbEntity
8
05
100
AcDbLine
62
7
6
CONTINUOUS
10
307.2666870000
20
13.7629370000
11
309.1968220000
21
15.6930720000
0
LINE
5
3A1
100
AcDbEntity
8
05
100
AcDbLine
62
7
6
CONTINUOUS
10
307.1760510000
20
13.3541030000
11
309.3703470000
21
15.5483990000
0
LINE
5
3A2
100
AcDbEntity
8
05
100
AcDbLine
62
7
6
CONTINUOUS
10
307.3490980000
20
13.2089520000
11
309.2797100000
21
15.1395640000
0
LINE
5
3A3
100
AcDbEntity
8
05
100
AcDbLine
62
7
6
CONTINUOUS
10
307.6672960000
20
13.2089520000
11
309.1890740000
21
14.7307300000
0
LINE
5
3A4
100
AcDbEntity
8
05
100
AcDbLine
62
7
6
CONTINUOUS
10
307.9854940000
20
13.2089520000
11
309.0984370000
21
14.3218950000
0
LINE
5
3A5
100
AcDbEntity
8
05
100
AcDbLine
62
7
6
CONTINUOUS
10
310.3950670000
20
15.6185250000
11
310.4696140000
21
15.6930720000
0
LINE
5
3A6
100
AcDbEntity
8
05
100
AcDbLine
62
7
6
CONTINUOUS
10
308.3036920000
20
13.2089520000
11
309.0078010000
21
13.9130610000
0
LINE
5
3A7
100
AcDbEntity
8
05
100
AcDbLine
62
7
6
CONTINUOUS
10
310.3044300000
20
15.2096900000
11
310.7878120000
21
15.6930720000
0
LINE
5
3A8
100
AcDbEntity
8
05
100
AcDbLine
62
7
6
CONTINUOUS
10
308.6218900000
20
13.2089520000
11
308.9171640000
21
13.5042260000
0
LINE
5
3A9
100
AcDbEntity
8
05
100
AcDbLine
62
7
6
CONTINUOUS
10
310.2137940000
20
14.8008560000
11
311.1060100000
21
15.6930720000
0
LINE
5
3AA
100
AcDbEntity
8
05
100
AcDbLine
62
7
6
CONTINUOUS
10
310.1231580000
20
14.3920210000
11
311.4242080000
21
15.6930720000
0
LINE
5
3AB
100
AcDbEntity
8
05
100
AcDbLine
62
7
6
CONTINUOUS
10
310.0325210000
20
13.9831870000
11
311.7424060000
21
15.6930720000
0
LINE
5
3AC
100
AcDbEntity
8
05
100
AcDbLine
62
7
6
CONTINUOUS
10
309.9418850000
20
13.5743520000
11
312.0364400000
21
15.6689080000
0
LINE
5
3AD
100
AcDbEntity
8
05
100
AcDbLine
62
7
6
CONTINUOUS
10
309.8946830000
20
13.2089520000
11
311.9458040000
21
15.2600730000
0
LINE
5
3AE
100
AcDbEntity
8
05
100
AcDbLine
62
7
6
CONTINUOUS
10
310.2128810000
20
13.2089520000
11
311.8577180000
21
14.8537890000
0
LINE
5
3AF
100
AcDbEntity
8
05
100
AcDbLine
62
7
6
CONTINUOUS
10
310.5310790000
20
13.2089520000
11
312.4121960000
21
15.0900700000
0
LINE
5
3B0
100
AcDbEntity
8
05
100
AcDbLine
62
7
6
CONTINUOUS
10
310.8492770000
20
13.2089520000
11
312.9666750000
21
15.3263510000
0
LINE
5
3B1
100
AcDbEntity
8
05
100
AcDbLine
62
7
6
CONTINUOUS
10
311.1674750000
20
13.2089520000
11
311.5832580000
21
13.6247350000
0
LINE
5
3B2
100
AcDbEntity
8
05
100
AcDbLine
62
7
6
CONTINUOUS
10
311.9071250000
20
13.9486020000
11
313.5211540000
21
15.5626310000
0
LINE
5
3B3
100
AcDbEntity
8
05
100
AcDbLine
62
7
6
CONTINUOUS
10
311.4856730000
20
13.2089520000
11
311.4926210000
21
13.2159010000
0
LINE
5
3B4
100
AcDbEntity
8
05
100
AcDbLine
62
7
6
CONTINUOUS
10
312.3871300000
20
14.1104090000
11
313.9697930000
21
15.6930720000
0
LINE
5
3B5
100
AcDbEntity
8
05
100
AcDbLine
62
7
6
CONTINUOUS
10
312.5451590000
20
13.9502400000
11
314.2879910000
21
15.6930720000
0
LINE
5
3B6
100
AcDbEntity
8
05
100
AcDbLine
62
7
6
CONTINUOUS
10
312.7031880000
20
13.7900710000
11
314.6061890000
21
15.6930720000
0
LINE
5
3B7
100
AcDbEntity
8
05
100
AcDbLine
62
7
6
CONTINUOUS
10
312.8612170000
20
13.6299020000
11
314.0334790000
21
14.8021650000
0
LINE
5
3B8
100
AcDbEntity
8
05
100
AcDbLine
62
7
6
CONTINUOUS
10
314.1250400000
20
14.8937250000
11
314.9243870000
21
15.6930720000
0
LINE
5
3B9
100
AcDbEntity
8
05
100
AcDbLine
62
7
6
CONTINUOUS
10
313.0192460000
20
13.4697330000
11
314.1915080000
21
14.6419950000
0
LINE
5
3BA
100
AcDbEntity
8
05
100
AcDbLine
62
7
6
CONTINUOUS
10
314.6795190000
20
15.1300060000
11
315.2425850000
21
15.6930720000
0
LINE
5
3BB
100
AcDbEntity
8
05
100
AcDbLine
62
7
6
CONTINUOUS
10
313.1772750000
20
13.3095640000
11
314.3495370000
21
14.4818260000
0
LINE
5
3BC
100
AcDbEntity
8
05
100
AcDbLine
62
7
6
CONTINUOUS
10
315.2339980000
20
15.3662870000
11
315.5607830000
21
15.6930720000
0
LINE
5
3BD
100
AcDbEntity
8
05
100
AcDbLine
62
7
6
CONTINUOUS
10
313.3948610000
20
13.2089520000
11
314.5075660000
21
14.3216570000
0
LINE
5
3BE
100
AcDbEntity
8
05
100
AcDbLine
62
7
6
CONTINUOUS
10
315.7884760000
20
15.6025670000
11
315.8789810000
21
15.6930720000
0
LINE
5
3BF
100
AcDbEntity
8
05
100
AcDbLine
62
7
6
CONTINUOUS
10
313.7130590000
20
13.2089520000
11
314.6655950000
21
14.1614880000
0
LINE
5
3C0
100
AcDbEntity
8
05
100
AcDbLine
62
7
6
CONTINUOUS
10
314.0312570000
20
13.2089520000
11
314.8236240000
21
14.0013190000
0
LINE
5
3C1
100
AcDbEntity
8
05
100
AcDbLine
62
7
6
CONTINUOUS
10
314.3494550000
20
13.2089520000
11
314.9816530000
21
13.8411500000
0
LINE
5
3C2
100
AcDbEntity
8
05
100
AcDbLine
62
7
6
CONTINUOUS
10
314.6676530000
20
13.2089520000
11
315.1396820000
21
13.6809810000
0
LINE
5
3C3
100
AcDbEntity
8
05
100
AcDbLine
62
7
6
CONTINUOUS
10
314.9858510000
20
13.2089520000
11
315.2977110000
21
13.5208120000
0
LINE
5
3C4
100
AcDbEntity
8
05
100
AcDbLine
62
7
6
CONTINUOUS
10
315.3040500000
20
13.2089520000
11
315.4557400000
21
13.3606430000
0
LINE
5
3C5
100
AcDbEntity
8
05
100
AcDbLine
62
7
6
CONTINUOUS
10
320.3077010000
20
15.6670200000
11
320.3344820000
21
15.6938010000
0
LINE
5
3C6
100
AcDbEntity
8
05
100
AcDbLine
62
7
6
CONTINUOUS
10
319.3531070000
20
14.3942270000
11
320.6526800000
21
15.6938010000
0
LINE
5
3C7
100
AcDbEntity
8
05
100
AcDbLine
62
7
6
CONTINUOUS
10
318.4860300000
20
13.2089520000
11
320.9708790000
21
15.6938010000
0
LINE
5
3C8
100
AcDbEntity
8
05
100
AcDbLine
62
7
6
CONTINUOUS
10
318.8042280000
20
13.2089520000
11
321.2890770000
21
15.6938010000
0
LINE
5
3C9
100
AcDbEntity
8
05
100
AcDbLine
62
7
6
CONTINUOUS
10
319.1224260000
20
13.2089520000
11
321.6072750000
21
15.6938010000
0
LINE
5
3CA
100
AcDbEntity
8
05
100
AcDbLine
62
7
6
CONTINUOUS
10
319.4406240000
20
13.2089520000
11
321.9254730000
21
15.6938010000
0
LINE
5
3CB
100
AcDbEntity
8
05
100
AcDbLine
62
7
6
CONTINUOUS
10
319.7588220000
20
13.2089520000
11
321.2846820000
21
14.7348120000
0
LINE
5
3CC
100
AcDbEntity
8
05
100
AcDbLine
62
7
6
CONTINUOUS
10
321.8285960000
20
15.2787260000
11
322.2436710000
21
15.6938010000
0
LINE
5
3CD
100
AcDbEntity
8
05
100
AcDbLine
62
7
6
CONTINUOUS
10
320.0770200000
20
13.2089520000
11
320.3300880000
21
13.4620200000
0
LINE
5
3CE
100
AcDbEntity
8
05
100
AcDbLine
62
7
6
CONTINUOUS
10
321.8922360000
20
15.0241680000
11
322.5618690000
21
15.6938010000
0
LINE
5
3CF
100
AcDbEntity
8
05
100
AcDbLine
62
7
6
CONTINUOUS
10
320.5570520000
20
13.6889840000
11
320.9302400000
21
14.0621710000
0
LINE
5
3D0
100
AcDbEntity
8
05
100
AcDbLine
62
7
6
CONTINUOUS
10
320.8752500000
20
13.6889840000
11
321.2484380000
21
14.0621710000
0
LINE
5
3D1
100
AcDbEntity
8
05
100
AcDbLine
62
7
6
CONTINUOUS
10
321.9558760000
20
14.7696100000
11
322.8800670000
21
15.6938010000
0
LINE
5
3D2
100
AcDbEntity
8
05
100
AcDbLine
62
7
6
CONTINUOUS
10
321.1934480000
20
13.6889840000
11
321.5666360000
21
14.0621710000
0
LINE
5
3D3
100
AcDbEntity
8
05
100
AcDbLine
62
7
6
CONTINUOUS
10
322.0195150000
20
14.5150510000
11
323.1982650000
21
15.6938010000
0
LINE
5
3D4
100
AcDbEntity
8
05
100
AcDbLine
62
7
6
CONTINUOUS
10
321.5116460000
20
13.6889840000
11
321.8848340000
21
14.0621710000
0
LINE
5
3D5
100
AcDbEntity
8
05
100
AcDbLine
62
7
6
CONTINUOUS
10
322.0831550000
20
14.2604930000
11
323.3292860000
21
15.5066230000
0
LINE
5
3D6
100
AcDbEntity
8
05
100
AcDbLine
62
7
6
CONTINUOUS
10
321.8298440000
20
13.6889840000
11
323.3929250000
21
15.2520650000
0
LINE
5
3D7
100
AcDbEntity
8
05
100
AcDbLine
62
7
6
CONTINUOUS
10
322.1480420000
20
13.6889840000
11
323.4565650000
21
14.9975060000
0
LINE
5
3D8
100
AcDbEntity
8
05
100
AcDbLine
62
7
6
CONTINUOUS
10
322.2740740000
20
13.4968170000
11
323.5202040000
21
14.7429480000
0
LINE
5
3D9
100
AcDbEntity
8
05
100
AcDbLine
62
7
6
CONTINUOUS
10
322.3377130000
20
13.2422590000
11
323.5838440000
21
14.4883900000
0
LINE
5
3DA
100
AcDbEntity
8
05
100
AcDbLine
62
7
6
CONTINUOUS
10
322.6226050000
20
13.2089520000
11
323.6474840000
21
14.2338310000
0
LINE
5
3DB
100
AcDbEntity
8
05
100
AcDbLine
62
7
6
CONTINUOUS
10
322.9408030000
20
13.2089520000
11
323.7111230000
21
13.9792730000
0
LINE
5
3DC
100
AcDbEntity
8
05
100
AcDbLine
62
7
6
CONTINUOUS
10
324.8640330000
20
15.1321820000
11
325.2440540000
21
15.5122030000
0
LINE
5
3DD
100
AcDbEntity
8
05
100
AcDbLine
62
7
6
CONTINUOUS
10
323.2590010000
20
13.2089520000
11
323.7747630000
21
13.7247140000
0
LINE
5
3DE
100
AcDbEntity
8
05
100
AcDbLine
62
7
6
CONTINUOUS
10
324.7959150000
20
14.7458660000
11
325.6185860000
21
15.5685370000
0
LINE
5
3DF
100
AcDbEntity
8
05
100
AcDbLine
62
7
6
CONTINUOUS
10
323.5771990000
20
13.2089520000
11
323.8384020000
21
13.4701560000
0
LINE
5
3E0
100
AcDbEntity
8
05
100
AcDbLine
62
7
6
CONTINUOUS
10
324.7277970000
20
14.3595500000
11
325.9813030000
21
15.6130560000
0
LINE
5
3E1
100
AcDbEntity
8
05
100
AcDbLine
62
7
6
CONTINUOUS
10
323.8953970000
20
13.2089520000
11
323.9020420000
21
13.2155970000
0
LINE
5
3E2
100
AcDbEntity
8
05
100
AcDbLine
62
7
6
CONTINUOUS
10
324.6596790000
20
13.9732340000
11
326.3333580000
21
15.6469130000
0
LINE
5
3E3
100
AcDbEntity
8
05
100
AcDbLine
62
7
6
CONTINUOUS
10
324.6152770000
20
13.6106340000
11
326.6757100000
21
15.6710670000
0
LINE
5
3E4
100
AcDbEntity
8
05
100
AcDbLine
62
7
6
CONTINUOUS
10
324.7378940000
20
13.4150530000
11
327.0091650000
21
15.6863240000
0
LINE
5
3E5
100
AcDbEntity
8
05
100
AcDbLine
62
7
6
CONTINUOUS
10
324.9839510000
20
13.3429130000
11
326.3408190000
21
14.6997800000
0
LINE
5
3E6
100
AcDbEntity
8
05
100
AcDbLine
62
7
6
CONTINUOUS
10
326.8827100000
20
15.2416710000
11
327.3344090000
21
15.6933700000
0
LINE
5
3E7
100
AcDbEntity
8
05
100
AcDbLine
62
7
6
CONTINUOUS
10
325.2652030000
20
13.3059660000
11
326.2727010000
21
14.3134640000
0
LINE
5
3E8
100
AcDbEntity
8
05
100
AcDbLine
62
7
6
CONTINUOUS
10
327.2192190000
20
15.2599820000
11
327.6520320000
21
15.6927950000
0
LINE
5
3E9
100
AcDbEntity
8
05
100
AcDbLine
62
7
6
CONTINUOUS
10
325.5518220000
20
13.2743870000
11
326.2250940000
21
13.9476590000
0
LINE
5
3EA
100
AcDbEntity
8
05
100
AcDbLine
62
7
6
CONTINUOUS
10
327.5263210000
20
15.2488860000
11
327.9625450000
21
15.6851100000
0
LINE
5
3EB
100
AcDbEntity
8
05
100
AcDbLine
62
7
6
CONTINUOUS
10
325.8440880000
20
13.2484550000
11
326.3438720000
21
13.7482390000
0
LINE
5
3EC
100
AcDbEntity
8
05
100
AcDbLine
62
7
6
CONTINUOUS
10
327.8104210000
20
15.2147880000
11
328.2663950000
21
15.6707620000
0
LINE
5
3ED
100
AcDbEntity
8
05
100
AcDbLine
62
7
6
CONTINUOUS
10
326.1423120000
20
13.2284810000
11
326.5883040000
21
13.6744730000
0
LINE
5
3EE
100
AcDbEntity
8
05
100
AcDbLine
62
7
6
CONTINUOUS
10
328.0259950000
20
15.1121640000
11
328.5639730000
21
15.6501420000
0
LINE
5
3EF
100
AcDbEntity
8
05
100
AcDbLine
62
7
6
CONTINUOUS
10
326.4468470000
20
13.2148180000
11
326.8836220000
21
13.6515930000
0
LINE
5
3F0
100
AcDbEntity
8
05
100
AcDbLine
62
7
6
CONTINUOUS
10
328.1960220000
20
14.9639930000
11
328.8556280000
21
15.6235990000
0
LINE
5
3F1
100
AcDbEntity
8
05
100
AcDbLine
62
7
6
CONTINUOUS
10
327.3537820000
20
14.1217520000
11
327.5334060000
21
14.3013760000
0
LINE
5
3F2
100
AcDbEntity
8
05
100
AcDbLine
62
7
6
CONTINUOUS
10
326.7580900000
20
13.2078620000
11
327.2048330000
21
13.6546050000
0
LINE
5
3F3
100
AcDbEntity
8
05
100
AcDbLine
62
7
6
CONTINUOUS
10
328.5142200000
20
14.9639930000
11
329.1416670000
21
15.5914400000
0
LINE
5
3F4
100
AcDbEntity
8
05
100
AcDbLine
62
7
6
CONTINUOUS
10
327.6288760000
20
14.0786490000
11
327.8516040000
21
14.3013760000
0
LINE
5
3F5
100
AcDbEntity
8
05
100
AcDbLine
62
7
6
CONTINUOUS
10
327.0764930000
20
13.2080680000
11
327.5603930000
21
13.6919670000
0
LINE
5
3F6
100
AcDbEntity
8
05
100
AcDbLine
62
7
6
CONTINUOUS
10
328.8324180000
20
14.9639930000
11
329.4223670000
21
15.5539410000
0
LINE
5
3F7
100
AcDbEntity
8
05
100
AcDbLine
62
7
6
CONTINUOUS
10
327.9470740000
20
14.0786490000
11
328.1698020000
21
14.3013760000
0
LINE
5
3F8
100
AcDbEntity
8
05
100
AcDbLine
62
7
6
CONTINUOUS
10
327.4025750000
20
13.2159520000
11
328.4880000000
21
14.3013760000
0
LINE
5
3F9
100
AcDbEntity
8
05
100
AcDbLine
62
7
6
CONTINUOUS
10
329.1506160000
20
14.9639930000
11
329.6387420000
21
15.4521180000
0
LINE
5
3FA
100
AcDbEntity
8
05
100
AcDbLine
62
7
6
CONTINUOUS
10
327.7369360000
20
13.2321150000
11
328.8061980000
21
14.3013760000
0
LINE
5
3FB
100
AcDbEntity
8
05
100
AcDbLine
62
7
6
CONTINUOUS
10
329.4688140000
20
14.9639930000
11
329.7195490000
21
15.2147280000
0
LINE
5
3FC
100
AcDbEntity
8
05
100
AcDbLine
62
7
6
CONTINUOUS
10
328.0319720000
20
13.2089520000
11
329.1243960000
21
14.3013760000
0
LINE
5
3FD
100
AcDbEntity
8
05
100
AcDbLine
62
7
6
CONTINUOUS
10
328.3501700000
20
13.2089520000
11
329.4425940000
21
14.3013760000
0
LINE
5
3FE
100
AcDbEntity
8
05
100
AcDbLine
62
7
6
CONTINUOUS
10
328.6683680000
20
13.2089520000
11
329.5166470000
21
14.0572320000
0
LINE
5
3FF
100
AcDbEntity
8
05
100
AcDbLine
62
7
6
CONTINUOUS
10
328.9865660000
20
13.2089520000
11
329.4485290000
21
13.6709160000
0
LINE
5
400
100
AcDbEntity
8
05
100
AcDbLine
62
7
6
CONTINUOUS
10
329.3047640000
20
13.2089520000
11
329.3804110000
21
13.2846000000
0
LINE
5
401
100
AcDbEntity
8
05
100
AcDbLine
62
7
6
CONTINUOUS
10
304.8961450000
20
13.2089520000
11
304.6025370000
21
13.5025600000
0
LINE
5
402
100
AcDbEntity
8
05
100
AcDbLine
62
7
6
CONTINUOUS
10
303.1776440000
20
14.9274530000
11
302.4120250000
21
15.6930720000
0
LINE
5
403
100
AcDbEntity
8
05
100
AcDbLine
62
7
6
CONTINUOUS
10
303.9698570000
20
14.1352400000
11
303.6798790000
21
14.4252180000
0
LINE
5
404
100
AcDbEntity
8
05
100
AcDbLine
62
7
6
CONTINUOUS
10
303.6516590000
20
14.1352400000
11
303.3616810000
21
14.4252180000
0
LINE
5
405
100
AcDbEntity
8
05
100
AcDbLine
62
7
6
CONTINUOUS
10
303.1199030000
20
14.6669960000
11
302.0938270000
21
15.6930720000
0
LINE
5
406
100
AcDbEntity
8
05
100
AcDbLine
62
7
6
CONTINUOUS
10
303.3334610000
20
14.1352400000
11
301.7756290000
21
15.6930720000
0
LINE
5
407
100
AcDbEntity
8
05
100
AcDbLine
62
7
6
CONTINUOUS
10
303.0152630000
20
14.1352400000
11
301.6064980000
21
15.5440050000
0
LINE
5
408
100
AcDbEntity
8
05
100
AcDbLine
62
7
6
CONTINUOUS
10
302.9466770000
20
13.8856280000
11
301.5487570000
21
15.2835480000
0
LINE
5
409
100
AcDbEntity
8
05
100
AcDbLine
62
7
6
CONTINUOUS
10
302.8889360000
20
13.6251710000
11
301.4910150000
21
15.0230920000
0
LINE
5
40A
100
AcDbEntity
8
05
100
AcDbLine
62
7
6
CONTINUOUS
10
301.0462220000
20
15.4678850000
11
300.8210350000
21
15.6930720000
0
LINE
5
40B
100
AcDbEntity
8
05
100
AcDbLine
62
7
6
CONTINUOUS
10
302.8311940000
20
13.3647150000
11
301.4332730000
21
14.7626360000
0
LINE
5
40C
100
AcDbEntity
8
05
100
AcDbLine
62
7
6
CONTINUOUS
10
300.9884800000
20
15.2074290000
11
300.5028370000
21
15.6930720000
0
LINE
5
40D
100
AcDbEntity
8
05
100
AcDbLine
62
7
6
CONTINUOUS
10
302.6687580000
20
13.2089520000
11
301.3755310000
21
14.5021790000
0
LINE
5
40E
100
AcDbEntity
8
05
100
AcDbLine
62
7
6
CONTINUOUS
10
300.8056690000
20
15.0720420000
11
300.1846390000
21
15.6930720000
0
LINE
5
40F
100
AcDbEntity
8
05
100
AcDbLine
62
7
6
CONTINUOUS
10
302.3505600000
20
13.2089520000
11
301.3177890000
21
14.2417230000
0
LINE
5
410
100
AcDbEntity
8
05
100
AcDbLine
62
7
6
CONTINUOUS
10
300.4874710000
20
15.0720420000
11
299.8664410000
21
15.6930720000
0
LINE
5
411
100
AcDbEntity
8
05
100
AcDbLine
62
7
6
CONTINUOUS
10
302.0323620000
20
13.2089520000
11
301.2600480000
21
13.9812670000
0
LINE
5
412
100
AcDbEntity
8
05
100
AcDbLine
62
7
6
CONTINUOUS
10
300.1692730000
20
15.0720420000
11
299.5482430000
21
15.6930720000
0
LINE
5
413
100
AcDbEntity
8
05
100
AcDbLine
62
7
6
CONTINUOUS
10
301.7141640000
20
13.2089520000
11
301.2023060000
21
13.7208110000
0
LINE
5
414
100
AcDbEntity
8
05
100
AcDbLine
62
7
6
CONTINUOUS
10
299.8510750000
20
15.0720420000
11
299.2300450000
21
15.6930720000
0
LINE
5
415
100
AcDbEntity
8
05
100
AcDbLine
62
7
6
CONTINUOUS
10
301.3959660000
20
13.2089520000
11
301.1445640000
21
13.4603540000
0
LINE
5
416
100
AcDbEntity
8
05
100
AcDbLine
62
7
6
CONTINUOUS
10
299.5328760000
20
15.0720420000
11
298.9118470000
21
15.6930720000
0
LINE
5
417
100
AcDbEntity
8
05
100
AcDbLine
62
7
6
CONTINUOUS
10
299.3076510000
20
14.9790700000
11
298.5936480000
21
15.6930720000
0
LINE
5
418
100
AcDbEntity
8
05
100
AcDbLine
62
7
6
CONTINUOUS
10
299.2499090000
20
14.7186140000
11
298.2754500000
21
15.6930720000
0
LINE
5
419
100
AcDbEntity
8
05
100
AcDbLine
62
7
6
CONTINUOUS
10
299.1921670000
20
14.4581570000
11
297.9572520000
21
15.6930720000
0
LINE
5
41A
100
AcDbEntity
8
05
100
AcDbLine
62
7
6
CONTINUOUS
10
299.1344250000
20
14.1977010000
11
297.6390540000
21
15.6930720000
0
LINE
5
41B
100
AcDbEntity
8
05
100
AcDbLine
62
7
6
CONTINUOUS
10
299.0766830000
20
13.9372450000
11
297.3208560000
21
15.6930720000
0
LINE
5
41C
100
AcDbEntity
8
05
100
AcDbLine
62
7
6
CONTINUOUS
10
299.0189420000
20
13.6767880000
11
297.0026580000
21
15.6930720000
0
LINE
5
41D
100
AcDbEntity
8
05
100
AcDbLine
62
7
6
CONTINUOUS
10
298.9612000000
20
13.4163320000
11
297.5632790000
21
14.8142530000
0
LINE
5
41E
100
AcDbEntity
8
05
100
AcDbLine
62
7
6
CONTINUOUS
10
297.3054900000
20
15.0720420000
11
296.6844600000
21
15.6930720000
0
LINE
5
41F
100
AcDbEntity
8
05
100
AcDbLine
62
7
6
CONTINUOUS
10
298.8503820000
20
13.2089520000
11
297.5055370000
21
14.5537970000
0
LINE
5
420
100
AcDbEntity
8
05
100
AcDbLine
62
7
6
CONTINUOUS
10
296.9872920000
20
15.0720420000
11
296.3662620000
21
15.6930720000
0
LINE
5
421
100
AcDbEntity
8
05
100
AcDbLine
62
7
6
CONTINUOUS
10
298.5321840000
20
13.2089520000
11
297.4477960000
21
14.2933400000
0
LINE
5
422
100
AcDbEntity
8
05
100
AcDbLine
62
7
6
CONTINUOUS
10
296.6690940000
20
15.0720420000
11
296.1769590000
21
15.5641770000
0
LINE
5
423
100
AcDbEntity
8
05
100
AcDbLine
62
7
6
CONTINUOUS
10
298.2139860000
20
13.2089520000
11
297.3900540000
21
14.0328840000
0
LINE
5
424
100
AcDbEntity
8
05
100
AcDbLine
62
7
6
CONTINUOUS
10
295.7492670000
20
15.6736710000
11
295.7298660000
21
15.6930720000
0
LINE
5
425
100
AcDbEntity
8
05
100
AcDbLine
62
7
6
CONTINUOUS
10
296.3508960000
20
15.0720420000
11
296.1192170000
21
15.3037210000
0
LINE
5
426
100
AcDbEntity
8
05
100
AcDbLine
62
7
6
CONTINUOUS
10
297.8957880000
20
13.2089520000
11
297.3323120000
21
13.7724280000
0
LINE
5
427
100
AcDbEntity
8
05
100
AcDbLine
62
7
6
CONTINUOUS
10
295.6915250000
20
15.4132140000
11
295.4116680000
21
15.6930720000
0
LINE
5
428
100
AcDbEntity
8
05
100
AcDbLine
62
7
6
CONTINUOUS
10
297.5775900000
20
13.2089520000
11
297.2745700000
21
13.5119710000
0
LINE
5
429
100
AcDbEntity
8
05
100
AcDbLine
62
7
6
CONTINUOUS
10
295.6337840000
20
15.1527580000
11
295.0934700000
21
15.6930720000
0
LINE
5
42A
100
AcDbEntity
8
05
100
AcDbLine
62
7
6
CONTINUOUS
10
297.2593920000
20
13.2089520000
11
297.2168290000
21
13.2515150000
0
LINE
5
42B
100
AcDbEntity
8
05
100
AcDbLine
62
7
6
CONTINUOUS
10
295.5760420000
20
14.8923020000
11
294.7752720000
21
15.6930720000
0
LINE
5
42C
100
AcDbEntity
8
05
100
AcDbLine
62
7
6
CONTINUOUS
10
295.5183000000
20
14.6318460000
11
294.4570740000
21
15.6930720000
0
LINE
5
42D
100
AcDbEntity
8
05
100
AcDbLine
62
7
6
CONTINUOUS
10
295.4605580000
20
14.3713890000
11
294.1388760000
21
15.6930720000
0
LINE
5
42E
100
AcDbEntity
8
05
100
AcDbLine
62
7
6
CONTINUOUS
10
295.4028170000
20
14.1109330000
11
294.0084280000
21
15.5053220000
0
LINE
5
42F
100
AcDbEntity
8
05
100
AcDbLine
62
7
6
CONTINUOUS
10
295.3450750000
20
13.8504770000
11
293.9506860000
21
15.2448650000
0
LINE
5
430
100
AcDbEntity
8
05
100
AcDbLine
62
7
6
CONTINUOUS
10
295.2138080000
20
13.6635450000
11
293.8929450000
21
14.9844090000
0
LINE
5
431
100
AcDbEntity
8
05
100
AcDbLine
62
7
6
CONTINUOUS
10
295.0174480000
20
13.5417070000
11
293.8352030000
21
14.7239530000
0
LINE
5
432
100
AcDbEntity
8
05
100
AcDbLine
62
7
6
CONTINUOUS
10
294.8026520000
20
13.4383050000
11
293.7774610000
21
14.4634960000
0
LINE
5
433
100
AcDbEntity
8
05
100
AcDbLine
62
7
6
CONTINUOUS
10
294.5671730000
20
13.3555860000
11
293.7197190000
21
14.2030400000
0
LINE
5
434
100
AcDbEntity
8
05
100
AcDbLine
62
7
6
CONTINUOUS
10
294.3151830000
20
13.2893790000
11
293.6187120000
21
13.9858500000
0
LINE
5
435
100
AcDbEntity
8
05
100
AcDbLine
62
7
6
CONTINUOUS
10
292.1186190000
20
15.4859430000
11
291.9114890000
21
15.6930720000
0
LINE
5
436
100
AcDbEntity
8
05
100
AcDbLine
62
7
6
CONTINUOUS
10
294.0511440000
20
13.2352190000
11
293.4221760000
21
13.8641880000
0
LINE
5
437
100
AcDbEntity
8
05
100
AcDbLine
62
7
6
CONTINUOUS
10
292.0608770000
20
15.2254860000
11
291.5932910000
21
15.6930720000
0
LINE
5
438
100
AcDbEntity
8
05
100
AcDbLine
62
7
6
CONTINUOUS
10
293.7736700000
20
13.1944950000
11
293.1774040000
21
13.7907610000
0
LINE
5
439
100
AcDbEntity
8
05
100
AcDbLine
62
7
6
CONTINUOUS
10
292.0031350000
20
14.9650300000
11
291.2750930000
21
15.6930720000
0
LINE
5
43A
100
AcDbEntity
8
05
100
AcDbLine
62
7
6
CONTINUOUS
10
293.4851820000
20
13.1647850000
11
292.8938350000
21
13.7561320000
0
LINE
5
43B
100
AcDbEntity
8
05
100
AcDbLine
62
7
6
CONTINUOUS
10
291.9453930000
20
14.7045740000
11
290.9568950000
21
15.6930720000
0
LINE
5
43C
100
AcDbEntity
8
05
100
AcDbLine
62
7
6
CONTINUOUS
10
293.1877790000
20
13.1439900000
11
292.5712750000
21
13.7604950000
0
LINE
5
43D
100
AcDbEntity
8
05
100
AcDbLine
62
7
6
CONTINUOUS
10
291.8876520000
20
14.4441170000
11
290.6386970000
21
15.6930720000
0
LINE
5
43E
100
AcDbEntity
8
05
100
AcDbLine
62
7
6
CONTINUOUS
10
292.8806500000
20
13.1329210000
11
292.1766500000
21
13.8369210000
0
LINE
5
43F
100
AcDbEntity
8
05
100
AcDbLine
62
7
6
CONTINUOUS
10
291.8299100000
20
14.1836610000
11
290.4355100000
21
15.5780610000
0
LINE
5
440
100
AcDbEntity
8
05
100
AcDbLine
62
7
6
CONTINUOUS
10
292.5628170000
20
13.1325560000
11
290.3777680000
21
15.3176050000
0
LINE
5
441
100
AcDbEntity
8
05
100
AcDbLine
62
7
6
CONTINUOUS
10
292.2330740000
20
13.1441010000
11
290.3200260000
21
15.0571490000
0
LINE
5
442
100
AcDbEntity
8
05
100
AcDbLine
62
7
6
CONTINUOUS
10
289.6846080000
20
15.6925670000
11
289.6841030000
21
15.6930720000
0
LINE
5
443
100
AcDbEntity
8
05
100
AcDbLine
62
7
6
CONTINUOUS
10
291.8899190000
20
13.1690580000
11
290.2622840000
21
14.7966920000
0
LINE
5
444
100
AcDbEntity
8
05
100
AcDbLine
62
7
6
CONTINUOUS
10
289.6268660000
20
15.4321110000
11
289.3659050000
21
15.6930720000
0
LINE
5
445
100
AcDbEntity
8
05
100
AcDbLine
62
7
6
CONTINUOUS
10
291.5309040000
20
13.2098750000
11
290.2045430000
21
14.5362360000
0
LINE
5
446
100
AcDbEntity
8
05
100
AcDbLine
62
7
6
CONTINUOUS
10
289.4876850000
20
15.2530940000
11
289.0477070000
21
15.6930720000
0
LINE
5
447
100
AcDbEntity
8
05
100
AcDbLine
62
7
6
CONTINUOUS
10
291.1408320000
20
13.2817490000
11
290.1468010000
21
14.2757800000
0
LINE
5
448
100
AcDbEntity
8
05
100
AcDbLine
62
7
6
CONTINUOUS
10
289.1694870000
20
15.2530940000
11
288.7295090000
21
15.6930720000
0
LINE
5
449
100
AcDbEntity
8
05
100
AcDbLine
62
7
6
CONTINUOUS
10
290.6959590000
20
13.4084240000
11
290.0890590000
21
14.0153240000
0
LINE
5
44A
100
AcDbEntity
8
05
100
AcDbLine
62
7
6
CONTINUOUS
10
288.8512890000
20
15.2530940000
11
288.4113110000
21
15.6930720000
0
LINE
5
44B
100
AcDbEntity
8
05
100
AcDbLine
62
7
6
CONTINUOUS
10
289.2052730000
20
14.5809110000
11
289.1901830000
21
14.5960010000
0
LINE
5
44C
100
AcDbEntity
8
05
100
AcDbLine
62
7
6
CONTINUOUS
10
288.5330910000
20
15.2530940000
11
288.0931130000
21
15.6930720000
0
LINE
5
44D
100
AcDbEntity
8
05
100
AcDbLine
62
7
6
CONTINUOUS
10
289.1475320000
20
14.3204550000
11
288.8719850000
21
14.5960010000
0
LINE
5
44E
100
AcDbEntity
8
05
100
AcDbLine
62
7
6
CONTINUOUS
10
288.2148930000
20
15.2530940000
11
287.7749150000
21
15.6930720000
0
LINE
5
44F
100
AcDbEntity
8
05
100
AcDbLine
62
7
6
CONTINUOUS
10
288.8437660000
20
14.3060230000
11
288.5537870000
21
14.5960010000
0
LINE
5
450
100
AcDbEntity
8
05
100
AcDbLine
62
7
6
CONTINUOUS
10
287.8966950000
20
15.2530940000
11
287.4567170000
21
15.6930720000
0
LINE
5
451
100
AcDbEntity
8
05
100
AcDbLine
62
7
6
CONTINUOUS
10
289.2226740000
20
13.6089170000
11
289.1826600000
21
13.6489310000
0
LINE
5
452
100
AcDbEntity
8
05
100
AcDbLine
62
7
6
CONTINUOUS
10
287.5784970000
20
15.2530940000
11
287.1385190000
21
15.6930720000
0
LINE
5
453
100
AcDbEntity
8
05
100
AcDbLine
62
7
6
CONTINUOUS
10
288.5255680000
20
14.3060230000
11
288.2355890000
21
14.5960010000
0
LINE
5
454
100
AcDbEntity
8
05
100
AcDbLine
62
7
6
CONTINUOUS
10
289.1649320000
20
13.3484610000
11
288.8644620000
21
13.6489310000
0
LINE
5
455
100
AcDbEntity
8
05
100
AcDbLine
62
7
6
CONTINUOUS
10
287.2602990000
20
15.2530940000
11
286.8203210000
21
15.6930720000
0
LINE
5
456
100
AcDbEntity
8
05
100
AcDbLine
62
7
6
CONTINUOUS
10
288.2073700000
20
14.3060230000
11
287.9173910000
21
14.5960010000
0
LINE
5
457
100
AcDbEntity
8
05
100
AcDbLine
62
7
6
CONTINUOUS
10
288.9862420000
20
13.2089520000
11
288.5462640000
21
13.6489310000
0
LINE
5
458
100
AcDbEntity
8
05
100
AcDbLine
62
7
6
CONTINUOUS
10
286.9421010000
20
15.2530940000
11
286.5021230000
21
15.6930720000
0
LINE
5
459
100
AcDbEntity
8
05
100
AcDbLine
62
7
6
CONTINUOUS
10
287.8891720000
20
14.3060230000
11
287.5991930000
21
14.5960010000
0
LINE
5
45A
100
AcDbEntity
8
05
100
AcDbLine
62
7
6
CONTINUOUS
10
288.6680440000
20
13.2089520000
11
288.2280660000
21
13.6489310000
0
LINE
5
45B
100
AcDbEntity
8
05
100
AcDbLine
62
7
6
CONTINUOUS
10
286.6348580000
20
15.2421380000
11
286.1839240000
21
15.6930720000
0
LINE
5
45C
100
AcDbEntity
8
05
100
AcDbLine
62
7
6
CONTINUOUS
10
287.5709740000
20
14.3060230000
11
287.2809950000
21
14.5960010000
0
LINE
5
45D
100
AcDbEntity
8
05
100
AcDbLine
62
7
6
CONTINUOUS
10
288.3498460000
20
13.2089520000
11
287.9098680000
21
13.6489310000
0
LINE
5
45E
100
AcDbEntity
8
05
100
AcDbLine
62
7
6
CONTINUOUS
10
286.5771160000
20
14.9816820000
11
285.8657260000
21
15.6930720000
0
LINE
5
45F
100
AcDbEntity
8
05
100
AcDbLine
62
7
6
CONTINUOUS
10
287.2527750000
20
14.3060230000
11
286.9627970000
21
14.5960010000
0
LINE
5
460
100
AcDbEntity
8
05
100
AcDbLine
62
7
6
CONTINUOUS
10
288.0316480000
20
13.2089520000
11
287.5916700000
21
13.6489310000
0
LINE
5
461
100
AcDbEntity
8
05
100
AcDbLine
62
7
6
CONTINUOUS
10
286.5193740000
20
14.7212260000
11
285.5475280000
21
15.6930720000
0
LINE
5
462
100
AcDbEntity
8
05
100
AcDbLine
62
7
6
CONTINUOUS
10
286.9345770000
20
14.3060230000
11
286.6445990000
21
14.5960010000
0
LINE
5
463
100
AcDbEntity
8
05
100
AcDbLine
62
7
6
CONTINUOUS
10
287.7134500000
20
13.2089520000
11
287.2734720000
21
13.6489310000
0
LINE
5
464
100
AcDbEntity
8
05
100
AcDbLine
62
7
6
CONTINUOUS
10
286.6163790000
20
14.3060230000
11
285.2293300000
21
15.6930720000
0
LINE
5
465
100
AcDbEntity
8
05
100
AcDbLine
62
7
6
CONTINUOUS
10
287.3952520000
20
13.2089520000
11
286.9552740000
21
13.6489310000
0
LINE
5
466
100
AcDbEntity
8
05
100
AcDbLine
62
7
6
CONTINUOUS
10
286.4038910000
20
14.2003130000
11
285.0059700000
21
15.5982340000
0
LINE
5
467
100
AcDbEntity
8
05
100
AcDbLine
62
7
6
CONTINUOUS
10
287.0770540000
20
13.2089520000
11
286.6370750000
21
13.6489310000
0
LINE
5
468
100
AcDbEntity
8
05
100
AcDbLine
62
7
6
CONTINUOUS
10
286.3461490000
20
13.9398570000
11
284.9482280000
21
15.3377780000
0
LINE
5
469
100
AcDbEntity
8
05
100
AcDbLine
62
7
6
CONTINUOUS
10
286.7588560000
20
13.2089520000
11
286.3188770000
21
13.6489310000
0
LINE
5
46A
100
AcDbEntity
8
05
100
AcDbLine
62
7
6
CONTINUOUS
10
286.2884070000
20
13.6794010000
11
284.8904870000
21
15.0773220000
0
LINE
5
46B
100
AcDbEntity
8
05
100
AcDbLine
62
7
6
CONTINUOUS
10
286.4406580000
20
13.2089520000
11
284.8327450000
21
14.8168650000
0
LINE
5
46C
100
AcDbEntity
8
05
100
AcDbLine
62
7
6
CONTINUOUS
10
284.1337840000
20
15.5158260000
11
283.9565380000
21
15.6930720000
0
LINE
5
46D
100
AcDbEntity
8
05
100
AcDbLine
62
7
6
CONTINUOUS
10
286.1224600000
20
13.2089520000
11
284.7750030000
21
14.5564090000
0
LINE
5
46E
100
AcDbEntity
8
05
100
AcDbLine
62
7
6
CONTINUOUS
10
284.0760430000
20
15.2553690000
11
283.6383400000
21
15.6930720000
0
LINE
5
46F
100
AcDbEntity
8
05
100
AcDbLine
62
7
6
CONTINUOUS
10
285.8042620000
20
13.2089520000
11
284.7172610000
21
14.2959530000
0
LINE
5
470
100
AcDbEntity
8
05
100
AcDbLine
62
7
6
CONTINUOUS
10
284.0183010000
20
14.9949130000
11
283.3201420000
21
15.6930720000
0
LINE
5
471
100
AcDbEntity
8
05
100
AcDbLine
62
7
6
CONTINUOUS
10
285.4860640000
20
13.2089520000
11
284.6595200000
21
14.0354960000
0
LINE
5
472
100
AcDbEntity
8
05
100
AcDbLine
62
7
6
CONTINUOUS
10
283.9605590000
20
14.7344570000
11
283.0019440000
21
15.6930720000
0
LINE
5
473
100
AcDbEntity
8
05
100
AcDbLine
62
7
6
CONTINUOUS
10
285.1678660000
20
13.2089520000
11
284.6017780000
21
13.7750400000
0
LINE
5
474
100
AcDbEntity
8
05
100
AcDbLine
62
7
6
CONTINUOUS
10
283.9028170000
20
14.4740000000
11
282.6837460000
21
15.6930720000
0
LINE
5
475
100
AcDbEntity
8
05
100
AcDbLine
62
7
6
CONTINUOUS
10
284.8496680000
20
13.2089520000
11
284.5440360000
21
13.5145840000
0
LINE
5
476
100
AcDbEntity
8
05
100
AcDbLine
62
7
6
CONTINUOUS
10
283.8450760000
20
14.2135440000
11
282.4471550000
21
15.6114650000
0
LINE
5
477
100
AcDbEntity
8
05
100
AcDbLine
62
7
6
CONTINUOUS
10
284.5314700000
20
13.2089520000
11
284.4862940000
21
13.2541280000
0
LINE
5
478
100
AcDbEntity
8
05
100
AcDbLine
62
7
6
CONTINUOUS
10
283.7873340000
20
13.9530880000
11
282.3894130000
21
15.3510090000
0
LINE
5
479
100
AcDbEntity
8
05
100
AcDbLine
62
7
6
CONTINUOUS
10
283.7295920000
20
13.6926320000
11
282.3316710000
21
15.0905520000
0
LINE
5
47A
100
AcDbEntity
8
05
100
AcDbLine
62
7
6
CONTINUOUS
10
283.6718500000
20
13.4321750000
11
282.2739300000
21
14.8300960000
0
LINE
5
47B
100
AcDbEntity
8
05
100
AcDbLine
62
7
6
CONTINUOUS
10
283.5768750000
20
13.2089520000
11
282.0733040000
21
14.7125240000
0
LINE
5
47C
100
AcDbEntity
8
05
100
AcDbLine
62
7
6
CONTINUOUS
10
283.2586770000
20
13.2089520000
11
280.9995820000
21
15.4680470000
0
LINE
5
47D
100
AcDbEntity
8
05
100
AcDbLine
62
7
6
CONTINUOUS
10
282.9404790000
20
13.2089520000
11
280.4563600000
21
15.6930720000
0
LINE
5
47E
100
AcDbEntity
8
05
100
AcDbLine
62
7
6
CONTINUOUS
10
282.6222810000
20
13.2089520000
11
280.1381610000
21
15.6930720000
0
LINE
5
47F
100
AcDbEntity
8
05
100
AcDbLine
62
7
6
CONTINUOUS
10
282.3040830000
20
13.2089520000
11
279.8199630000
21
15.6930720000
0
LINE
5
480
100
AcDbEntity
8
05
100
AcDbLine
62
7
6
CONTINUOUS
10
281.9858850000
20
13.2089520000
11
279.5017650000
21
15.6930720000
0
LINE
5
481
100
AcDbEntity
8
05
100
AcDbLine
62
7
6
CONTINUOUS
10
281.5426650000
20
13.3339750000
11
279.1835670000
21
15.6930720000
0
LINE
5
482
100
AcDbEntity
8
05
100
AcDbLine
62
7
6
CONTINUOUS
10
280.0963650000
20
14.4620760000
11
278.8653690000
21
15.6930720000
0
LINE
5
483
100
AcDbEntity
8
05
100
AcDbLine
62
7
6
CONTINUOUS
10
280.0386240000
20
14.2016200000
11
278.6407030000
21
15.5995400000
0
LINE
5
484
100
AcDbEntity
8
05
100
AcDbLine
62
7
6
CONTINUOUS
10
279.9808820000
20
13.9411630000
11
278.5829610000
21
15.3390840000
0
LINE
5
485
100
AcDbEntity
8
05
100
AcDbLine
62
7
6
CONTINUOUS
10
279.9231400000
20
13.6807070000
11
278.5252190000
21
15.0786280000
0
LINE
5
486
100
AcDbEntity
8
05
100
AcDbLine
62
7
6
CONTINUOUS
10
279.8653980000
20
13.4202510000
11
278.4674780000
21
14.8181710000
0
LINE
5
487
100
AcDbEntity
8
05
100
AcDbLine
62
7
6
CONTINUOUS
10
279.7584990000
20
13.2089520000
11
278.4097360000
21
14.5577150000
0
LINE
5
488
100
AcDbEntity
8
05
100
AcDbLine
62
7
6
CONTINUOUS
10
279.4403010000
20
13.2089520000
11
278.3519940000
21
14.2972590000
0
LINE
5
489
100
AcDbEntity
8
05
100
AcDbLine
62
7
6
CONTINUOUS
10
279.1221030000
20
13.2089520000
11
278.2942520000
21
14.0368030000
0
LINE
5
48A
100
AcDbEntity
8
05
100
AcDbLine
62
7
6
CONTINUOUS
10
278.8039050000
20
13.2089520000
11
278.2365110000
21
13.7763460000
0
LINE
5
48B
100
AcDbEntity
8
05
100
AcDbLine
62
7
6
CONTINUOUS
10
278.4857070000
20
13.2089520000
11
278.1787690000
21
13.5158900000
0
LINE
5
48C
100
AcDbEntity
8
05
100
AcDbLine
62
7
6
CONTINUOUS
10
278.1675080000
20
13.2089520000
11
278.1210270000
21
13.2554340000
0
LINE
5
48D
100
AcDbEntity
8
05
100
AcDbLine
62
7
6
CONTINUOUS
10
305.2143430000
20
13.2089520000
11
304.6229950000
21
13.8003000000
0
LINE
5
48E
100
AcDbEntity
8
05
100
AcDbLine
62
7
6
CONTINUOUS
10
303.2353860000
20
15.1879090000
11
302.7302230000
21
15.6930720000
0
LINE
5
48F
100
AcDbEntity
8
05
100
AcDbLine
62
7
6
CONTINUOUS
10
304.2880550000
20
14.1352400000
11
303.9980770000
21
14.4252180000
0
LINE
5
490
100
AcDbEntity
8
05
100
AcDbLine
62
7
6
CONTINUOUS
10
305.5325410000
20
13.2089520000
11
304.3162750000
21
14.4252180000
0
LINE
5
491
100
AcDbEntity
8
05
100
AcDbLine
62
7
6
CONTINUOUS
10
303.4884000000
20
15.2530940000
11
303.0484210000
21
15.6930720000
0
LINE
5
492
100
AcDbEntity
8
05
100
AcDbLine
62
7
6
CONTINUOUS
10
305.8507390000
20
13.2089520000
11
304.5865410000
21
14.4731500000
0
LINE
5
493
100
AcDbEntity
8
05
100
AcDbLine
62
7
6
CONTINUOUS
10
303.8065980000
20
15.2530940000
11
303.3666190000
21
15.6930720000
0
LINE
5
494
100
AcDbEntity
8
05
100
AcDbLine
62
7
6
CONTINUOUS
10
306.1689370000
20
13.2089520000
11
304.7895650000
21
14.5883250000
0
LINE
5
495
100
AcDbEntity
8
05
100
AcDbLine
62
7
6
CONTINUOUS
10
304.1247960000
20
15.2530940000
11
303.6848170000
21
15.6930720000
0
LINE
5
496
100
AcDbEntity
8
05
100
AcDbLine
62
7
6
CONTINUOUS
10
306.3114220000
20
13.3846650000
11
304.9276840000
21
14.7684040000
0
LINE
5
497
100
AcDbEntity
8
05
100
AcDbLine
62
7
6
CONTINUOUS
10
304.4429940000
20
15.2530940000
11
304.0030150000
21
15.6930720000
0
LINE
5
498
100
AcDbEntity
8
05
100
AcDbLine
62
7
6
CONTINUOUS
10
306.3236390000
20
13.6906470000
11
304.9146710000
21
15.0996140000
0
LINE
5
499
100
AcDbEntity
8
05
100
AcDbLine
62
7
6
CONTINUOUS
10
304.7916150000
20
15.2226700000
11
304.3212130000
21
15.6930720000
0
LINE
5
49A
100
AcDbEntity
8
05
100
AcDbLine
62
7
6
CONTINUOUS
10
306.3444350000
20
13.9880480000
11
304.6394110000
21
15.6930720000
0
LINE
5
49B
100
AcDbEntity
8
05
100
AcDbLine
62
7
6
CONTINUOUS
10
307.4417290000
20
13.2089520000
11
307.1979220000
21
13.4527590000
0
LINE
5
49C
100
AcDbEntity
8
05
100
AcDbLine
62
7
6
CONTINUOUS
10
306.2866150000
20
14.3640660000
11
304.9576100000
21
15.6930720000
0
LINE
5
49D
100
AcDbEntity
8
05
100
AcDbLine
62
7
6
CONTINUOUS
10
307.7599270000
20
13.2089520000
11
307.2556640000
21
13.7132160000
0
LINE
5
49E
100
AcDbEntity
8
05
100
AcDbLine
62
7
6
CONTINUOUS
10
306.4817000000
20
14.4871790000
11
305.2758080000
21
15.6930720000
0
LINE
5
49F
100
AcDbEntity
8
05
100
AcDbLine
62
7
6
CONTINUOUS
10
308.0781250000
20
13.2089520000
11
307.3134060000
21
13.9736720000
0
LINE
5
4A0
100
AcDbEntity
8
05
100
AcDbLine
62
7
6
CONTINUOUS
10
306.6502860000
20
14.6367910000
11
305.5940060000
21
15.6930720000
0
LINE
5
4A1
100
AcDbEntity
8
05
100
AcDbLine
62
7
6
CONTINUOUS
10
308.3963230000
20
13.2089520000
11
307.3711480000
21
14.2341280000
0
LINE
5
4A2
100
AcDbEntity
8
05
100
AcDbLine
62
7
6
CONTINUOUS
10
306.7853460000
20
14.8199300000
11
305.9122040000
21
15.6930720000
0
LINE
5
4A3
100
AcDbEntity
8
05
100
AcDbLine
62
7
6
CONTINUOUS
10
308.7145210000
20
13.2089520000
11
307.4288890000
21
14.4945840000
0
LINE
5
4A4
100
AcDbEntity
8
05
100
AcDbLine
62
7
6
CONTINUOUS
10
306.8709020000
20
15.0525710000
11
306.2554280000
21
15.6680460000
0
LINE
5
4A5
100
AcDbEntity
8
05
100
AcDbLine
62
7
6
CONTINUOUS
10
308.8845520000
20
13.3571200000
11
307.4866310000
21
14.7550410000
0
LINE
5
4A6
100
AcDbEntity
8
05
100
AcDbLine
62
7
6
CONTINUOUS
10
308.9422940000
20
13.6175760000
11
307.5443730000
21
15.0154970000
0
LINE
5
4A7
100
AcDbEntity
8
05
100
AcDbLine
62
7
6
CONTINUOUS
10
309.0000350000
20
13.8780330000
11
307.6021150000
21
15.2759530000
0
LINE
5
4A8
100
AcDbEntity
8
05
100
AcDbLine
62
7
6
CONTINUOUS
10
309.9873140000
20
13.2089520000
11
309.8838210000
21
13.3124450000
0
LINE
5
4A9
100
AcDbEntity
8
05
100
AcDbLine
62
7
6
CONTINUOUS
10
309.0577770000
20
14.1384890000
11
307.6598560000
21
15.5364100000
0
LINE
5
4AA
100
AcDbEntity
8
05
100
AcDbLine
62
7
6
CONTINUOUS
10
310.3055120000
20
13.2089520000
11
309.9415630000
21
13.5729010000
0
LINE
5
4AB
100
AcDbEntity
8
05
100
AcDbLine
62
7
6
CONTINUOUS
10
309.1155190000
20
14.3989450000
11
307.8213920000
21
15.6930720000
0
LINE
5
4AC
100
AcDbEntity
8
05
100
AcDbLine
62
7
6
CONTINUOUS
10
310.6237100000
20
13.2089520000
11
309.9993050000
21
13.8333570000
0
LINE
5
4AD
100
AcDbEntity
8
05
100
AcDbLine
62
7
6
CONTINUOUS
10
309.1732610000
20
14.6594010000
11
308.1395900000
21
15.6930720000
0
LINE
5
4AE
100
AcDbEntity
8
05
100
AcDbLine
62
7
6
CONTINUOUS
10
310.9419080000
20
13.2089520000
11
310.0570460000
21
14.0938140000
0
LINE
5
4AF
100
AcDbEntity
8
05
100
AcDbLine
62
7
6
CONTINUOUS
10
309.2310020000
20
14.9198580000
11
308.4577880000
21
15.6930720000
0
LINE
5
4B0
100
AcDbEntity
8
05
100
AcDbLine
62
7
6
CONTINUOUS
10
311.2601060000
20
13.2089520000
11
310.1147880000
21
14.3542700000
0
LINE
5
4B1
100
AcDbEntity
8
05
100
AcDbLine
62
7
6
CONTINUOUS
10
309.2887440000
20
15.1803140000
11
308.7759860000
21
15.6930720000
0
LINE
5
4B2
100
AcDbEntity
8
05
100
AcDbLine
62
7
6
CONTINUOUS
10
311.5069090000
20
13.2803470000
11
310.1725300000
21
14.6147260000
0
LINE
5
4B3
100
AcDbEntity
8
05
100
AcDbLine
62
7
6
CONTINUOUS
10
309.3464860000
20
15.4407700000
11
309.0941840000
21
15.6930720000
0
LINE
5
4B4
100
AcDbEntity
8
05
100
AcDbLine
62
7
6
CONTINUOUS
10
311.5646510000
20
13.5408040000
11
310.2302720000
21
14.8751820000
0
LINE
5
4B5
100
AcDbEntity
8
05
100
AcDbLine
62
7
6
CONTINUOUS
10
311.6223920000
20
13.8012600000
11
310.2880140000
21
15.1356390000
0
LINE
5
4B6
100
AcDbEntity
8
05
100
AcDbLine
62
7
6
CONTINUOUS
10
311.8272750000
20
13.9145760000
11
310.3457550000
21
15.3960950000
0
LINE
5
4B7
100
AcDbEntity
8
05
100
AcDbLine
62
7
6
CONTINUOUS
10
312.0503950000
20
14.0096540000
11
310.4034970000
21
15.6565510000
0
LINE
5
4B8
100
AcDbEntity
8
05
100
AcDbLine
62
7
6
CONTINUOUS
10
312.2735140000
20
14.1047320000
11
310.6851740000
21
15.6930720000
0
LINE
5
4B9
100
AcDbEntity
8
05
100
AcDbLine
62
7
6
CONTINUOUS
10
313.4874920000
20
13.2089520000
11
311.0033720000
21
15.6930720000
0
LINE
5
4BA
100
AcDbEntity
8
05
100
AcDbLine
62
7
6
CONTINUOUS
10
313.8056900000
20
13.2089520000
11
312.0702760000
21
14.9443670000
0
LINE
5
4BB
100
AcDbEntity
8
05
100
AcDbLine
62
7
6
CONTINUOUS
10
311.9111010000
20
15.1035410000
11
311.3215710000
21
15.6930720000
0
LINE
5
4BC
100
AcDbEntity
8
05
100
AcDbLine
62
7
6
CONTINUOUS
10
314.1238880000
20
13.2089520000
11
312.2933950000
21
15.0394450000
0
LINE
5
4BD
100
AcDbEntity
8
05
100
AcDbLine
62
7
6
CONTINUOUS
10
311.9688430000
20
15.3639980000
11
311.6397690000
21
15.6930720000
0
LINE
5
4BE
100
AcDbEntity
8
05
100
AcDbLine
62
7
6
CONTINUOUS
10
314.4420860000
20
13.2089520000
11
312.5165150000
21
15.1345230000
0
LINE
5
4BF
100
AcDbEntity
8
05
100
AcDbLine
62
7
6
CONTINUOUS
10
312.0265850000
20
15.6244540000
11
311.9579670000
21
15.6930720000
0
LINE
5
4C0
100
AcDbEntity
8
05
100
AcDbLine
62
7
6
CONTINUOUS
10
314.7602840000
20
13.2089520000
11
312.7396350000
21
15.2296020000
0
LINE
5
4C1
100
AcDbEntity
8
05
100
AcDbLine
62
7
6
CONTINUOUS
10
315.0784820000
20
13.2089520000
11
312.9627550000
21
15.3246800000
0
LINE
5
4C2
100
AcDbEntity
8
05
100
AcDbLine
62
7
6
CONTINUOUS
10
315.3966810000
20
13.2089520000
11
313.1858740000
21
15.4197580000
0
LINE
5
4C3
100
AcDbEntity
8
05
100
AcDbLine
62
7
6
CONTINUOUS
10
314.0584720000
20
14.8653590000
11
313.4089940000
21
15.5148370000
0
LINE
5
4C4
100
AcDbEntity
8
05
100
AcDbLine
62
7
6
CONTINUOUS
10
314.2815920000
20
14.9604370000
11
313.6321140000
21
15.6099150000
0
LINE
5
4C5
100
AcDbEntity
8
05
100
AcDbLine
62
7
6
CONTINUOUS
10
314.5047120000
20
15.0555150000
11
313.8671550000
21
15.6930720000
0
LINE
5
4C6
100
AcDbEntity
8
05
100
AcDbLine
62
7
6
CONTINUOUS
10
314.7278310000
20
15.1505930000
11
314.1853530000
21
15.6930720000
0
LINE
5
4C7
100
AcDbEntity
8
05
100
AcDbLine
62
7
6
CONTINUOUS
10
314.9509510000
20
15.2456720000
11
314.5035510000
21
15.6930720000
0
LINE
5
4C8
100
AcDbEntity
8
05
100
AcDbLine
62
7
6
CONTINUOUS
10
315.1740710000
20
15.3407500000
11
314.8217490000
21
15.6930720000
0
LINE
5
4C9
100
AcDbEntity
8
05
100
AcDbLine
62
7
6
CONTINUOUS
10
315.3971910000
20
15.4358280000
11
315.1399470000
21
15.6930720000
0
LINE
5
4CA
100
AcDbEntity
8
05
100
AcDbLine
62
7
6
CONTINUOUS
10
315.6203100000
20
15.5309070000
11
315.4581450000
21
15.6930720000
0
LINE
5
4CB
100
AcDbEntity
8
05
100
AcDbLine
62
7
6
CONTINUOUS
10
315.8434300000
20
15.6259850000
11
315.7763430000
21
15.6930720000
0
LINE
5
4CC
100
AcDbEntity
8
05
100
AcDbLine
62
7
6
CONTINUOUS
10
318.5786610000
20
13.2089520000
11
318.5132270000
21
13.2743870000
0
LINE
5
4CD
100
AcDbEntity
8
05
100
AcDbLine
62
7
6
CONTINUOUS
10
318.8968590000
20
13.2089520000
11
318.6495970000
21
13.4562140000
0
LINE
5
4CE
100
AcDbEntity
8
05
100
AcDbLine
62
7
6
CONTINUOUS
10
319.2150570000
20
13.2089520000
11
318.7859680000
21
13.6380420000
0
LINE
5
4CF
100
AcDbEntity
8
05
100
AcDbLine
62
7
6
CONTINUOUS
10
319.5332550000
20
13.2089520000
11
318.9223380000
21
13.8198690000
0
LINE
5
4D0
100
AcDbEntity
8
05
100
AcDbLine
62
7
6
CONTINUOUS
10
319.8514530000
20
13.2089520000
11
319.0587090000
21
14.0016960000
0
LINE
5
4D1
100
AcDbEntity
8
05
100
AcDbLine
62
7
6
CONTINUOUS
10
320.1528720000
20
13.2257320000
11
319.1950800000
21
14.1835240000
0
LINE
5
4D2
100
AcDbEntity
8
05
100
AcDbLine
62
7
6
CONTINUOUS
10
320.2892420000
20
13.4075590000
11
319.3314500000
21
14.3653510000
0
LINE
5
4D3
100
AcDbEntity
8
05
100
AcDbLine
62
7
6
CONTINUOUS
10
320.4256130000
20
13.5893870000
11
319.4678210000
21
14.5471790000
0
LINE
5
4D4
100
AcDbEntity
8
05
100
AcDbLine
62
7
6
CONTINUOUS
10
320.6442140000
20
13.6889840000
11
319.6041910000
21
14.7290060000
0
LINE
5
4D5
100
AcDbEntity
8
05
100
AcDbLine
62
7
6
CONTINUOUS
10
320.9624120000
20
13.6889840000
11
319.7405620000
21
14.9108340000
0
LINE
5
4D6
100
AcDbEntity
8
05
100
AcDbLine
62
7
6
CONTINUOUS
10
321.2806100000
20
13.6889840000
11
320.9074220000
21
14.0621710000
0
LINE
5
4D7
100
AcDbEntity
8
05
100
AcDbLine
62
7
6
CONTINUOUS
10
320.8347250000
20
14.1348690000
11
319.8769330000
21
15.0926610000
0
LINE
5
4D8
100
AcDbEntity
8
05
100
AcDbLine
62
7
6
CONTINUOUS
10
321.5988080000
20
13.6889840000
11
321.2256200000
21
14.0621710000
0
LINE
5
4D9
100
AcDbEntity
8
05
100
AcDbLine
62
7
6
CONTINUOUS
10
320.9710950000
20
14.3166960000
11
320.0133030000
21
15.2744890000
0
LINE
5
4DA
100
AcDbEntity
8
05
100
AcDbLine
62
7
6
CONTINUOUS
10
322.3970380000
20
13.2089520000
11
322.3290410000
21
13.2769490000
0
LINE
5
4DB
100
AcDbEntity
8
05
100
AcDbLine
62
7
6
CONTINUOUS
10
321.1074660000
20
14.4985240000
11
320.1496740000
21
15.4563160000
0
LINE
5
4DC
100
AcDbEntity
8
05
100
AcDbLine
62
7
6
CONTINUOUS
10
321.9170060000
20
13.6889840000
11
321.5438180000
21
14.0621710000
0
LINE
5
4DD
100
AcDbEntity
8
05
100
AcDbLine
62
7
6
CONTINUOUS
10
322.7152360000
20
13.2089520000
11
321.8620160000
21
14.0621710000
0
LINE
5
4DE
100
AcDbEntity
8
05
100
AcDbLine
62
7
6
CONTINUOUS
10
321.2438370000
20
14.6803510000
11
320.2860440000
21
15.6381440000
0
LINE
5
4DF
100
AcDbEntity
8
05
100
AcDbLine
62
7
6
CONTINUOUS
10
323.0334340000
20
13.2089520000
11
322.1169090000
21
14.1254770000
0
LINE
5
4E0
100
AcDbEntity
8
05
100
AcDbLine
62
7
6
CONTINUOUS
10
321.3802070000
20
14.8621790000
11
320.5485850000
21
15.6938010000
0
LINE
5
4E1
100
AcDbEntity
8
05
100
AcDbLine
62
7
6
CONTINUOUS
10
323.3516320000
20
13.2089520000
11
322.0108430000
21
14.5497410000
0
LINE
5
4E2
100
AcDbEntity
8
05
100
AcDbLine
62
7
6
CONTINUOUS
10
321.5165780000
20
15.0440060000
11
320.8667830000
21
15.6938010000
0
LINE
5
4E3
100
AcDbEntity
8
05
100
AcDbLine
62
7
6
CONTINUOUS
10
323.6698300000
20
13.2089520000
11
321.9047770000
21
14.9740050000
0
LINE
5
4E4
100
AcDbEntity
8
05
100
AcDbLine
62
7
6
CONTINUOUS
10
321.6529480000
20
15.2258340000
11
321.1849810000
21
15.6938010000
0
LINE
5
4E5
100
AcDbEntity
8
05
100
AcDbLine
62
7
6
CONTINUOUS
10
323.8755950000
20
13.3213850000
11
321.7987110000
21
15.3982690000
0
LINE
5
4E6
100
AcDbEntity
8
05
100
AcDbLine
62
7
6
CONTINUOUS
10
321.7893190000
20
15.4076610000
11
321.5031790000
21
15.6938010000
0
LINE
5
4E7
100
AcDbEntity
8
05
100
AcDbLine
62
7
6
CONTINUOUS
10
323.7695290000
20
13.7456490000
11
321.8213770000
21
15.6938010000
0
LINE
5
4E8
100
AcDbEntity
8
05
100
AcDbLine
62
7
6
CONTINUOUS
10
323.6634630000
20
14.1699130000
11
322.1395760000
21
15.6938010000
0
LINE
5
4E9
100
AcDbEntity
8
05
100
AcDbLine
62
7
6
CONTINUOUS
10
324.7324920000
20
13.4190820000
11
324.6739720000
21
13.4776020000
0
LINE
5
4EA
100
AcDbEntity
8
05
100
AcDbLine
62
7
6
CONTINUOUS
10
323.5573970000
20
14.5941770000
11
322.4577740000
21
15.6938010000
0
LINE
5
4EB
100
AcDbEntity
8
05
100
AcDbLine
62
7
6
CONTINUOUS
10
325.1492980000
20
13.3204740000
11
324.6352250000
21
13.8345480000
0
LINE
5
4EC
100
AcDbEntity
8
05
100
AcDbLine
62
7
6
CONTINUOUS
10
323.4513310000
20
15.0184410000
11
322.7759720000
21
15.6938010000
0
LINE
5
4ED
100
AcDbEntity
8
05
100
AcDbLine
62
7
6
CONTINUOUS
10
325.5092820000
20
13.2786890000
11
324.6829220000
21
14.1050490000
0
LINE
5
4EE
100
AcDbEntity
8
05
100
AcDbLine
62
7
6
CONTINUOUS
10
323.3452650000
20
15.4427050000
11
323.0941700000
21
15.6938010000
0
LINE
5
4EF
100
AcDbEntity
8
05
100
AcDbLine
62
7
6
CONTINUOUS
10
325.8588570000
20
13.2473120000
11
324.7306180000
21
14.3755500000
0
LINE
5
4F0
100
AcDbEntity
8
05
100
AcDbLine
62
7
6
CONTINUOUS
10
326.1989400000
20
13.2254260000
11
324.7783150000
21
14.6460520000
0
LINE
5
4F1
100
AcDbEntity
8
05
100
AcDbLine
62
7
6
CONTINUOUS
10
326.5303060000
20
13.2122580000
11
324.8260120000
21
14.9165530000
0
LINE
5
4F2
100
AcDbEntity
8
05
100
AcDbLine
62
7
6
CONTINUOUS
10
326.8536160000
20
13.2071470000
11
324.8737080000
21
15.1870540000
0
LINE
5
4F3
100
AcDbEntity
8
05
100
AcDbLine
62
7
6
CONTINUOUS
10
327.1694370000
20
13.2095230000
11
326.7175430000
21
13.6614180000
0
LINE
5
4F4
100
AcDbEntity
8
05
100
AcDbLine
62
7
6
CONTINUOUS
10
326.2416420000
20
14.1373190000
11
324.9704990000
21
15.4084620000
0
LINE
5
4F5
100
AcDbEntity
8
05
100
AcDbLine
62
7
6
CONTINUOUS
10
327.4782650000
20
13.2188940000
11
327.0476490000
21
13.6495100000
0
LINE
5
4F6
100
AcDbEntity
8
05
100
AcDbLine
62
7
6
CONTINUOUS
10
326.2893390000
20
14.4078200000
11
325.1933910000
21
15.5037670000
0
LINE
5
4F7
100
AcDbEntity
8
05
100
AcDbLine
62
7
6
CONTINUOUS
10
327.7805300000
20
13.2348260000
11
327.3498670000
21
13.6654900000
0
LINE
5
4F8
100
AcDbEntity
8
05
100
AcDbLine
62
7
6
CONTINUOUS
10
326.3370350000
20
14.6783210000
11
325.4681720000
21
15.5471850000
0
LINE
5
4F9
100
AcDbEntity
8
05
100
AcDbLine
62
7
6
CONTINUOUS
10
328.1246030000
20
13.2089520000
11
327.6300090000
21
13.7035460000
0
LINE
5
4FA
100
AcDbEntity
8
05
100
AcDbLine
62
7
6
CONTINUOUS
10
326.3847320000
20
14.9488230000
11
325.7480050000
21
15.5855500000
0
LINE
5
4FB
100
AcDbEntity
8
05
100
AcDbLine
62
7
6
CONTINUOUS
10
328.4428010000
20
13.2089520000
11
327.8555260000
21
13.7962270000
0
LINE
5
4FC
100
AcDbEntity
8
05
100
AcDbLine
62
7
6
CONTINUOUS
10
326.5029990000
20
15.1487530000
11
326.0331350000
21
15.6186170000
0
LINE
5
4FD
100
AcDbEntity
8
05
100
AcDbLine
62
7
6
CONTINUOUS
10
327.5731040000
20
14.0786490000
11
327.3801960000
21
14.2715570000
0
LINE
5
4FE
100
AcDbEntity
8
05
100
AcDbLine
62
7
6
CONTINUOUS
10
328.7609990000
20
13.2089520000
11
327.9559880000
21
14.0139630000
0
LINE
5
4FF
100
AcDbEntity
8
05
100
AcDbLine
62
7
6
CONTINUOUS
10
326.7450410000
20
15.2249100000
11
326.3238330000
21
15.6461180000
0
LINE
5
500
100
AcDbEntity
8
05
100
AcDbLine
62
7
6
CONTINUOUS
10
327.8913020000
20
14.0786490000
11
327.6685740000
21
14.3013760000
0
LINE
5
501
100
AcDbEntity
8
05
100
AcDbLine
62
7
6
CONTINUOUS
10
329.0791970000
20
13.2089520000
11
327.9867720000
21
14.3013760000
0
LINE
5
502
100
AcDbEntity
8
05
100
AcDbLine
62
7
6
CONTINUOUS
10
327.0342750000
20
15.2538740000
11
326.6204010000
21
15.6677480000
0
LINE
5
503
100
AcDbEntity
8
05
100
AcDbLine
62
7
6
CONTINUOUS
10
329.3716180000
20
13.2347290000
11
328.3049710000
21
14.3013760000
0
LINE
5
504
100
AcDbEntity
8
05
100
AcDbLine
62
7
6
CONTINUOUS
10
327.3477810000
20
15.2585660000
11
326.9231780000
21
15.6831690000
0
LINE
5
505
100
AcDbEntity
8
05
100
AcDbLine
62
7
6
CONTINUOUS
10
329.4193150000
20
13.5052300000
11
328.6231690000
21
14.3013760000
0
LINE
5
506
100
AcDbEntity
8
05
100
AcDbLine
62
7
6
CONTINUOUS
10
327.6928320000
20
15.2317130000
11
327.2325510000
21
15.6919940000
0
LINE
5
507
100
AcDbEntity
8
05
100
AcDbLine
62
7
6
CONTINUOUS
10
329.4670110000
20
13.7757320000
11
328.9413670000
21
14.3013760000
0
LINE
5
508
100
AcDbEntity
8
05
100
AcDbLine
62
7
6
CONTINUOUS
10
328.2787500000
20
14.9639930000
11
327.5489540000
21
15.6937890000
0
LINE
5
509
100
AcDbEntity
8
05
100
AcDbLine
62
7
6
CONTINUOUS
10
329.5147080000
20
14.0462330000
11
329.2595650000
21
14.3013760000
0
LINE
5
50A
100
AcDbEntity
8
05
100
AcDbLine
62
7
6
CONTINUOUS
10
328.5969480000
20
14.9639930000
11
327.8728890000
21
15.6880520000
0
LINE
5
50B
100
AcDbEntity
8
05
100
AcDbLine
62
7
6
CONTINUOUS
10
328.9151460000
20
14.9639930000
11
328.2049290000
21
15.6742100000
0
LINE
5
50C
100
AcDbEntity
8
05
100
AcDbLine
62
7
6
CONTINUOUS
10
329.2333440000
20
14.9639930000
11
328.5457450000
21
15.6515930000
0
LINE
5
50D
100
AcDbEntity
8
05
100
AcDbLine
62
7
6
CONTINUOUS
10
329.5515420000
20
14.9639930000
11
328.8961190000
21
15.6194160000
0
LINE
5
50E
100
AcDbEntity
8
05
100
AcDbLine
62
7
6
CONTINUOUS
10
329.7054950000
20
15.1282390000
11
329.2569840000
21
15.5767500000
0
LINE
5
50F
100
AcDbEntity
8
SCHRAFFIERT
100
AcDbLine
62
7
6
CONTINUOUS
10
332.3624690000
20
224.8875350000
11
334.1167660000
21
226.6418320000
0
LINE
5
510
100
AcDbEntity
8
SCHRAFFIERT
100
AcDbLine
62
7
6
CONTINUOUS
10
336.5176560000
20
229.0427220000
11
337.3640760000
21
229.8891420000
0
LINE
5
511
100
AcDbEntity
8
SCHRAFFIERT
100
AcDbLine
62
7
6
CONTINUOUS
10
334.2258120000
20
226.7508790000
11
335.6759860000
21
228.2010530000
0
LINE
5
512
100
AcDbEntity
8
SCHRAFFIERT
100
AcDbLine
62
7
6
CONTINUOUS
10
332.1856920000
20
224.8875350000
11
335.6288140000
21
228.3306580000
0
LINE
5
513
100
AcDbEntity
8
SCHRAFFIERT
100
AcDbLine
62
7
6
CONTINUOUS
10
336.4704830000
20
229.1723270000
11
337.1872990000
21
229.8891420000
0
LINE
5
514
100
AcDbEntity
8
SCHRAFFIERT
100
AcDbLine
62
7
6
CONTINUOUS
10
332.1077030000
20
224.9863230000
11
335.5816420000
21
228.4602620000
0
LINE
5
515
100
AcDbEntity
8
SCHRAFFIERT
100
AcDbLine
62
7
6
CONTINUOUS
10
336.4233110000
20
229.3019310000
11
337.0105220000
21
229.8891420000
0
LINE
5
516
100
AcDbEntity
8
SCHRAFFIERT
100
AcDbLine
62
7
6
CONTINUOUS
10
332.1724080000
20
225.2278040000
11
335.5344700000
21
228.5898670000
0
LINE
5
517
100
AcDbEntity
8
SCHRAFFIERT
100
AcDbLine
62
7
6
CONTINUOUS
10
336.3761390000
20
229.4315360000
11
336.8337460000
21
229.8891420000
0
LINE
5
518
100
AcDbEntity
8
SCHRAFFIERT
100
AcDbLine
62
7
6
CONTINUOUS
10
332.2371120000
20
225.4692860000
11
335.4872980000
21
228.7194710000
0
LINE
5
519
100
AcDbEntity
8
SCHRAFFIERT
100
AcDbLine
62
7
6
CONTINUOUS
10
336.3289670000
20
229.5611400000
11
336.6569690000
21
229.8891420000
0
LINE
5
51A
100
AcDbEntity
8
SCHRAFFIERT
100
AcDbLine
62
7
6
CONTINUOUS
10
332.3018170000
20
225.7107670000
11
335.4401260000
21
228.8490760000
0
LINE
5
51B
100
AcDbEntity
8
SCHRAFFIERT
100
AcDbLine
62
7
6
CONTINUOUS
10
336.2817950000
20
229.6907450000
11
336.4801920000
21
229.8891420000
0
LINE
5
51C
100
AcDbEntity
8
SCHRAFFIERT
100
AcDbLine
62
7
6
CONTINUOUS
10
332.3665220000
20
225.9522490000
11
335.3929530000
21
228.9786800000
0
LINE
5
51D
100
AcDbEntity
8
SCHRAFFIERT
100
AcDbLine
62
7
6
CONTINUOUS
10
336.2346220000
20
229.8203490000
11
336.3034150000
21
229.8891420000
0
LINE
5
51E
100
AcDbEntity
8
SCHRAFFIERT
100
AcDbLine
62
7
6
CONTINUOUS
10
332.4312270000
20
226.1937300000
11
334.1652240000
21
227.9277280000
0
LINE
5
51F
100
AcDbEntity
8
SCHRAFFIERT
100
AcDbLine
62
7
6
CONTINUOUS
10
334.1980510000
20
227.9605540000
11
335.3457810000
21
229.1082850000
0
LINE
5
520
100
AcDbEntity
8
SCHRAFFIERT
100
AcDbLine
62
7
6
CONTINUOUS
10
332.4959310000
20
226.4352120000
11
333.9884480000
21
227.9277280000
0
LINE
5
521
100
AcDbEntity
8
SCHRAFFIERT
100
AcDbLine
62
7
6
CONTINUOUS
10
334.1508780000
20
228.0901590000
11
335.2986090000
21
229.2378890000
0
LINE
5
522
100
AcDbEntity
8
SCHRAFFIERT
100
AcDbLine
62
7
6
CONTINUOUS
10
332.5606360000
20
226.6766930000
11
333.8116710000
21
227.9277280000
0
LINE
5
523
100
AcDbEntity
8
SCHRAFFIERT
100
AcDbLine
62
7
6
CONTINUOUS
10
334.1037060000
20
228.2197630000
11
335.2514370000
21
229.3674940000
0
LINE
5
524
100
AcDbEntity
8
SCHRAFFIERT
100
AcDbLine
62
7
6
CONTINUOUS
10
332.4580450000
20
226.7508790000
11
333.6348940000
21
227.9277280000
0
LINE
5
525
100
AcDbEntity
8
SCHRAFFIERT
100
AcDbLine
62
7
6
CONTINUOUS
10
334.0565340000
20
228.3493680000
11
335.2042650000
21
229.4970980000
0
LINE
5
526
100
AcDbEntity
8
SCHRAFFIERT
100
AcDbLine
62
7
6
CONTINUOUS
10
332.2812690000
20
226.7508790000
11
333.4581170000
21
227.9277280000
0
LINE
5
527
100
AcDbEntity
8
SCHRAFFIERT
100
AcDbLine
62
7
6
CONTINUOUS
10
334.0093620000
20
228.4789720000
11
335.1570920000
21
229.6267030000
0
LINE
5
528
100
AcDbEntity
8
SCHRAFFIERT
100
AcDbLine
62
7
6
CONTINUOUS
10
332.1044920000
20
226.7508790000
11
333.2813410000
21
227.9277280000
0
LINE
5
529
100
AcDbEntity
8
SCHRAFFIERT
100
AcDbLine
62
7
6
CONTINUOUS
10
333.9621900000
20
228.6085770000
11
335.1099200000
21
229.7563070000
0
LINE
5
52A
100
AcDbEntity
8
SCHRAFFIERT
100
AcDbLine
62
7
6
CONTINUOUS
10
331.9277150000
20
226.7508790000
11
333.1045640000
21
227.9277280000
0
LINE
5
52B
100
AcDbEntity
8
SCHRAFFIERT
100
AcDbLine
62
7
6
CONTINUOUS
10
333.8891300000
20
228.7122940000
11
335.0627480000
21
229.8859120000
0
LINE
5
52C
100
AcDbEntity
8
SCHRAFFIERT
100
AcDbLine
62
7
6
CONTINUOUS
10
331.7575840000
20
226.7575240000
11
332.9277870000
21
227.9277280000
0
LINE
5
52D
100
AcDbEntity
8
SCHRAFFIERT
100
AcDbLine
62
7
6
CONTINUOUS
10
333.7123530000
20
228.7122940000
11
334.8892020000
21
229.8891420000
0
LINE
5
52E
100
AcDbEntity
8
SCHRAFFIERT
100
AcDbLine
62
7
6
CONTINUOUS
10
331.6177400000
20
226.7944570000
11
332.7510110000
21
227.9277280000
0
LINE
5
52F
100
AcDbEntity
8
SCHRAFFIERT
100
AcDbLine
62
7
6
CONTINUOUS
10
333.5355760000
20
228.7122940000
11
334.7124250000
21
229.8891420000
0
LINE
5
530
100
AcDbEntity
8
SCHRAFFIERT
100
AcDbLine
62
7
6
CONTINUOUS
10
331.5010040000
20
226.8544980000
11
332.5742340000
21
227.9277280000
0
LINE
5
531
100
AcDbEntity
8
SCHRAFFIERT
100
AcDbLine
62
7
6
CONTINUOUS
10
333.3588000000
20
228.7122940000
11
334.5356490000
21
229.8891420000
0
LINE
5
532
100
AcDbEntity
8
SCHRAFFIERT
100
AcDbLine
62
7
6
CONTINUOUS
10
331.4029960000
20
226.9332660000
11
332.5020830000
21
228.0323530000
0
LINE
5
533
100
AcDbEntity
8
SCHRAFFIERT
100
AcDbLine
62
7
6
CONTINUOUS
10
333.1820230000
20
228.7122940000
11
334.3588720000
21
229.8891420000
0
LINE
5
534
100
AcDbEntity
8
SCHRAFFIERT
100
AcDbLine
62
7
6
CONTINUOUS
10
331.3224910000
20
227.0295380000
11
332.4549110000
21
228.1619580000
0
LINE
5
535
100
AcDbEntity
8
SCHRAFFIERT
100
AcDbLine
62
7
6
CONTINUOUS
10
333.0052460000
20
228.7122940000
11
334.1820950000
21
229.8891420000
0
LINE
5
536
100
AcDbEntity
8
SCHRAFFIERT
100
AcDbLine
62
7
6
CONTINUOUS
10
331.2604840000
20
227.1443080000
11
332.4077390000
21
228.2915620000
0
LINE
5
537
100
AcDbEntity
8
SCHRAFFIERT
100
AcDbLine
62
7
6
CONTINUOUS
10
332.8284700000
20
228.7122940000
11
334.0053180000
21
229.8891420000
0
LINE
5
538
100
AcDbEntity
8
SCHRAFFIERT
100
AcDbLine
62
7
6
CONTINUOUS
10
331.2128360000
20
227.2734360000
11
332.3605660000
21
228.4211670000
0
LINE
5
539
100
AcDbEntity
8
SCHRAFFIERT
100
AcDbLine
62
7
6
CONTINUOUS
10
332.6516930000
20
228.7122940000
11
333.8285420000
21
229.8891420000
0
LINE
5
53A
100
AcDbEntity
8
SCHRAFFIERT
100
AcDbLine
62
7
6
CONTINUOUS
10
331.1656640000
20
227.4030410000
11
332.3133940000
21
228.5507710000
0
LINE
5
53B
100
AcDbEntity
8
SCHRAFFIERT
100
AcDbLine
62
7
6
CONTINUOUS
10
332.4749160000
20
228.7122940000
11
333.6517650000
21
229.8891420000
0
LINE
5
53C
100
AcDbEntity
8
SCHRAFFIERT
100
AcDbLine
62
7
6
CONTINUOUS
10
331.1184910000
20
227.5326450000
11
332.2662220000
21
228.6803760000
0
LINE
5
53D
100
AcDbEntity
8
SCHRAFFIERT
100
AcDbLine
62
7
6
CONTINUOUS
10
332.2981400000
20
228.7122940000
11
333.4749880000
21
229.8891420000
0
LINE
5
53E
100
AcDbEntity
8
SCHRAFFIERT
100
AcDbLine
62
7
6
CONTINUOUS
10
331.0713190000
20
227.6622500000
11
333.2982120000
21
229.8891420000
0
LINE
5
53F
100
AcDbEntity
8
SCHRAFFIERT
100
AcDbLine
62
7
6
CONTINUOUS
10
331.0241470000
20
227.7918540000
11
333.1214350000
21
229.8891420000
0
LINE
5
540
100
AcDbEntity
8
SCHRAFFIERT
100
AcDbLine
62
7
6
CONTINUOUS
10
330.9769750000
20
227.9214590000
11
332.9446580000
21
229.8891420000
0
LINE
5
541
100
AcDbEntity
8
SCHRAFFIERT
100
AcDbLine
62
7
6
CONTINUOUS
10
330.9298030000
20
228.0510630000
11
332.7678820000
21
229.8891420000
0
LINE
5
542
100
AcDbEntity
8
SCHRAFFIERT
100
AcDbLine
62
7
6
CONTINUOUS
10
330.8826300000
20
228.1806680000
11
332.5911050000
21
229.8891420000
0
LINE
5
543
100
AcDbEntity
8
SCHRAFFIERT
100
AcDbLine
62
7
6
CONTINUOUS
10
330.8354580000
20
228.3102720000
11
332.4143280000
21
229.8891420000
0
LINE
5
544
100
AcDbEntity
8
SCHRAFFIERT
100
AcDbLine
62
7
6
CONTINUOUS
10
330.7882860000
20
228.4398770000
11
332.2375510000
21
229.8891420000
0
LINE
5
545
100
AcDbEntity
8
SCHRAFFIERT
100
AcDbLine
62
7
6
CONTINUOUS
10
330.7411140000
20
228.5694820000
11
332.0607750000
21
229.8891420000
0
LINE
5
546
100
AcDbEntity
8
SCHRAFFIERT
100
AcDbLine
62
7
6
CONTINUOUS
10
330.6939420000
20
228.6990860000
11
331.8839980000
21
229.8891420000
0
LINE
5
547
100
AcDbEntity
8
SCHRAFFIERT
100
AcDbLine
62
7
6
CONTINUOUS
10
330.6467700000
20
228.8286910000
11
331.7072210000
21
229.8891420000
0
LINE
5
548
100
AcDbEntity
8
SCHRAFFIERT
100
AcDbLine
62
7
6
CONTINUOUS
10
330.5995970000
20
228.9582950000
11
331.5304450000
21
229.8891420000
0
LINE
5
549
100
AcDbEntity
8
SCHRAFFIERT
100
AcDbLine
62
7
6
CONTINUOUS
10
330.5545600000
20
229.0900340000
11
331.3536680000
21
229.8891420000
0
LINE
5
54A
100
AcDbEntity
8
SCHRAFFIERT
100
AcDbLine
62
7
6
CONTINUOUS
10
330.5337490000
20
229.2460000000
11
331.1768910000
21
229.8891420000
0
LINE
5
54B
100
AcDbEntity
8
SCHRAFFIERT
100
AcDbLine
62
7
6
CONTINUOUS
10
330.5675510000
20
229.4565780000
11
330.9662880000
21
229.8553150000
0
LINE
5
54C
100
AcDbEntity
8
SCHRAFFIERT
100
AcDbLine
62
7
6
CONTINUOUS
10
332.5392450000
20
224.8875350000
11
334.0520610000
21
226.4003510000
0
LINE
5
54D
100
AcDbEntity
8
SCHRAFFIERT
100
AcDbLine
62
7
6
CONTINUOUS
10
336.5648280000
20
228.9131180000
11
337.5408520000
21
229.8891420000
0
LINE
5
54E
100
AcDbEntity
8
SCHRAFFIERT
100
AcDbLine
62
7
6
CONTINUOUS
10
334.4025890000
20
226.7508790000
11
335.7231590000
21
228.0714490000
0
LINE
5
54F
100
AcDbEntity
8
SCHRAFFIERT
100
AcDbLine
62
7
6
CONTINUOUS
10
332.7160220000
20
224.8875350000
11
333.9873560000
21
226.1588690000
0
LINE
5
550
100
AcDbEntity
8
SCHRAFFIERT
100
AcDbLine
62
7
6
CONTINUOUS
10
336.6120000000
20
228.7835130000
11
337.7176290000
21
229.8891420000
0
LINE
5
551
100
AcDbEntity
8
SCHRAFFIERT
100
AcDbLine
62
7
6
CONTINUOUS
10
334.5793660000
20
226.7508790000
11
335.7703310000
21
227.9418440000
0
LINE
5
552
100
AcDbEntity
8
SCHRAFFIERT
100
AcDbLine
62
7
6
CONTINUOUS
10
332.8927990000
20
224.8875350000
11
333.9226510000
21
225.9173880000
0
LINE
5
553
100
AcDbEntity
8
SCHRAFFIERT
100
AcDbLine
62
7
6
CONTINUOUS
10
336.6591720000
20
228.6539090000
11
337.8105420000
21
229.8052780000
0
LINE
5
554
100
AcDbEntity
8
SCHRAFFIERT
100
AcDbLine
62
7
6
CONTINUOUS
10
334.6697720000
20
226.6645090000
11
335.8175030000
21
227.8122400000
0
LINE
5
555
100
AcDbEntity
8
SCHRAFFIERT
100
AcDbLine
62
7
6
CONTINUOUS
10
333.0695750000
20
224.8875350000
11
333.8579460000
21
225.6759060000
0
LINE
5
556
100
AcDbEntity
8
SCHRAFFIERT
100
AcDbLine
62
7
6
CONTINUOUS
10
336.7063440000
20
228.5243040000
11
337.8577140000
21
229.6756740000
0
LINE
5
557
100
AcDbEntity
8
SCHRAFFIERT
100
AcDbLine
62
7
6
CONTINUOUS
10
334.7169450000
20
226.5349050000
11
335.8646750000
21
227.6826350000
0
LINE
5
558
100
AcDbEntity
8
SCHRAFFIERT
100
AcDbLine
62
7
6
CONTINUOUS
10
333.2463520000
20
224.8875350000
11
333.7932420000
21
225.4344250000
0
LINE
5
559
100
AcDbEntity
8
SCHRAFFIERT
100
AcDbLine
62
7
6
CONTINUOUS
10
336.7535160000
20
228.3947000000
11
337.9048860000
21
229.5460690000
0
LINE
5
55A
100
AcDbEntity
8
SCHRAFFIERT
100
AcDbLine
62
7
6
CONTINUOUS
10
334.7641170000
20
226.4053000000
11
335.9118470000
21
227.5530310000
0
LINE
5
55B
100
AcDbEntity
8
SCHRAFFIERT
100
AcDbLine
62
7
6
CONTINUOUS
10
333.4231290000
20
224.8875350000
11
333.7285370000
21
225.1929440000
0
LINE
5
55C
100
AcDbEntity
8
SCHRAFFIERT
100
AcDbLine
62
7
6
CONTINUOUS
10
336.8006890000
20
228.2650950000
11
337.9520580000
21
229.4164650000
0
LINE
5
55D
100
AcDbEntity
8
SCHRAFFIERT
100
AcDbLine
62
7
6
CONTINUOUS
10
334.8112890000
20
226.2756960000
11
335.9590200000
21
227.4234260000
0
LINE
5
55E
100
AcDbEntity
8
SCHRAFFIERT
100
AcDbLine
62
7
6
CONTINUOUS
10
333.5999050000
20
224.8875350000
11
333.6638320000
21
224.9514620000
0
LINE
5
55F
100
AcDbEntity
8
SCHRAFFIERT
100
AcDbLine
62
7
6
CONTINUOUS
10
336.8478610000
20
228.1354910000
11
337.9992300000
21
229.2868600000
0
LINE
5
560
100
AcDbEntity
8
SCHRAFFIERT
100
AcDbLine
62
7
6
CONTINUOUS
10
334.8584610000
20
226.1460910000
11
336.0061920000
21
227.2938220000
0
LINE
5
561
100
AcDbEntity
8
SCHRAFFIERT
100
AcDbLine
62
7
6
CONTINUOUS
10
334.9056330000
20
226.0164870000
11
336.0533640000
21
227.1642170000
0
LINE
5
562
100
AcDbEntity
8
SCHRAFFIERT
100
AcDbLine
62
7
6
CONTINUOUS
10
336.8950330000
20
228.0058860000
11
338.0464020000
21
229.1572560000
0
LINE
5
563
100
AcDbEntity
8
SCHRAFFIERT
100
AcDbLine
62
7
6
CONTINUOUS
10
334.9528060000
20
225.8868820000
11
336.1005360000
21
227.0346130000
0
LINE
5
564
100
AcDbEntity
8
SCHRAFFIERT
100
AcDbLine
62
7
6
CONTINUOUS
10
336.9422050000
20
227.8762820000
11
338.0935750000
21
229.0276510000
0
LINE
5
565
100
AcDbEntity
8
SCHRAFFIERT
100
AcDbLine
62
7
6
CONTINUOUS
10
334.9999780000
20
225.7572780000
11
336.1477080000
21
226.9050080000
0
LINE
5
566
100
AcDbEntity
8
SCHRAFFIERT
100
AcDbLine
62
7
6
CONTINUOUS
10
336.9893770000
20
227.7466770000
11
338.1407470000
21
228.8980470000
0
LINE
5
567
100
AcDbEntity
8
SCHRAFFIERT
100
AcDbLine
62
7
6
CONTINUOUS
10
335.0471500000
20
225.6276730000
11
336.1948810000
21
226.7754040000
0
LINE
5
568
100
AcDbEntity
8
SCHRAFFIERT
100
AcDbLine
62
7
6
CONTINUOUS
10
337.0365500000
20
227.6170730000
11
338.1879190000
21
228.7684420000
0
LINE
5
569
100
AcDbEntity
8
SCHRAFFIERT
100
AcDbLine
62
7
6
CONTINUOUS
10
335.0943220000
20
225.4980690000
11
336.2420530000
21
226.6457990000
0
LINE
5
56A
100
AcDbEntity
8
SCHRAFFIERT
100
AcDbLine
62
7
6
CONTINUOUS
10
337.0837220000
20
227.4874680000
11
338.2350910000
21
228.6388380000
0
LINE
5
56B
100
AcDbEntity
8
SCHRAFFIERT
100
AcDbLine
62
7
6
CONTINUOUS
10
335.1414940000
20
225.3684640000
11
336.2892250000
21
226.5161950000
0
LINE
5
56C
100
AcDbEntity
8
SCHRAFFIERT
100
AcDbLine
62
7
6
CONTINUOUS
10
337.1308940000
20
227.3578640000
11
338.2822630000
21
228.5092330000
0
LINE
5
56D
100
AcDbEntity
8
SCHRAFFIERT
100
AcDbLine
62
7
6
CONTINUOUS
10
335.1886670000
20
225.2388600000
11
336.3363970000
21
226.3865900000
0
LINE
5
56E
100
AcDbEntity
8
SCHRAFFIERT
100
AcDbLine
62
7
6
CONTINUOUS
10
337.1780660000
20
227.2282590000
11
338.3294360000
21
228.3796290000
0
LINE
5
56F
100
AcDbEntity
8
SCHRAFFIERT
100
AcDbLine
62
7
6
CONTINUOUS
10
335.2358390000
20
225.1092550000
11
336.4851800000
21
226.3585960000
0
LINE
5
570
100
AcDbEntity
8
SCHRAFFIERT
100
AcDbLine
62
7
6
CONTINUOUS
10
337.2252380000
20
227.0986550000
11
338.3766080000
21
228.2500240000
0
LINE
5
571
100
AcDbEntity
8
SCHRAFFIERT
100
AcDbLine
62
7
6
CONTINUOUS
10
335.2830110000
20
224.9796500000
11
336.6619570000
21
226.3585960000
0
LINE
5
572
100
AcDbEntity
8
SCHRAFFIERT
100
AcDbLine
62
7
6
CONTINUOUS
10
337.2724110000
20
226.9690500000
11
338.4237800000
21
228.1204200000
0
LINE
5
573
100
AcDbEntity
8
SCHRAFFIERT
100
AcDbLine
62
7
6
CONTINUOUS
10
335.3676720000
20
224.8875350000
11
336.8387330000
21
226.3585960000
0
LINE
5
574
100
AcDbEntity
8
SCHRAFFIERT
100
AcDbLine
62
7
6
CONTINUOUS
10
337.3195830000
20
226.8394460000
11
338.4709520000
21
227.9908150000
0
LINE
5
575
100
AcDbEntity
8
SCHRAFFIERT
100
AcDbLine
62
7
6
CONTINUOUS
10
335.5444490000
20
224.8875350000
11
337.0155100000
21
226.3585960000
0
LINE
5
576
100
AcDbEntity
8
SCHRAFFIERT
100
AcDbLine
62
7
6
CONTINUOUS
10
337.3667550000
20
226.7098410000
11
338.5181240000
21
227.8612110000
0
LINE
5
577
100
AcDbEntity
8
SCHRAFFIERT
100
AcDbLine
62
7
6
CONTINUOUS
10
335.7212260000
20
224.8875350000
11
337.1922870000
21
226.3585960000
0
LINE
5
578
100
AcDbEntity
8
SCHRAFFIERT
100
AcDbLine
62
7
6
CONTINUOUS
10
337.4139270000
20
226.5802370000
11
338.5652970000
21
227.7316060000
0
LINE
5
579
100
AcDbEntity
8
SCHRAFFIERT
100
AcDbLine
62
7
6
CONTINUOUS
10
335.8980020000
20
224.8875350000
11
337.3690630000
21
226.3585960000
0
LINE
5
57A
100
AcDbEntity
8
SCHRAFFIERT
100
AcDbLine
62
7
6
CONTINUOUS
10
337.4610990000
20
226.4506320000
11
338.6124690000
21
227.6020020000
0
LINE
5
57B
100
AcDbEntity
8
SCHRAFFIERT
100
AcDbLine
62
7
6
CONTINUOUS
10
336.0747790000
20
224.8875350000
11
338.6596410000
21
227.4723970000
0
LINE
5
57C
100
AcDbEntity
8
SCHRAFFIERT
100
AcDbLine
62
7
6
CONTINUOUS
10
336.2515560000
20
224.8875350000
11
338.7068130000
21
227.3427920000
0
LINE
5
57D
100
AcDbEntity
8
SCHRAFFIERT
100
AcDbLine
62
7
6
CONTINUOUS
10
336.4283330000
20
224.8875350000
11
338.7539850000
21
227.2131880000
0
LINE
5
57E
100
AcDbEntity
8
SCHRAFFIERT
100
AcDbLine
62
7
6
CONTINUOUS
10
336.6051090000
20
224.8875350000
11
338.8011570000
21
227.0835830000
0
LINE
5
57F
100
AcDbEntity
8
SCHRAFFIERT
100
AcDbLine
62
7
6
CONTINUOUS
10
336.7818860000
20
224.8875350000
11
338.8483300000
21
226.9539790000
0
LINE
5
580
100
AcDbEntity
8
SCHRAFFIERT
100
AcDbLine
62
7
6
CONTINUOUS
10
336.9586630000
20
224.8875350000
11
338.8955020000
21
226.8243740000
0
LINE
5
581
100
AcDbEntity
8
SCHRAFFIERT
100
AcDbLine
62
7
6
CONTINUOUS
10
337.1354390000
20
224.8875350000
11
338.9426740000
21
226.6947700000
0
LINE
5
582
100
AcDbEntity
8
SCHRAFFIERT
100
AcDbLine
62
7
6
CONTINUOUS
10
337.3122160000
20
224.8875350000
11
338.9898460000
21
226.5651650000
0
LINE
5
583
100
AcDbEntity
8
SCHRAFFIERT
100
AcDbLine
62
7
6
CONTINUOUS
10
337.4889930000
20
224.8875350000
11
339.0370180000
21
226.4355610000
0
LINE
5
584
100
AcDbEntity
8
SCHRAFFIERT
100
AcDbLine
62
7
6
CONTINUOUS
10
337.6657690000
20
224.8875350000
11
339.0841910000
21
226.3059560000
0
LINE
5
585
100
AcDbEntity
8
SCHRAFFIERT
100
AcDbLine
62
7
6
CONTINUOUS
10
337.8425460000
20
224.8875350000
11
339.1313630000
21
226.1763520000
0
LINE
5
586
100
AcDbEntity
8
SCHRAFFIERT
100
AcDbLine
62
7
6
CONTINUOUS
10
338.0193230000
20
224.8875350000
11
339.1785350000
21
226.0467470000
0
LINE
5
587
100
AcDbEntity
8
SCHRAFFIERT
100
AcDbLine
62
7
6
CONTINUOUS
10
338.1961000000
20
224.8875350000
11
339.2257070000
21
225.9171430000
0
LINE
5
588
100
AcDbEntity
8
SCHRAFFIERT
100
AcDbLine
62
7
6
CONTINUOUS
10
338.3728760000
20
224.8875350000
11
339.2728790000
21
225.7875380000
0
LINE
5
589
100
AcDbEntity
8
SCHRAFFIERT
100
AcDbLine
62
7
6
CONTINUOUS
10
338.5496530000
20
224.8875350000
11
339.3146400000
21
225.6525220000
0
LINE
5
58A
100
AcDbEntity
8
SCHRAFFIERT
100
AcDbLine
62
7
6
CONTINUOUS
10
338.7275310000
20
224.8886370000
11
339.3264250000
21
225.4875300000
0
LINE
5
58B
100
AcDbEntity
8
SCHRAFFIERT
100
AcDbLine
62
7
6
CONTINUOUS
10
338.9660420000
20
224.9503710000
11
339.2646900000
21
225.2490190000
0
LINE
5
58C
100
AcDbEntity
8
SCHRAFFIERT
100
AcDbLine
62
7
6
CONTINUOUS
10
343.2081250000
20
224.9498140000
11
343.9168050000
21
225.6584940000
0
LINE
5
58D
100
AcDbEntity
8
SCHRAFFIERT
100
AcDbLine
62
7
6
CONTINUOUS
10
348.1585920000
20
229.9002810000
11
348.8672720000
21
230.6089610000
0
LINE
5
58E
100
AcDbEntity
8
SCHRAFFIERT
100
AcDbLine
62
7
6
CONTINUOUS
10
344.2799610000
20
226.0216490000
11
344.7840980000
21
226.5257860000
0
LINE
5
58F
100
AcDbEntity
8
SCHRAFFIERT
100
AcDbLine
62
7
6
CONTINUOUS
10
347.2913000000
20
229.0329880000
11
347.7954370000
21
229.5371250000
0
LINE
5
590
100
AcDbEntity
8
SCHRAFFIERT
100
AcDbLine
62
7
6
CONTINUOUS
10
344.8580670000
20
226.5997550000
11
345.5700200000
21
227.3117090000
0
LINE
5
591
100
AcDbEntity
8
SCHRAFFIERT
100
AcDbLine
62
7
6
CONTINUOUS
10
346.2819740000
20
228.0236620000
11
346.9939270000
21
228.7356160000
0
LINE
5
592
100
AcDbEntity
8
SCHRAFFIERT
100
AcDbLine
62
7
6
CONTINUOUS
10
343.1176290000
20
225.0360940000
11
343.8256050000
21
225.7440700000
0
LINE
5
593
100
AcDbEntity
8
SCHRAFFIERT
100
AcDbLine
62
7
6
CONTINUOUS
10
348.0730160000
20
229.9914810000
11
348.7809920000
21
230.6994570000
0
LINE
5
594
100
AcDbEntity
8
SCHRAFFIERT
100
AcDbLine
62
7
6
CONTINUOUS
10
344.1881810000
20
226.1066460000
11
344.6909590000
21
226.6094240000
0
LINE
5
595
100
AcDbEntity
8
SCHRAFFIERT
100
AcDbLine
62
7
6
CONTINUOUS
10
347.2076620000
20
229.1261270000
11
347.7104400000
21
229.6289050000
0
LINE
5
596
100
AcDbEntity
8
SCHRAFFIERT
100
AcDbLine
62
7
6
CONTINUOUS
10
344.8580670000
20
226.7765320000
11
345.5700200000
21
227.4884850000
0
LINE
5
597
100
AcDbEntity
8
SCHRAFFIERT
100
AcDbLine
62
7
6
CONTINUOUS
10
346.2819740000
20
228.2004390000
11
346.9939270000
21
228.9123920000
0
LINE
5
598
100
AcDbEntity
8
SCHRAFFIERT
100
AcDbLine
62
7
6
CONTINUOUS
10
343.0298920000
20
225.1251340000
11
343.7380860000
21
225.8333280000
0
LINE
5
599
100
AcDbEntity
8
SCHRAFFIERT
100
AcDbLine
62
7
6
CONTINUOUS
10
347.9837580000
20
230.0790000000
11
348.6919520000
21
230.7871930000
0
LINE
5
59A
100
AcDbEntity
8
SCHRAFFIERT
100
AcDbLine
62
7
6
CONTINUOUS
10
344.1008410000
20
226.1960830000
11
344.6040380000
21
226.6992800000
0
LINE
5
59B
100
AcDbEntity
8
SCHRAFFIERT
100
AcDbLine
62
7
6
CONTINUOUS
10
347.1178060000
20
229.2130480000
11
347.6210030000
21
229.7162450000
0
LINE
5
59C
100
AcDbEntity
8
SCHRAFFIERT
100
AcDbLine
62
7
6
CONTINUOUS
10
344.8580670000
20
226.9533090000
11
345.5700200000
21
227.6652620000
0
LINE
5
59D
100
AcDbEntity
8
SCHRAFFIERT
100
AcDbLine
62
7
6
CONTINUOUS
10
346.2819740000
20
228.3772160000
11
346.9939270000
21
229.0891690000
0
LINE
5
59E
100
AcDbEntity
8
SCHRAFFIERT
100
AcDbLine
62
7
6
CONTINUOUS
10
342.9449180000
20
225.2169360000
11
343.6542520000
21
225.9262710000
0
LINE
5
59F
100
AcDbEntity
8
SCHRAFFIERT
100
AcDbLine
62
7
6
CONTINUOUS
10
347.8908150000
20
230.1628340000
11
348.6001500000
21
230.8721680000
0
LINE
5
5A0
100
AcDbEntity
8
SCHRAFFIERT
100
AcDbLine
62
7
6
CONTINUOUS
10
344.0179490000
20
226.2899670000
11
344.5233570000
21
226.7953760000
0
LINE
5
5A1
100
AcDbEntity
8
SCHRAFFIERT
100
AcDbLine
62
7
6
CONTINUOUS
10
346.2819740000
20
228.5539920000
11
347.5271190000
21
229.7991370000
0
LINE
5
5A2
100
AcDbEntity
8
SCHRAFFIERT
100
AcDbLine
62
7
6
CONTINUOUS
10
344.8580670000
20
227.1300850000
11
345.5098800000
21
227.7818980000
0
LINE
5
5A3
100
AcDbEntity
8
SCHRAFFIERT
100
AcDbLine
62
7
6
CONTINUOUS
10
342.8627150000
20
225.3115100000
11
343.5741280000
21
226.0229230000
0
LINE
5
5A4
100
AcDbEntity
8
SCHRAFFIERT
100
AcDbLine
62
7
6
CONTINUOUS
10
347.7941630000
20
230.2429580000
11
348.5055760000
21
230.9543710000
0
LINE
5
5A5
100
AcDbEntity
8
SCHRAFFIERT
100
AcDbLine
62
7
6
CONTINUOUS
10
343.9395460000
20
226.3883410000
11
344.4490340000
21
226.8978290000
0
LINE
5
5A6
100
AcDbEntity
8
SCHRAFFIERT
100
AcDbLine
62
7
6
CONTINUOUS
10
346.2819740000
20
228.7307690000
11
347.4287450000
21
229.8775400000
0
LINE
5
5A7
100
AcDbEntity
8
SCHRAFFIERT
100
AcDbLine
62
7
6
CONTINUOUS
10
344.8580670000
20
227.3068620000
11
345.4143460000
21
227.8631410000
0
LINE
5
5A8
100
AcDbEntity
8
SCHRAFFIERT
100
AcDbLine
62
7
6
CONTINUOUS
10
342.7833020000
20
225.4088740000
11
343.4977560000
21
226.1233280000
0
LINE
5
5A9
100
AcDbEntity
8
SCHRAFFIERT
100
AcDbLine
62
7
6
CONTINUOUS
10
347.6937580000
20
230.3193300000
11
348.4082120000
21
231.0337840000
0
LINE
5
5AA
100
AcDbEntity
8
SCHRAFFIERT
100
AcDbLine
62
7
6
CONTINUOUS
10
343.8657100000
20
226.4912820000
11
344.3812880000
21
227.0068600000
0
LINE
5
5AB
100
AcDbEntity
8
SCHRAFFIERT
100
AcDbLine
62
7
6
CONTINUOUS
10
346.2819740000
20
228.9075460000
11
347.3258040000
21
229.9513760000
0
LINE
5
5AC
100
AcDbEntity
8
SCHRAFFIERT
100
AcDbLine
62
7
6
CONTINUOUS
10
344.8137430000
20
227.4393150000
11
345.3188120000
21
227.9443840000
0
LINE
5
5AD
100
AcDbEntity
8
SCHRAFFIERT
100
AcDbLine
62
7
6
CONTINUOUS
10
342.7067060000
20
225.5090540000
11
343.4252020000
21
226.2275510000
0
LINE
5
5AE
100
AcDbEntity
8
SCHRAFFIERT
100
AcDbLine
62
7
6
CONTINUOUS
10
347.5895350000
20
230.3918840000
11
348.3080320000
21
231.1103800000
0
LINE
5
5AF
100
AcDbEntity
8
SCHRAFFIERT
100
AcDbLine
62
7
6
CONTINUOUS
10
343.7965590000
20
226.5989070000
11
344.3204640000
21
227.1228120000
0
LINE
5
5B0
100
AcDbEntity
8
SCHRAFFIERT
100
AcDbLine
62
7
6
CONTINUOUS
10
346.2819740000
20
229.0843220000
11
347.2181790000
21
230.0205270000
0
LINE
5
5B1
100
AcDbEntity
8
SCHRAFFIERT
100
AcDbLine
62
7
6
CONTINUOUS
10
344.7182090000
20
227.5205570000
11
345.2232780000
21
228.0256270000
0
LINE
5
5B2
100
AcDbEntity
8
SCHRAFFIERT
100
AcDbLine
62
7
6
CONTINUOUS
10
342.6329620000
20
225.6120870000
11
343.3565540000
21
226.3356800000
0
LINE
5
5B3
100
AcDbEntity
8
SCHRAFFIERT
100
AcDbLine
62
7
6
CONTINUOUS
10
347.4814060000
20
230.4605320000
11
348.2049990000
21
231.1841240000
0
LINE
5
5B4
100
AcDbEntity
8
SCHRAFFIERT
100
AcDbLine
62
7
6
CONTINUOUS
10
343.7322520000
20
226.7113770000
11
344.2670570000
21
227.2461820000
0
LINE
5
5B5
100
AcDbEntity
8
SCHRAFFIERT
100
AcDbLine
62
7
6
CONTINUOUS
10
346.2819740000
20
229.2610990000
11
347.1057090000
21
230.0848340000
0
LINE
5
5B6
100
AcDbEntity
8
SCHRAFFIERT
100
AcDbLine
62
7
6
CONTINUOUS
10
344.6226750000
20
227.6018000000
11
345.1277450000
21
228.1068700000
0
LINE
5
5B7
100
AcDbEntity
8
SCHRAFFIERT
100
AcDbLine
62
7
6
CONTINUOUS
10
342.5621170000
20
225.7180180000
11
343.2919260000
21
226.4478280000
0
LINE
5
5B8
100
AcDbEntity
8
SCHRAFFIERT
100
AcDbLine
62
7
6
CONTINUOUS
10
347.3692580000
20
230.5251600000
11
348.0990680000
21
231.2549690000
0
LINE
5
5B9
100
AcDbEntity
8
SCHRAFFIERT
100
AcDbLine
62
7
6
CONTINUOUS
10
343.6730000000
20
226.8289010000
11
344.2217700000
21
227.3776720000
0
LINE
5
5BA
100
AcDbEntity
8
SCHRAFFIERT
100
AcDbLine
62
7
6
CONTINUOUS
10
346.2819740000
20
229.4378760000
11
346.9881850000
21
230.1440860000
0
LINE
5
5BB
100
AcDbEntity
8
SCHRAFFIERT
100
AcDbLine
62
7
6
CONTINUOUS
10
344.5271410000
20
227.6830430000
11
345.0322110000
21
228.1881130000
0
LINE
5
5BC
100
AcDbEntity
8
SCHRAFFIERT
100
AcDbLine
62
7
6
CONTINUOUS
10
342.4942240000
20
225.8269030000
11
343.2314590000
21
226.5641380000
0
LINE
5
5BD
100
AcDbEntity
8
SCHRAFFIERT
100
AcDbLine
62
7
6
CONTINUOUS
10
347.2529480000
20
230.5856270000
11
347.9901830000
21
231.3228620000
0
LINE
5
5BE
100
AcDbEntity
8
SCHRAFFIERT
100
AcDbLine
62
7
6
CONTINUOUS
10
343.6190750000
20
226.9517540000
11
344.0578390000
21
227.3905170000
0
LINE
5
5BF
100
AcDbEntity
8
SCHRAFFIERT
100
AcDbLine
62
7
6
CONTINUOUS
10
346.2819740000
20
229.6146520000
11
346.8653320000
21
230.1980110000
0
LINE
5
5C0
100
AcDbEntity
8
SCHRAFFIERT
100
AcDbLine
62
7
6
CONTINUOUS
10
344.4316070000
20
227.7642860000
11
344.9366770000
21
228.2693550000
0
LINE
5
5C1
100
AcDbEntity
8
SCHRAFFIERT
100
AcDbLine
62
7
6
CONTINUOUS
10
342.4293520000
20
225.9388080000
11
343.1753300000
21
226.6847860000
0
LINE
5
5C2
100
AcDbEntity
8
SCHRAFFIERT
100
AcDbLine
62
7
6
CONTINUOUS
10
347.1323000000
20
230.6417550000
11
347.8782780000
21
231.3877340000
0
LINE
5
5C3
100
AcDbEntity
8
SCHRAFFIERT
100
AcDbLine
62
7
6
CONTINUOUS
10
343.5708260000
20
227.0802810000
11
343.8163570000
21
227.3258130000
0
LINE
5
5C4
100
AcDbEntity
8
SCHRAFFIERT
100
AcDbLine
62
7
6
CONTINUOUS
10
346.2819740000
20
229.7914290000
11
346.7368050000
21
230.2462600000
0
LINE
5
5C5
100
AcDbEntity
8
SCHRAFFIERT
100
AcDbLine
62
7
6
CONTINUOUS
10
344.3360730000
20
227.8455290000
11
344.8411430000
21
228.3505980000
0
LINE
5
5C6
100
AcDbEntity
8
SCHRAFFIERT
100
AcDbLine
62
7
6
CONTINUOUS
10
345.3828180000
20
228.8922730000
11
345.5700200000
21
229.0794760000
0
LINE
5
5C7
100
AcDbEntity
8
SCHRAFFIERT
100
AcDbLine
62
7
6
CONTINUOUS
10
342.3675790000
20
226.0538110000
11
343.1237560000
21
226.8099880000
0
LINE
5
5C8
100
AcDbEntity
8
SCHRAFFIERT
100
AcDbLine
62
7
6
CONTINUOUS
10
347.0070980000
20
230.6933300000
11
347.7632750000
21
231.4495070000
0
LINE
5
5C9
100
AcDbEntity
8
SCHRAFFIERT
100
AcDbLine
62
7
6
CONTINUOUS
10
344.2405400000
20
227.9267720000
11
344.7456090000
21
228.4318410000
0
LINE
5
5CA
100
AcDbEntity
8
SCHRAFFIERT
100
AcDbLine
62
7
6
CONTINUOUS
10
346.2819740000
20
229.9682060000
11
346.6021570000
21
230.2883890000
0
LINE
5
5CB
100
AcDbEntity
8
SCHRAFFIERT
100
AcDbLine
62
7
6
CONTINUOUS
10
345.2060410000
20
228.8922730000
11
345.5700200000
21
229.2562520000
0
LINE
5
5CC
100
AcDbEntity
8
SCHRAFFIERT
100
AcDbLine
62
7
6
CONTINUOUS
10
342.3089980000
20
226.1720070000
11
343.0770010000
21
226.9400090000
0
LINE
5
5CD
100
AcDbEntity
8
SCHRAFFIERT
100
AcDbLine
62
7
6
CONTINUOUS
10
346.8770770000
20
230.7400850000
11
347.6450790000
21
231.5080880000
0
LINE
5
5CE
100
AcDbEntity
8
SCHRAFFIERT
100
AcDbLine
62
7
6
CONTINUOUS
10
344.1450060000
20
228.0080140000
11
344.6500750000
21
228.5130840000
0
LINE
5
5CF
100
AcDbEntity
8
SCHRAFFIERT
100
AcDbLine
62
7
6
CONTINUOUS
10
346.2819740000
20
230.1449820000
11
346.4608170000
21
230.3238260000
0
LINE
5
5D0
100
AcDbEntity
8
SCHRAFFIERT
100
AcDbLine
62
7
6
CONTINUOUS
10
345.0292650000
20
228.8922730000
11
345.5700200000
21
229.4330290000
0
LINE
5
5D1
100
AcDbEntity
8
SCHRAFFIERT
100
AcDbLine
62
7
6
CONTINUOUS
10
342.2537170000
20
226.2935020000
11
343.0353890000
21
227.0751740000
0
LINE
5
5D2
100
AcDbEntity
8
SCHRAFFIERT
100
AcDbLine
62
7
6
CONTINUOUS
10
346.7419120000
20
230.7816970000
11
347.5235840000
21
231.5633690000
0
LINE
5
5D3
100
AcDbEntity
8
SCHRAFFIERT
100
AcDbLine
62
7
6
CONTINUOUS
10
344.0494720000
20
228.0892570000
11
344.5545410000
21
228.5943270000
0
LINE
5
5D4
100
AcDbEntity
8
SCHRAFFIERT
100
AcDbLine
62
7
6
CONTINUOUS
10
344.8684340000
20
228.9082200000
11
345.5700200000
21
229.6098060000
0
LINE
5
5D5
100
AcDbEntity
8
SCHRAFFIERT
100
AcDbLine
62
7
6
CONTINUOUS
10
342.2018620000
20
226.4184240000
11
342.9993210000
21
227.2158830000
0
LINE
5
5D6
100
AcDbEntity
8
SCHRAFFIERT
100
AcDbLine
62
7
6
CONTINUOUS
10
346.6012030000
20
230.8177650000
11
347.3986620000
21
231.6152240000
0
LINE
5
5D7
100
AcDbEntity
8
SCHRAFFIERT
100
AcDbLine
62
7
6
CONTINUOUS
10
343.9539380000
20
228.1705000000
11
344.4590070000
21
228.6755700000
0
LINE
5
5D8
100
AcDbEntity
8
SCHRAFFIERT
100
AcDbLine
62
7
6
CONTINUOUS
10
344.8580670000
20
229.0746290000
11
345.5700200000
21
229.7865820000
0
LINE
5
5D9
100
AcDbEntity
8
SCHRAFFIERT
100
AcDbLine
62
7
6
CONTINUOUS
10
342.1535800000
20
226.5469180000
11
342.9692980000
21
227.3626360000
0
LINE
5
5DA
100
AcDbEntity
8
SCHRAFFIERT
100
AcDbLine
62
7
6
CONTINUOUS
10
346.4544500000
20
230.8477880000
11
347.2701680000
21
231.6635060000
0
LINE
5
5DB
100
AcDbEntity
8
SCHRAFFIERT
100
AcDbLine
62
7
6
CONTINUOUS
10
343.8584040000
20
228.2517430000
11
344.3830020000
21
228.7763400000
0
LINE
5
5DC
100
AcDbEntity
8
SCHRAFFIERT
100
AcDbLine
62
7
6
CONTINUOUS
10
344.8520450000
20
229.2453840000
11
345.5700200000
21
229.9633590000
0
LINE
5
5DD
100
AcDbEntity
8
SCHRAFFIERT
100
AcDbLine
62
7
6
CONTINUOUS
10
342.1090420000
20
226.6791570000
11
342.9459480000
21
227.5160640000
0
LINE
5
5DE
100
AcDbEntity
8
SCHRAFFIERT
100
AcDbLine
62
7
6
CONTINUOUS
10
346.3010220000
20
230.8711380000
11
347.1379290000
21
231.7080440000
0
LINE
5
5DF
100
AcDbEntity
8
SCHRAFFIERT
100
AcDbLine
62
7
6
CONTINUOUS
10
343.7628700000
20
228.3329860000
11
345.5700200000
21
230.1401360000
0
LINE
5
5E0
100
AcDbEntity
8
SCHRAFFIERT
100
AcDbLine
62
7
6
CONTINUOUS
10
342.0684470000
20
226.8153390000
11
342.9300850000
21
227.6769770000
0
LINE
5
5E1
100
AcDbEntity
8
SCHRAFFIERT
100
AcDbLine
62
7
6
CONTINUOUS
10
346.1401090000
20
230.8870010000
11
347.0017470000
21
231.7486390000
0
LINE
5
5E2
100
AcDbEntity
8
SCHRAFFIERT
100
AcDbLine
62
7
6
CONTINUOUS
10
343.6673360000
20
228.4142290000
11
345.5504990000
21
230.2973920000
0
LINE
5
5E3
100
AcDbEntity
8
SCHRAFFIERT
100
AcDbLine
62
7
6
CONTINUOUS
10
342.0320310000
20
226.9557000000
11
342.9227750000
21
227.8464440000
0
LINE
5
5E4
100
AcDbEntity
8
SCHRAFFIERT
100
AcDbLine
62
7
6
CONTINUOUS
10
345.9706420000
20
230.8943110000
11
346.8613860000
21
231.7850550000
0
LINE
5
5E5
100
AcDbEntity
8
SCHRAFFIERT
100
AcDbLine
62
7
6
CONTINUOUS
10
343.5718030000
20
228.4954710000
11
345.4026510000
21
230.3263200000
0
LINE
5
5E6
100
AcDbEntity
8
SCHRAFFIERT
100
AcDbLine
62
7
6
CONTINUOUS
10
342.0000680000
20
227.1005140000
11
342.9254710000
21
228.0259170000
0
LINE
5
5E7
100
AcDbEntity
8
SCHRAFFIERT
100
AcDbLine
62
7
6
CONTINUOUS
10
345.7911690000
20
230.8916150000
11
346.7165720000
21
231.8170180000
0
LINE
5
5E8
100
AcDbEntity
8
SCHRAFFIERT
100
AcDbLine
62
7
6
CONTINUOUS
10
343.5555070000
20
228.6559520000
11
345.1611340000
21
230.2615790000
0
LINE
5
5E9
100
AcDbEntity
8
SCHRAFFIERT
100
AcDbLine
62
7
6
CONTINUOUS
10
341.9728880000
20
227.2501100000
11
342.9402270000
21
228.2174490000
0
LINE
5
5EA
100
AcDbEntity
8
SCHRAFFIERT
100
AcDbLine
62
7
6
CONTINUOUS
10
345.5996370000
20
230.8768590000
11
346.5669760000
21
231.8441980000
0
LINE
5
5EB
100
AcDbEntity
8
SCHRAFFIERT
100
AcDbLine
62
7
6
CONTINUOUS
10
343.6702920000
20
228.9475140000
11
344.8695720000
21
230.1467940000
0
LINE
5
5EC
100
AcDbEntity
8
SCHRAFFIERT
100
AcDbLine
62
7
6
CONTINUOUS
10
341.9508830000
20
227.4048820000
11
342.9701190000
21
228.4241180000
0
LINE
5
5ED
100
AcDbEntity
8
SCHRAFFIERT
100
AcDbLine
62
7
6
CONTINUOUS
10
345.3929680000
20
230.8469670000
11
346.4122040000
21
231.8662030000
0
LINE
5
5EE
100
AcDbEntity
8
SCHRAFFIERT
100
AcDbLine
62
7
6
CONTINUOUS
10
343.9386410000
20
229.3926400000
11
344.4244460000
21
229.8784450000
0
LINE
5
5EF
100
AcDbEntity
8
SCHRAFFIERT
100
AcDbLine
62
7
6
CONTINUOUS
10
341.9345320000
20
227.5653080000
11
343.0201420000
21
228.6509170000
0
LINE
5
5F0
100
AcDbEntity
8
SCHRAFFIERT
100
AcDbLine
62
7
6
CONTINUOUS
10
345.1661680000
20
230.7969440000
11
346.2517780000
21
231.8825540000
0
LINE
5
5F1
100
AcDbEntity
8
SCHRAFFIERT
100
AcDbLine
62
7
6
CONTINUOUS
10
341.9244210000
20
227.7319740000
11
343.0994820000
21
228.9070340000
0
LINE
5
5F2
100
AcDbEntity
8
SCHRAFFIERT
100
AcDbLine
62
7
6
CONTINUOUS
10
344.9100520000
20
230.7176040000
11
346.0851120000
21
231.8926650000
0
LINE
5
5F3
100
AcDbEntity
8
SCHRAFFIERT
100
AcDbLine
62
7
6
CONTINUOUS
10
341.9212850000
20
227.9056140000
11
343.2292830000
21
229.2136120000
0
LINE
5
5F4
100
AcDbEntity
8
SCHRAFFIERT
100
AcDbLine
62
7
6
CONTINUOUS
10
344.6034740000
20
230.5878030000
11
345.9114720000
21
231.8958010000
0
LINE
5
5F5
100
AcDbEntity
8
SCHRAFFIERT
100
AcDbLine
62
7
6
CONTINUOUS
10
341.9260620000
20
228.0871680000
11
343.4977870000
21
229.6588930000
0
LINE
5
5F6
100
AcDbEntity
8
SCHRAFFIERT
100
AcDbLine
62
7
6
CONTINUOUS
10
344.1581930000
20
230.3192980000
11
345.7299180000
21
231.8910240000
0
LINE
5
5F7
100
AcDbEntity
8
SCHRAFFIERT
100
AcDbLine
62
7
6
CONTINUOUS
10
341.9399800000
20
228.2778620000
11
345.5392240000
21
231.8771060000
0
LINE
5
5F8
100
AcDbEntity
8
SCHRAFFIERT
100
AcDbLine
62
7
6
CONTINUOUS
10
341.9647010000
20
228.4793600000
11
345.3377250000
21
231.8523850000
0
LINE
5
5F9
100
AcDbEntity
8
SCHRAFFIERT
100
AcDbLine
62
7
6
CONTINUOUS
10
342.0025750000
20
228.6940100000
11
345.1230760000
21
231.8145110000
0
LINE
5
5FA
100
AcDbEntity
8
SCHRAFFIERT
100
AcDbLine
62
7
6
CONTINUOUS
10
342.0571100000
20
228.9253220000
11
344.8917640000
21
231.7599760000
0
LINE
5
5FB
100
AcDbEntity
8
SCHRAFFIERT
100
AcDbLine
62
7
6
CONTINUOUS
10
342.1340000000
20
229.1789900000
11
344.6380960000
21
231.6830860000
0
LINE
5
5FC
100
AcDbEntity
8
SCHRAFFIERT
100
AcDbLine
62
7
6
CONTINUOUS
10
342.2437110000
20
229.4654770000
11
344.3516090000
21
231.5733750000
0
LINE
5
5FD
100
AcDbEntity
8
SCHRAFFIERT
100
AcDbLine
62
7
6
CONTINUOUS
10
342.4102930000
20
229.8088360000
11
344.0082500000
21
231.4067930000
0
LINE
5
5FE
100
AcDbEntity
8
SCHRAFFIERT
100
AcDbLine
62
7
6
CONTINUOUS
10
342.7331970000
20
230.3085170000
11
343.5085690000
21
231.0838890000
0
LINE
5
5FF
100
AcDbEntity
8
SCHRAFFIERT
100
AcDbLine
62
7
6
CONTINUOUS
10
343.3013880000
20
224.8662990000
11
344.0117010000
21
225.5766120000
0
LINE
5
600
100
AcDbEntity
8
SCHRAFFIERT
100
AcDbLine
62
7
6
CONTINUOUS
10
348.4131270000
20
229.9780390000
11
348.9507870000
21
230.5156980000
0
LINE
5
601
100
AcDbEntity
8
SCHRAFFIERT
100
AcDbLine
62
7
6
CONTINUOUS
10
344.3762060000
20
225.9411180000
11
345.5700200000
21
227.1349320000
0
LINE
5
602
100
AcDbEntity
8
SCHRAFFIERT
100
AcDbLine
62
7
6
CONTINUOUS
10
347.3686480000
20
228.9335590000
11
347.8759680000
21
229.4408800000
0
LINE
5
603
100
AcDbEntity
8
SCHRAFFIERT
100
AcDbLine
62
7
6
CONTINUOUS
10
346.2819740000
20
227.8468850000
11
346.9939270000
21
228.5588390000
0
LINE
5
604
100
AcDbEntity
8
SCHRAFFIERT
100
AcDbLine
62
7
6
CONTINUOUS
10
343.3974300000
20
224.7855650000
11
344.1103260000
21
225.4984600000
0
LINE
5
605
100
AcDbEntity
8
SCHRAFFIERT
100
AcDbLine
62
7
6
CONTINUOUS
10
347.4395360000
20
228.8276710000
11
347.9519740000
21
229.3401090000
0
LINE
5
606
100
AcDbEntity
8
SCHRAFFIERT
100
AcDbLine
62
7
6
CONTINUOUS
10
344.4769770000
20
225.8651120000
11
345.5700200000
21
226.9581550000
0
LINE
5
607
100
AcDbEntity
8
SCHRAFFIERT
100
AcDbLine
62
7
6
CONTINUOUS
10
346.2819740000
20
227.6701090000
11
346.9939270000
21
228.3820620000
0
LINE
5
608
100
AcDbEntity
8
SCHRAFFIERT
100
AcDbLine
62
7
6
CONTINUOUS
10
343.4962760000
20
224.7076340000
11
344.2127350000
21
225.4240930000
0
LINE
5
609
100
AcDbEntity
8
SCHRAFFIERT
100
AcDbLine
62
7
6
CONTINUOUS
10
347.5036820000
20
228.7150400000
11
348.0233560000
21
229.2347140000
0
LINE
5
60A
100
AcDbEntity
8
SCHRAFFIERT
100
AcDbLine
62
7
6
CONTINUOUS
10
344.5823720000
20
225.7937300000
11
345.5700200000
21
226.7813790000
0
LINE
5
60B
100
AcDbEntity
8
SCHRAFFIERT
100
AcDbLine
62
7
6
CONTINUOUS
10
346.2819740000
20
227.4933320000
11
347.0357860000
21
228.2471440000
0
LINE
5
60C
100
AcDbEntity
8
SCHRAFFIERT
100
AcDbLine
62
7
6
CONTINUOUS
10
343.5979560000
20
224.6325380000
11
344.3190060000
21
225.3535870000
0
LINE
5
60D
100
AcDbEntity
8
SCHRAFFIERT
100
AcDbLine
62
7
6
CONTINUOUS
10
347.5606670000
20
228.5952480000
11
348.0899750000
21
229.1245560000
0
LINE
5
60E
100
AcDbEntity
8
SCHRAFFIERT
100
AcDbLine
62
7
6
CONTINUOUS
10
344.6925300000
20
225.7271110000
11
345.5700200000
21
226.6046020000
0
LINE
5
60F
100
AcDbEntity
8
SCHRAFFIERT
100
AcDbLine
62
7
6
CONTINUOUS
10
346.2819740000
20
227.3165550000
11
347.2124840000
21
228.2470660000
0
LINE
5
610
100
AcDbEntity
8
SCHRAFFIERT
100
AcDbLine
62
7
6
CONTINUOUS
10
343.7025120000
20
224.5603170000
11
344.4292390000
21
225.2870440000
0
LINE
5
611
100
AcDbEntity
8
SCHRAFFIERT
100
AcDbLine
62
7
6
CONTINUOUS
10
347.6098940000
20
228.4676980000
11
348.1516450000
21
229.0094500000
0
LINE
5
612
100
AcDbEntity
8
SCHRAFFIERT
100
AcDbLine
62
7
6
CONTINUOUS
10
344.8076360000
20
225.6654410000
11
345.5700200000
21
226.4278250000
0
LINE
5
613
100
AcDbEntity
8
SCHRAFFIERT
100
AcDbLine
62
7
6
CONTINUOUS
10
346.2819740000
20
227.1397790000
11
347.3892610000
21
228.2470660000
0
LINE
5
614
100
AcDbEntity
8
SCHRAFFIERT
100
AcDbLine
62
7
6
CONTINUOUS
10
343.8099940000
20
224.4910220000
11
344.5435630000
21
225.2245910000
0
LINE
5
615
100
AcDbEntity
8
SCHRAFFIERT
100
AcDbLine
62
7
6
CONTINUOUS
10
347.6505200000
20
228.3315490000
11
348.2081250000
21
228.8891530000
0
LINE
5
616
100
AcDbEntity
8
SCHRAFFIERT
100
AcDbLine
62
7
6
CONTINUOUS
10
344.9279330000
20
225.6089610000
11
345.5700200000
21
226.2510490000
0
LINE
5
617
100
AcDbEntity
8
SCHRAFFIERT
100
AcDbLine
62
7
6
CONTINUOUS
10
346.2819740000
20
226.9630020000
11
347.5660370000
21
228.2470660000
0
LINE
5
618
100
AcDbEntity
8
SCHRAFFIERT
100
AcDbLine
62
7
6
CONTINUOUS
10
343.9204620000
20
224.4247140000
11
344.6621370000
21
225.1663890000
0
LINE
5
619
100
AcDbEntity
8
SCHRAFFIERT
100
AcDbLine
62
7
6
CONTINUOUS
10
347.0300690000
20
227.5343210000
11
348.2591050000
21
228.7633560000
0
LINE
5
61A
100
AcDbEntity
8
SCHRAFFIERT
100
AcDbLine
62
7
6
CONTINUOUS
10
345.0537300000
20
225.5579810000
11
345.5700200000
21
226.0742720000
0
LINE
5
61B
100
AcDbEntity
8
SCHRAFFIERT
100
AcDbLine
62
7
6
CONTINUOUS
10
346.2819740000
20
226.7862250000
11
346.9947190000
21
227.4989700000
0
LINE
5
61C
100
AcDbEntity
8
SCHRAFFIERT
100
AcDbLine
62
7
6
CONTINUOUS
10
344.0339910000
20
224.3614660000
11
344.7851580000
21
225.1126330000
0
LINE
5
61D
100
AcDbEntity
8
SCHRAFFIERT
100
AcDbLine
62
7
6
CONTINUOUS
10
347.2076370000
20
227.5351120000
11
348.3041880000
21
228.6316630000
0
LINE
5
61E
100
AcDbEntity
8
SCHRAFFIERT
100
AcDbLine
62
7
6
CONTINUOUS
10
345.1854230000
20
225.5128980000
11
345.5700200000
21
225.8974950000
0
LINE
5
61F
100
AcDbEntity
8
SCHRAFFIERT
100
AcDbLine
62
7
6
CONTINUOUS
10
346.2819740000
20
226.6094490000
11
346.9939270000
21
227.3214020000
0
LINE
5
620
100
AcDbEntity
8
SCHRAFFIERT
100
AcDbLine
62
7
6
CONTINUOUS
10
344.1506660000
20
224.3013640000
11
344.9128660000
21
225.0635640000
0
LINE
5
621
100
AcDbEntity
8
SCHRAFFIERT
100
AcDbLine
62
7
6
CONTINUOUS
10
347.3844140000
20
227.5351120000
11
348.3428670000
21
228.4935650000
0
LINE
5
622
100
AcDbEntity
8
SCHRAFFIERT
100
AcDbLine
62
7
6
CONTINUOUS
10
345.3235200000
20
225.4742190000
11
345.5700200000
21
225.7207180000
0
LINE
5
623
100
AcDbEntity
8
SCHRAFFIERT
100
AcDbLine
62
7
6
CONTINUOUS
10
346.2819740000
20
226.4326720000
11
346.9939270000
21
227.1446250000
0
LINE
5
624
100
AcDbEntity
8
SCHRAFFIERT
100
AcDbLine
62
7
6
CONTINUOUS
10
344.2705870000
20
224.2445090000
11
345.0455550000
21
225.0194770000
0
LINE
5
625
100
AcDbEntity
8
SCHRAFFIERT
100
AcDbLine
62
7
6
CONTINUOUS
10
347.5611910000
20
227.5351120000
11
348.3744860000
21
228.3484080000
0
LINE
5
626
100
AcDbEntity
8
SCHRAFFIERT
100
AcDbLine
62
7
6
CONTINUOUS
10
345.4702210000
20
225.4441420000
11
345.5700200000
21
225.5439420000
0
LINE
5
627
100
AcDbEntity
8
SCHRAFFIERT
100
AcDbLine
62
7
6
CONTINUOUS
10
346.2819740000
20
226.2558950000
11
346.9939270000
21
226.9678490000
0
LINE
5
628
100
AcDbEntity
8
SCHRAFFIERT
100
AcDbLine
62
7
6
CONTINUOUS
10
344.3938730000
20
224.1910180000
11
345.1835890000
21
224.9807340000
0
LINE
5
629
100
AcDbEntity
8
SCHRAFFIERT
100
AcDbLine
62
7
6
CONTINUOUS
10
347.6494970000
20
227.4466420000
11
348.3981790000
21
228.1953230000
0
LINE
5
62A
100
AcDbEntity
8
SCHRAFFIERT
100
AcDbLine
62
7
6
CONTINUOUS
10
346.2819740000
20
226.0791180000
11
346.9939270000
21
226.7910720000
0
LINE
5
62B
100
AcDbEntity
8
SCHRAFFIERT
100
AcDbLine
62
7
6
CONTINUOUS
10
344.5206600000
20
224.1410280000
11
345.3274170000
21
224.9477850000
0
LINE
5
62C
100
AcDbEntity
8
SCHRAFFIERT
100
AcDbLine
62
7
6
CONTINUOUS
10
347.5561370000
20
227.1765050000
11
348.4127740000
21
228.0331420000
0
LINE
5
62D
100
AcDbEntity
8
SCHRAFFIERT
100
AcDbLine
62
7
6
CONTINUOUS
10
346.2819740000
20
225.9023420000
11
346.9939270000
21
226.6142950000
0
LINE
5
62E
100
AcDbEntity
8
SCHRAFFIERT
100
AcDbLine
62
7
6
CONTINUOUS
10
344.6511070000
20
224.0946980000
11
345.4776030000
21
224.9211940000
0
LINE
5
62F
100
AcDbEntity
8
SCHRAFFIERT
100
AcDbLine
62
7
6
CONTINUOUS
10
347.3072860000
20
226.7508770000
11
348.4166370000
21
227.8602280000
0
LINE
5
630
100
AcDbEntity
8
SCHRAFFIERT
100
AcDbLine
62
7
6
CONTINUOUS
10
346.2819740000
20
225.7255650000
11
346.9939270000
21
226.4375190000
0
LINE
5
631
100
AcDbEntity
8
SCHRAFFIERT
100
AcDbLine
62
7
6
CONTINUOUS
10
344.7853990000
20
224.0522140000
11
345.6348640000
21
224.9016780000
0
LINE
5
632
100
AcDbEntity
8
SCHRAFFIERT
100
AcDbLine
62
7
6
CONTINUOUS
10
347.3931700000
20
226.6599850000
11
348.4073660000
21
227.6741800000
0
LINE
5
633
100
AcDbEntity
8
SCHRAFFIERT
100
AcDbLine
62
7
6
CONTINUOUS
10
346.2819740000
20
225.5487880000
11
346.9939270000
21
226.2607420000
0
LINE
5
634
100
AcDbEntity
8
SCHRAFFIERT
100
AcDbLine
62
7
6
CONTINUOUS
10
344.9237540000
20
224.0137910000
11
345.8001360000
21
224.8901740000
0
LINE
5
635
100
AcDbEntity
8
SCHRAFFIERT
100
AcDbLine
62
7
6
CONTINUOUS
10
347.4892910000
20
226.5793290000
11
348.3811860000
21
227.4712240000
0
LINE
5
636
100
AcDbEntity
8
SCHRAFFIERT
100
AcDbLine
62
7
6
CONTINUOUS
10
346.3572170000
20
225.4472550000
11
346.9939270000
21
226.0839650000
0
LINE
5
637
100
AcDbEntity
8
SCHRAFFIERT
100
AcDbLine
62
7
6
CONTINUOUS
10
345.0664260000
20
223.9796870000
11
345.9746680000
21
224.8879300000
0
LINE
5
638
100
AcDbEntity
8
SCHRAFFIERT
100
AcDbLine
62
7
6
CONTINUOUS
10
347.5854130000
20
226.4986740000
11
348.3315160000
21
227.2447770000
0
LINE
5
639
100
AcDbEntity
8
SCHRAFFIERT
100
AcDbLine
62
7
6
CONTINUOUS
10
346.5723090000
20
225.4855700000
11
346.9939270000
21
225.9071880000
0
LINE
5
63A
100
AcDbEntity
8
SCHRAFFIERT
100
AcDbLine
62
7
6
CONTINUOUS
10
345.2137180000
20
223.9502020000
11
346.1601950000
21
224.8966800000
0
LINE
5
63B
100
AcDbEntity
8
SCHRAFFIERT
100
AcDbLine
62
7
6
CONTINUOUS
10
347.6815340000
20
226.4180180000
11
348.2446760000
21
226.9811600000
0
LINE
5
63C
100
AcDbEntity
8
SCHRAFFIERT
100
AcDbLine
62
7
6
CONTINUOUS
10
346.8359260000
20
225.5724100000
11
346.9939270000
21
225.7304120000
0
LINE
5
63D
100
AcDbEntity
8
SCHRAFFIERT
100
AcDbLine
62
7
6
CONTINUOUS
10
345.3659910000
20
223.9256990000
11
346.3592380000
21
224.9189450000
0
LINE
5
63E
100
AcDbEntity
8
SCHRAFFIERT
100
AcDbLine
62
7
6
CONTINUOUS
10
347.7806630000
20
226.3403710000
11
348.0792000000
21
226.6389080000
0
LINE
5
63F
100
AcDbEntity
8
SCHRAFFIERT
100
AcDbLine
62
7
6
CONTINUOUS
10
345.5236790000
20
223.9066110000
11
346.5757190000
21
224.9586500000
0
LINE
5
640
100
AcDbEntity
8
SCHRAFFIERT
100
AcDbLine
62
7
6
CONTINUOUS
10
345.6873150000
20
223.8934700000
11
346.8163930000
21
225.0225480000
0
LINE
5
641
100
AcDbEntity
8
SCHRAFFIERT
100
AcDbLine
62
7
6
CONTINUOUS
10
345.8575580000
20
223.8869360000
11
347.0949760000
21
225.1243540000
0
LINE
5
642
100
AcDbEntity
8
SCHRAFFIERT
100
AcDbLine
62
7
6
CONTINUOUS
10
346.0352400000
20
223.8878410000
11
347.4507140000
21
225.3033150000
0
LINE
5
643
100
AcDbEntity
8
SCHRAFFIERT
100
AcDbLine
62
7
6
CONTINUOUS
10
346.2214390000
20
223.8972630000
11
348.2581810000
21
225.9340060000
0
LINE
5
644
100
AcDbEntity
8
SCHRAFFIERT
100
AcDbLine
62
7
6
CONTINUOUS
10
346.4175900000
20
223.9166370000
11
348.3543830000
21
225.8534310000
0
LINE
5
645
100
AcDbEntity
8
SCHRAFFIERT
100
AcDbLine
62
7
6
CONTINUOUS
10
346.6256750000
20
223.9479460000
11
348.4505050000
21
225.7727760000
0
LINE
5
646
100
AcDbEntity
8
SCHRAFFIERT
100
AcDbLine
62
7
6
CONTINUOUS
10
346.8485720000
20
223.9940670000
11
348.5466260000
21
225.6921200000
0
LINE
5
647
100
AcDbEntity
8
SCHRAFFIERT
100
AcDbLine
62
7
6
CONTINUOUS
10
347.0907580000
20
224.0594760000
11
348.6427470000
21
225.6114650000
0
LINE
5
648
100
AcDbEntity
8
SCHRAFFIERT
100
AcDbLine
62
7
6
CONTINUOUS
10
347.3599270000
20
224.1518680000
11
348.7388690000
21
225.5308090000
0
LINE
5
649
100
AcDbEntity
8
SCHRAFFIERT
100
AcDbLine
62
7
6
CONTINUOUS
10
347.6716970000
20
224.2868610000
11
348.8349900000
21
225.4501540000
0
LINE
5
64A
100
AcDbEntity
8
SCHRAFFIERT
100
AcDbLine
62
7
6
CONTINUOUS
10
348.0706020000
20
224.5089890000
11
348.9311110000
21
225.3694990000
0
LINE
5
64B
100
AcDbEntity
8
SCHRAFFIERT
100
AcDbLine
62
7
6
CONTINUOUS
10
349.2379380000
20
226.9137620000
11
349.4266610000
21
227.1024850000
0
LINE
5
64C
100
AcDbEntity
8
SCHRAFFIERT
100
AcDbLine
62
7
6
CONTINUOUS
10
351.1181480000
20
228.7939720000
11
351.3068700000
21
228.9826950000
0
LINE
5
64D
100
AcDbEntity
8
SCHRAFFIERT
100
AcDbLine
62
7
6
CONTINUOUS
10
349.1582440000
20
227.0108450000
11
349.3489300000
21
227.2015310000
0
LINE
5
64E
100
AcDbEntity
8
SCHRAFFIERT
100
AcDbLine
62
7
6
CONTINUOUS
10
351.0191020000
20
228.8717030000
11
351.2097870000
21
229.0623880000
0
LINE
5
64F
100
AcDbEntity
8
SCHRAFFIERT
100
AcDbLine
62
7
6
CONTINUOUS
10
349.0863360000
20
227.1157140000
11
349.2808700000
21
227.3102470000
0
LINE
5
650
100
AcDbEntity
8
SCHRAFFIERT
100
AcDbLine
62
7
6
CONTINUOUS
10
350.9103850000
20
228.9397630000
11
351.1049180000
21
229.1342960000
0
LINE
5
651
100
AcDbEntity
8
SCHRAFFIERT
100
AcDbLine
62
7
6
CONTINUOUS
10
349.0226050000
20
227.2287590000
11
349.2232320000
21
227.4293870000
0
LINE
5
652
100
AcDbEntity
8
SCHRAFFIERT
100
AcDbLine
62
7
6
CONTINUOUS
10
350.7912460000
20
228.9974000000
11
350.9918740000
21
229.1980280000
0
LINE
5
653
100
AcDbEntity
8
SCHRAFFIERT
100
AcDbLine
62
7
6
CONTINUOUS
10
348.9676850000
20
227.3506160000
11
349.1773130000
21
227.5602440000
0
LINE
5
654
100
AcDbEntity
8
SCHRAFFIERT
100
AcDbLine
62
7
6
CONTINUOUS
10
350.6603890000
20
229.0433200000
11
350.8700170000
21
229.2529480000
0
LINE
5
655
100
AcDbEntity
8
SCHRAFFIERT
100
AcDbLine
62
7
6
CONTINUOUS
10
348.9225510000
20
227.4822590000
11
349.1452870000
21
227.7049950000
0
LINE
5
656
100
AcDbEntity
8
SCHRAFFIERT
100
AcDbLine
62
7
6
CONTINUOUS
10
350.5156380000
20
229.0753450000
11
350.7383740000
21
229.2980820000
0
LINE
5
657
100
AcDbEntity
8
SCHRAFFIERT
100
AcDbLine
62
7
6
CONTINUOUS
10
348.8886900000
20
227.6251740000
11
349.1309880000
21
227.8674720000
0
LINE
5
658
100
AcDbEntity
8
SCHRAFFIERT
100
AcDbLine
62
7
6
CONTINUOUS
10
350.3531600000
20
229.0896450000
11
350.5954580000
21
229.3319430000
0
LINE
5
659
100
AcDbEntity
8
SCHRAFFIERT
100
AcDbLine
62
7
6
CONTINUOUS
10
348.8684460000
20
227.7817070000
11
349.1420580000
21
228.0553190000
0
LINE
5
65A
100
AcDbEntity
8
SCHRAFFIERT
100
AcDbLine
62
7
6
CONTINUOUS
10
350.1653140000
20
229.0785750000
11
350.4389250000
21
229.3521860000
0
LINE
5
65B
100
AcDbEntity
8
SCHRAFFIERT
100
AcDbLine
62
7
6
CONTINUOUS
10
348.8657890000
20
227.9558260000
11
349.1985900000
21
228.2886280000
0
LINE
5
65C
100
AcDbEntity
8
SCHRAFFIERT
100
AcDbLine
62
7
6
CONTINUOUS
10
349.9320050000
20
229.0220430000
11
350.2648060000
21
229.3548440000
0
LINE
5
65D
100
AcDbEntity
8
SCHRAFFIERT
100
AcDbLine
62
7
6
CONTINUOUS
10
348.8883520000
20
228.1551670000
11
350.0654660000
21
229.3322800000
0
LINE
5
65E
100
AcDbEntity
8
SCHRAFFIERT
100
AcDbLine
62
7
6
CONTINUOUS
10
348.9550920000
20
228.3986830000
11
349.8219500000
21
229.2655410000
0
LINE
5
65F
100
AcDbEntity
8
SCHRAFFIERT
100
AcDbLine
62
7
6
CONTINUOUS
10
349.1830970000
20
228.8034650000
11
349.4171680000
21
229.0375360000
0
LINE
5
660
100
AcDbEntity
8
SCHRAFFIERT
100
AcDbLine
62
7
6
CONTINUOUS
10
349.3252210000
20
226.8242680000
11
349.5136970000
21
227.0127450000
0
LINE
5
661
100
AcDbEntity
8
SCHRAFFIERT
100
AcDbLine
62
7
6
CONTINUOUS
10
351.2078880000
20
228.7069360000
11
351.3963640000
21
228.8954120000
0
LINE
5
662
100
AcDbEntity
8
SCHRAFFIERT
100
AcDbLine
62
7
6
CONTINUOUS
10
349.4200690000
20
226.7423390000
11
349.6099940000
21
226.9322650000
0
LINE
5
663
100
AcDbEntity
8
SCHRAFFIERT
100
AcDbLine
62
7
6
CONTINUOUS
10
351.2883670000
20
228.6106380000
11
351.4782930000
21
228.8005640000
0
LINE
5
664
100
AcDbEntity
8
SCHRAFFIERT
100
AcDbLine
62
7
6
CONTINUOUS
10
349.5226260000
20
226.6681200000
11
349.7158200000
21
226.8613140000
0
LINE
5
665
100
AcDbEntity
8
SCHRAFFIERT
100
AcDbLine
62
7
6
CONTINUOUS
10
351.3593190000
20
228.5048130000
11
351.5525130000
21
228.6980070000
0
LINE
5
666
100
AcDbEntity
8
SCHRAFFIERT
100
AcDbLine
62
7
6
CONTINUOUS
10
349.6332220000
20
226.6019390000
11
349.8318000000
21
226.8005180000
0
LINE
5
667
100
AcDbEntity
8
SCHRAFFIERT
100
AcDbLine
62
7
6
CONTINUOUS
10
351.4201150000
20
228.3888330000
11
351.6186930000
21
228.5874110000
0
LINE
5
668
100
AcDbEntity
8
SCHRAFFIERT
100
AcDbLine
62
7
6
CONTINUOUS
10
349.7524140000
20
226.5443550000
11
349.9590480000
21
226.7509890000
0
LINE
5
669
100
AcDbEntity
8
SCHRAFFIERT
100
AcDbLine
62
7
6
CONTINUOUS
10
351.4696440000
20
228.2615840000
11
351.6762780000
21
228.4682180000
0
LINE
5
66A
100
AcDbEntity
8
SCHRAFFIERT
100
AcDbLine
62
7
6
CONTINUOUS
10
349.8810640000
20
226.4962280000
11
350.0994290000
21
226.7145930000
0
LINE
5
66B
100
AcDbEntity
8
SCHRAFFIERT
100
AcDbLine
62
7
6
CONTINUOUS
10
351.5060390000
20
228.1212030000
11
351.7244040000
21
228.3395690000
0
LINE
5
66C
100
AcDbEntity
8
SCHRAFFIERT
100
AcDbLine
62
7
6
CONTINUOUS
10
350.0204820000
20
226.4588700000
11
350.2561610000
21
226.6945480000
0
LINE
5
66D
100
AcDbEntity
8
SCHRAFFIERT
100
AcDbLine
62
7
6
CONTINUOUS
10
351.5260840000
20
227.9644720000
11
351.7617630000
21
228.2001500000
0
LINE
5
66E
100
AcDbEntity
8
SCHRAFFIERT
100
AcDbLine
62
7
6
CONTINUOUS
10
350.1727100000
20
226.4343210000
11
350.4353700000
21
226.6969800000
0
LINE
5
66F
100
AcDbEntity
8
SCHRAFFIERT
100
AcDbLine
62
7
6
CONTINUOUS
10
351.5236520000
20
227.7852630000
11
351.7863120000
21
228.0479230000
0
LINE
5
670
100
AcDbEntity
8
SCHRAFFIERT
100
AcDbLine
62
7
6
CONTINUOUS
10
350.3411140000
20
226.4259480000
11
350.6515120000
21
226.7363460000
0
LINE
5
671
100
AcDbEntity
8
SCHRAFFIERT
100
AcDbLine
62
7
6
CONTINUOUS
10
351.4842860000
20
227.5691210000
11
351.7946840000
21
227.8795180000
0
LINE
5
672
100
AcDbEntity
8
SCHRAFFIERT
100
AcDbLine
62
7
6
CONTINUOUS
10
350.5318840000
20
226.4399410000
11
350.9690930000
21
226.8771510000
0
LINE
5
673
100
AcDbEntity
8
SCHRAFFIERT
100
AcDbLine
62
7
6
CONTINUOUS
10
351.3434820000
20
227.2515390000
11
351.7806910000
21
227.6887490000
0
LINE
5
674
100
AcDbEntity
8
SCHRAFFIERT
100
AcDbLine
62
7
6
CONTINUOUS
10
350.7589620000
20
226.4902420000
11
351.7303900000
21
227.4616710000
0
LINE
5
675
100
AcDbEntity
8
SCHRAFFIERT
100
AcDbLine
62
7
6
CONTINUOUS
10
351.0755150000
20
226.6300190000
11
351.5906140000
21
227.1451180000
0
ARC
5
676
100
AcDbEntity
8
035
100
AcDbCircle
62
3
6
CONTINUOUS
10
50.2625312211
20
186.5812228140
40
3.3333372461
100
AcDbArc
50
330.0000359047
51
34.9999472725
0
ARC
5
677
100
AcDbEntity
8
035
100
AcDbCircle
62
3
6
CONTINUOUS
10
52.6517295000
20
188.2541535000
40
0.4166669706
100
AcDbArc
50
35.0000241511
51
215.0000241511
0
ARC
5
678
100
AcDbEntity
8
035
100
AcDbCircle
62
3
6
CONTINUOUS
10
50.2625410954
20
186.5812235185
40
2.4999948123
100
AcDbArc
50
339.5940040622
51
35.0000382236
0
LINE
5
679
100
AcDbEntity
8
035
100
AcDbLine
62
3
6
CONTINUOUS
10
52.6056500000
20
185.7095500000
11
51.7338230000
21
186.2129000000
0
ARC
5
67A
100
AcDbEntity
8
035
100
AcDbCircle
62
3
6
CONTINUOUS
10
51.5254895000
20
185.8520560000
40
0.4166668208
100
AcDbArc
50
59.9999857733
51
239.9999857733
0
LINE
5
67B
100
AcDbEntity
8
035
100
AcDbLine
62
3
6
CONTINUOUS
10
51.3171560000
20
185.4912120000
11
52.5801100000
21
184.7620450000
0
ARC
5
67C
100
AcDbEntity
8
035
100
AcDbCircle
62
3
6
CONTINUOUS
10
52.7884431139
20
185.1228885748
40
0.4166662595
100
AcDbArc
50
240.0000025126
51
330.0000881211
0
ARC
5
67D
100
AcDbEntity
8
035
100
AcDbCircle
62
3
6
CONTINUOUS
10
50.2625359708
20
186.5812177211
40
3.3333372867
100
AcDbArc
50
60.0000518850
51
124.9999632528
0
ARC
5
67E
100
AcDbEntity
8
035
100
AcDbCircle
62
3
6
CONTINUOUS
10
48.5896045000
20
188.9704155000
40
0.4166669706
100
AcDbArc
50
125.0000241511
51
305.0000241511
0
ARC
5
67F
100
AcDbEntity
8
035
100
AcDbCircle
62
3
6
CONTINUOUS
10
50.2625345399
20
186.5812312230
40
2.4999914647
100
AcDbArc
50
99.5940751019
51
125.0000935783
0
LINE
5
680
100
AcDbEntity
8
035
100
AcDbLine
62
3
6
CONTINUOUS
10
49.8458690000
20
189.0462560000
11
49.8458690000
21
183.6645560000
0
ARC
5
681
100
AcDbEntity
8
035
100
AcDbCircle
62
3
6
CONTINUOUS
10
50.2625355000
20
183.6645560000
40
0.4166665000
100
AcDbArc
50
180.0000000000
51
360.0000000000
0
LINE
5
682
100
AcDbEntity
8
035
100
AcDbLine
62
3
6
CONTINUOUS
10
50.6792020000
20
183.6645560000
11
50.6792020000
21
189.0462560000
0
ARC
5
683
100
AcDbEntity
8
035
100
AcDbCircle
62
3
6
CONTINUOUS
10
50.2625376690
20
186.5812283911
40
2.4999940554
100
AcDbArc
50
59.9999655103
51
80.4059630336
0
ARC
5
684
100
AcDbEntity
8
035
100
AcDbCircle
62
3
6
CONTINUOUS
10
51.7208690000
20
189.1071300000
40
0.4166665708
100
AcDbArc
50
240.0000453169
51
60.0000453169
0
ARC
5
685
100
AcDbEntity
8
035
100
AcDbCircle
62
3
6
CONTINUOUS
10
50.2625402789
20
186.5812229708
40
3.3333372867
100
AcDbArc
50
150.0000518850
51
214.9999632528
0
ARC
5
686
100
AcDbEntity
8
035
100
AcDbCircle
62
3
6
CONTINUOUS
10
47.8733425000
20
184.9082910000
40
0.4166666838
100
AcDbArc
50
214.9999678304
51
34.9999678304
0
ARC
5
687
100
AcDbEntity
8
035
100
AcDbCircle
62
3
6
CONTINUOUS
10
50.2625313568
20
186.5812219338
40
2.4999960157
100
AcDbArc
50
159.5940253811
51
215.0000595424
0
LINE
5
688
100
AcDbEntity
8
035
100
AcDbLine
62
3
6
CONTINUOUS
10
47.9194210000
20
187.4528950000
11
48.7912490000
21
186.9495450000
0
ARC
5
689
100
AcDbEntity
8
035
100
AcDbCircle
62
3
6
CONTINUOUS
10
48.9995820000
20
187.3103890000
40
0.4166665708
100
AcDbArc
50
240.0000453168
51
60.0000453169
0
LINE
5
68A
100
AcDbEntity
8
035
100
AcDbLine
62
3
6
CONTINUOUS
10
49.2079150000
20
187.6712330000
11
47.9449620000
21
188.4004000000
0
ARC
5
68B
100
AcDbEntity
8
035
100
AcDbCircle
62
3
6
CONTINUOUS
10
47.7366283861
20
188.0395559252
40
0.4166669425
100
AcDbArc
50
59.9999773465
51
150.0000629550
0
ARC
5
68C
100
AcDbEntity
8
035
100
AcDbCircle
62
3
6
CONTINUOUS
10
132.3905612211
20
186.5812228140
40
3.3333372461
100
AcDbArc
50
330.0000359047
51
34.9999472725
0
ARC
5
68D
100
AcDbEntity
8
035
100
AcDbCircle
62
3
6
CONTINUOUS
10
134.7797595000
20
188.2541535000
40
0.4166669706
100
AcDbArc
50
35.0000241511
51
215.0000241511
0
ARC
5
68E
100
AcDbEntity
8
035
100
AcDbCircle
62
3
6
CONTINUOUS
10
132.3905715954
20
186.5812225662
40
2.4999949489
100
AcDbArc
50
339.5940285119
51
35.0000626732
0
LINE
5
68F
100
AcDbEntity
8
035
100
AcDbLine
62
3
6
CONTINUOUS
10
134.7336810000
20
185.7095500000
11
133.8618530000
21
186.2129000000
0
ARC
5
690
100
AcDbEntity
8
035
100
AcDbCircle
62
3
6
CONTINUOUS
10
133.6535195000
20
185.8520560000
40
0.4166668208
100
AcDbArc
50
59.9999857733
51
239.9999857733
0
LINE
5
691
100
AcDbEntity
8
035
100
AcDbLine
62
3
6
CONTINUOUS
10
133.4451860000
20
185.4912120000
11
134.7081400000
21
184.7620450000
0
ARC
5
692
100
AcDbEntity
8
035
100
AcDbCircle
62
3
6
CONTINUOUS
10
134.9164731139
20
185.1228885748
40
0.4166662595
100
AcDbArc
50
240.0000025126
51
330.0000881211
0
ARC
5
693
100
AcDbEntity
8
035
100
AcDbCircle
62
3
6
CONTINUOUS
10
132.3905669708
20
186.5812177211
40
3.3333372867
100
AcDbArc
50
60.0000518850
51
124.9999632528
0
ARC
5
694
100
AcDbEntity
8
035
100
AcDbCircle
62
3
6
CONTINUOUS
10
130.7176350000
20
188.9704155000
40
0.4166666838
100
AcDbArc
50
124.9999678304
51
304.9999678304
0
ARC
5
695
100
AcDbEntity
8
035
100
AcDbCircle
62
3
6
CONTINUOUS
10
132.3905645399
20
186.5812312230
40
2.4999914647
100
AcDbArc
50
99.5940751019
51
125.0000935783
0
LINE
5
696
100
AcDbEntity
8
035
100
AcDbLine
62
3
6
CONTINUOUS
10
131.9738990000
20
189.0462560000
11
131.9738990000
21
183.6645560000
0
ARC
5
697
100
AcDbEntity
8
035
100
AcDbCircle
62
3
6
CONTINUOUS
10
132.3905660000
20
183.6645560000
40
0.4166670000
100
AcDbArc
50
180.0000000000
51
360.0000000000
0
LINE
5
698
100
AcDbEntity
8
035
100
AcDbLine
62
3
6
CONTINUOUS
10
132.8072330000
20
183.6645560000
11
132.8072330000
21
189.0462560000
0
ARC
5
699
100
AcDbEntity
8
035
100
AcDbCircle
62
3
6
CONTINUOUS
10
132.3905681690
20
186.5812311692
40
2.4999913996
100
AcDbArc
50
59.9999436000
51
80.4059411233
0
ARC
5
69A
100
AcDbEntity
8
035
100
AcDbCircle
62
3
6
CONTINUOUS
10
133.8488995000
20
189.1071300000
40
0.4166668208
100
AcDbArc
50
239.9999857733
51
59.9999857733
0
ARC
5
69B
100
AcDbEntity
8
035
100
AcDbCircle
62
3
6
CONTINUOUS
10
132.3905707789
20
186.5812221860
40
3.3333372461
100
AcDbArc
50
150.0000359047
51
214.9999472725
0
ARC
5
69C
100
AcDbEntity
8
035
100
AcDbCircle
62
3
6
CONTINUOUS
10
130.0013725000
20
184.9082910000
40
0.4166666838
100
AcDbArc
50
214.9999678304
51
34.9999678304
0
ARC
5
69D
100
AcDbEntity
8
035
100
AcDbCircle
62
3
6
CONTINUOUS
10
132.3905613568
20
186.5812219338
40
2.4999960157
100
AcDbArc
50
159.5940253811
51
215.0000595424
0
LINE
5
69E
100
AcDbEntity
8
035
100
AcDbLine
62
3
6
CONTINUOUS
10
130.0474510000
20
187.4528950000
11
130.9192790000
21
186.9495450000
0
ARC
5
69F
100
AcDbEntity
8
035
100
AcDbCircle
62
3
6
CONTINUOUS
10
131.1276125000
20
187.3103890000
40
0.4166668208
100
AcDbArc
50
239.9999857733
51
59.9999857733
0
LINE
5
6A0
100
AcDbEntity
8
035
100
AcDbLine
62
3
6
CONTINUOUS
10
131.3359460000
20
187.6712330000
11
130.0729920000
21
188.4004000000
0
ARC
5
6A1
100
AcDbEntity
8
035
100
AcDbCircle
62
3
6
CONTINUOUS
10
129.8646588861
20
188.0395564252
40
0.4166662595
100
AcDbArc
50
60.0000025126
51
150.0000881211
0
LINE
5
6A2
100
AcDbEntity
8
035
100
AcDbLine
62
3
6
CONTINUOUS
10
92.6874940000
20
191.5214800000
11
92.3569440000
21
192.4652690000
0
LINE
5
6A3
100
AcDbEntity
8
035
100
AcDbLine
62
3
6
CONTINUOUS
10
92.6874940000
20
191.5214800000
11
92.1311920000
21
191.3266430000
0
LINE
5
6A4
100
AcDbEntity
8
035
100
AcDbLine
62
3
6
CONTINUOUS
10
92.1311920000
20
191.3266430000
11
91.3860590000
21
191.1609460000
0
LINE
5
6A5
100
AcDbEntity
8
035
100
AcDbLine
62
3
6
CONTINUOUS
10
91.3860590000
20
191.1609460000
11
90.5456450000
21
191.3822570000
0
LINE
5
6A6
100
AcDbEntity
8
035
100
AcDbLine
62
3
6
CONTINUOUS
10
90.5456450000
20
191.3822570000
11
89.8402740000
21
191.7909070000
0
LINE
5
6A7
100
AcDbEntity
8
035
100
AcDbLine
62
3
6
CONTINUOUS
10
89.8402740000
20
191.7909070000
11
89.4329980000
21
192.1984580000
0
LINE
5
6A8
100
AcDbEntity
8
035
100
AcDbLine
62
3
6
CONTINUOUS
10
89.4329980000
20
192.1984580000
11
89.0146940000
21
192.5924220000
0
LINE
5
6A9
100
AcDbEntity
8
035
100
AcDbLine
62
3
6
CONTINUOUS
10
89.0146940000
20
192.5924220000
11
88.7464890000
21
192.8504860000
0
LINE
5
6AA
100
AcDbEntity
8
035
100
AcDbLine
62
3
6
CONTINUOUS
10
92.3569440000
20
192.4652690000
11
91.8564260000
21
192.2899690000
0
LINE
5
6AB
100
AcDbEntity
8
035
100
AcDbLine
62
3
6
CONTINUOUS
10
91.8564260000
20
192.2899690000
11
91.4059590000
21
192.1897970000
0
LINE
5
6AC
100
AcDbEntity
8
035
100
AcDbLine
62
3
6
CONTINUOUS
10
91.4059590000
20
192.1897970000
11
90.9304660000
21
192.3150120000
0
LINE
5
6AD
100
AcDbEntity
8
035
100
AcDbLine
62
3
6
CONTINUOUS
10
90.9304660000
20
192.3150120000
11
90.4549730000
21
192.5904830000
0
LINE
5
6AE
100
AcDbEntity
8
035
100
AcDbLine
62
3
6
CONTINUOUS
10
90.4549730000
20
192.5904830000
11
90.1296360000
21
192.9160410000
0
LINE
5
6AF
100
AcDbEntity
8
035
100
AcDbLine
62
3
6
CONTINUOUS
10
90.1296360000
20
192.9160410000
11
89.8444660000
21
193.1846180000
0
LINE
5
6B0
100
AcDbEntity
8
035
100
AcDbLine
62
3
6
CONTINUOUS
10
90.2961570000
20
180.2213610000
11
90.7966760000
21
180.3966610000
0
LINE
5
6B1
100
AcDbEntity
8
035
100
AcDbLine
62
3
6
CONTINUOUS
10
90.7966760000
20
180.3966610000
11
91.2471430000
21
180.4968330000
0
LINE
5
6B2
100
AcDbEntity
8
035
100
AcDbLine
62
3
6
CONTINUOUS
10
91.2471430000
20
180.4968330000
11
91.7226360000
21
180.3716180000
0
LINE
5
6B3
100
AcDbEntity
8
035
100
AcDbLine
62
3
6
CONTINUOUS
10
91.7226360000
20
180.3716180000
11
92.1981290000
21
180.0961470000
0
LINE
5
6B4
100
AcDbEntity
8
035
100
AcDbLine
62
3
6
CONTINUOUS
10
92.1981290000
20
180.0961470000
11
92.5234660000
21
179.7705890000
0
LINE
5
6B5
100
AcDbEntity
8
035
100
AcDbLine
62
3
6
CONTINUOUS
10
92.5234660000
20
179.7705890000
11
92.8086360000
21
179.5020120000
0
LINE
5
6B6
100
AcDbEntity
8
035
100
AcDbLine
62
3
6
CONTINUOUS
10
89.9656080000
20
181.1651500000
11
90.5219100000
21
181.3599870000
0
LINE
5
6B7
100
AcDbEntity
8
035
100
AcDbLine
62
3
6
CONTINUOUS
10
90.5219100000
20
181.3599870000
11
91.2670430000
21
181.5256840000
0
LINE
5
6B8
100
AcDbEntity
8
035
100
AcDbLine
62
3
6
CONTINUOUS
10
91.2670430000
20
181.5256840000
11
92.1074560000
21
181.3043730000
0
LINE
5
6B9
100
AcDbEntity
8
035
100
AcDbLine
62
3
6
CONTINUOUS
10
92.1074560000
20
181.3043730000
11
92.8128280000
21
180.8957230000
0
LINE
5
6BA
100
AcDbEntity
8
035
100
AcDbLine
62
3
6
CONTINUOUS
10
92.8128280000
20
180.8957230000
11
93.2201040000
21
180.4881720000
0
LINE
5
6BB
100
AcDbEntity
8
035
100
AcDbLine
62
3
6
CONTINUOUS
10
93.2201040000
20
180.4881720000
11
93.6384080000
21
180.0942070000
0
LINE
5
6BC
100
AcDbEntity
8
035
100
AcDbLine
62
3
6
CONTINUOUS
10
93.6384080000
20
180.0942070000
11
93.9066130000
21
179.8361440000
0
LINE
5
6BD
100
AcDbEntity
8
035
100
AcDbLine
62
3
6
CONTINUOUS
10
89.9656080000
20
181.1651500000
11
90.2961570000
21
180.2213610000
0
LINE
5
6BE
100
AcDbEntity
8
035
100
AcDbLine
62
3
6
CONTINUOUS
10
104.3085590000
20
184.9823720000
11
104.5033970000
21
185.5386740000
0
LINE
5
6BF
100
AcDbEntity
8
035
100
AcDbLine
62
3
6
CONTINUOUS
10
104.5033970000
20
185.5386740000
11
104.6690940000
21
186.2838070000
0
LINE
5
6C0
100
AcDbEntity
8
035
100
AcDbLine
62
3
6
CONTINUOUS
10
104.6690940000
20
186.2838070000
11
104.4477830000
21
187.1242210000
0
LINE
5
6C1
100
AcDbEntity
8
035
100
AcDbLine
62
3
6
CONTINUOUS
10
104.4477830000
20
187.1242210000
11
104.0391330000
21
187.8295920000
0
LINE
5
6C2
100
AcDbEntity
8
035
100
AcDbLine
62
3
6
CONTINUOUS
10
104.0391330000
20
187.8295920000
11
103.6315810000
21
188.2368680000
0
LINE
5
6C3
100
AcDbEntity
8
035
100
AcDbLine
62
3
6
CONTINUOUS
10
103.6315810000
20
188.2368680000
11
103.2376170000
21
188.6551720000
0
LINE
5
6C4
100
AcDbEntity
8
035
100
AcDbLine
62
3
6
CONTINUOUS
10
103.2376170000
20
188.6551720000
11
102.3677410000
21
189.5592320000
0
LINE
5
6C5
100
AcDbEntity
8
035
100
AcDbLine
62
3
6
CONTINUOUS
10
104.3085590000
20
184.9823720000
11
103.3647710000
21
185.3129210000
0
LINE
5
6C6
100
AcDbEntity
8
035
100
AcDbLine
62
3
6
CONTINUOUS
10
103.3647710000
20
185.3129210000
11
103.5400710000
21
185.8134400000
0
LINE
5
6C7
100
AcDbEntity
8
035
100
AcDbLine
62
3
6
CONTINUOUS
10
103.5400710000
20
185.8134400000
11
103.6402420000
21
186.2639070000
0
LINE
5
6C8
100
AcDbEntity
8
035
100
AcDbLine
62
3
6
CONTINUOUS
10
103.6402420000
20
186.2639070000
11
103.5150280000
21
186.7394000000
0
LINE
5
6C9
100
AcDbEntity
8
035
100
AcDbLine
62
3
6
CONTINUOUS
10
103.5150280000
20
186.7394000000
11
103.2395560000
21
187.2148930000
0
LINE
5
6CA
100
AcDbEntity
8
035
100
AcDbLine
62
3
6
CONTINUOUS
10
103.2395560000
20
187.2148930000
11
102.9139990000
21
187.5402300000
0
LINE
5
6CB
100
AcDbEntity
8
035
100
AcDbLine
62
3
6
CONTINUOUS
10
102.9139990000
20
187.5402300000
11
102.7437280000
21
187.7210210000
0
LINE
5
6CC
100
AcDbEntity
8
035
100
AcDbLine
62
3
6
CONTINUOUS
10
79.2883310000
20
187.3737080000
11
79.1130310000
21
186.8731900000
0
LINE
5
6CD
100
AcDbEntity
8
035
100
AcDbLine
62
3
6
CONTINUOUS
10
79.1130310000
20
186.8731900000
11
79.0128600000
21
186.4227230000
0
LINE
5
6CE
100
AcDbEntity
8
035
100
AcDbLine
62
3
6
CONTINUOUS
10
79.0128600000
20
186.4227230000
11
79.1380740000
21
185.9472300000
0
LINE
5
6CF
100
AcDbEntity
8
035
100
AcDbLine
62
3
6
CONTINUOUS
10
79.1380740000
20
185.9472300000
11
79.4135460000
21
185.4717370000
0
LINE
5
6D0
100
AcDbEntity
8
035
100
AcDbLine
62
3
6
CONTINUOUS
10
79.4135460000
20
185.4717370000
11
79.7391030000
21
185.1464000000
0
LINE
5
6D1
100
AcDbEntity
8
035
100
AcDbLine
62
3
6
CONTINUOUS
10
79.7391030000
20
185.1464000000
11
79.9093740000
21
184.9656090000
0
LINE
5
6D2
100
AcDbEntity
8
035
100
AcDbLine
62
3
6
CONTINUOUS
10
78.3445430000
20
187.7042580000
11
79.2883310000
21
187.3737080000
0
LINE
5
6D3
100
AcDbEntity
8
035
100
AcDbLine
62
3
6
CONTINUOUS
10
78.3445430000
20
187.7042580000
11
78.1497050000
21
187.1479560000
0
LINE
5
6D4
100
AcDbEntity
8
035
100
AcDbLine
62
3
6
CONTINUOUS
10
78.1497050000
20
187.1479560000
11
77.9840080000
21
186.4028230000
0
LINE
5
6D5
100
AcDbEntity
8
035
100
AcDbLine
62
3
6
CONTINUOUS
10
77.9840080000
20
186.4028230000
11
78.2053190000
21
185.5624090000
0
LINE
5
6D6
100
AcDbEntity
8
035
100
AcDbLine
62
3
6
CONTINUOUS
10
78.2053190000
20
185.5624090000
11
78.6139690000
21
184.8570380000
0
LINE
5
6D7
100
AcDbEntity
8
035
100
AcDbLine
62
3
6
CONTINUOUS
10
78.6139690000
20
184.8570380000
11
79.0215200000
21
184.4497620000
0
LINE
5
6D8
100
AcDbEntity
8
035
100
AcDbLine
62
3
6
CONTINUOUS
10
79.0215200000
20
184.4497620000
11
79.4154850000
21
184.0314580000
0
LINE
5
6D9
100
AcDbEntity
8
035
100
AcDbLine
62
3
6
CONTINUOUS
10
79.4154850000
20
184.0314580000
11
80.2853610000
21
183.1273980000
0
LINE
5
6DA
100
AcDbEntity
8
035
100
AcDbLine
62
3
6
CONTINUOUS
10
199.1121350000
20
181.5433150000
11
187.5121350000
21
181.5433150000
0
LINE
5
6DB
100
AcDbEntity
8
035
100
AcDbLine
62
3
6
CONTINUOUS
10
199.1121350000
20
191.1433150000
11
187.5121350000
21
191.1433150000
0
LINE
5
6DC
100
AcDbEntity
8
035
100
AcDbLine
62
3
6
CONTINUOUS
10
195.1121350000
20
178.6433150000
11
185.9121350000
21
178.6433150000
0
LINE
5
6DD
100
AcDbEntity
8
035
100
AcDbLine
62
3
6
CONTINUOUS
10
195.1121350000
20
179.6433150000
11
185.9121350000
21
179.6433150000
0
LINE
5
6DE
100
AcDbEntity
8
035
100
AcDbLine
62
3
6
CONTINUOUS
10
187.5121350000
20
179.0433150000
11
185.5121350000
21
179.0433150000
0
LINE
5
6DF
100
AcDbEntity
8
035
100
AcDbLine
62
3
6
CONTINUOUS
10
187.5121350000
20
179.2433150000
11
185.5121350000
21
179.2433150000
0
LINE
5
6E0
100
AcDbEntity
8
035
100
AcDbLine
62
3
6
CONTINUOUS
10
185.5121350000
20
179.0433150000
11
185.5121350000
21
179.2433150000
0
LINE
5
6E1
100
AcDbEntity
8
035
100
AcDbLine
62
3
6
CONTINUOUS
10
187.5121350000
20
178.6433150000
11
187.5121350000
21
179.6433150000
0
LINE
5
6E2
100
AcDbEntity
8
035
100
AcDbLine
62
3
6
CONTINUOUS
10
185.5121350000
20
179.0433150000
11
185.9121350000
21
178.6433150000
0
LINE
5
6E3
100
AcDbEntity
8
035
100
AcDbLine
62
3
6
CONTINUOUS
10
185.5121350000
20
179.2433150000
11
185.9121350000
21
179.6433150000
0
LINE
5
6E4
100
AcDbEntity
8
035
100
AcDbLine
62
3
6
CONTINUOUS
10
185.5121350000
20
193.4433150000
11
185.9121350000
21
193.0433150000
0
LINE
5
6E5
100
AcDbEntity
8
035
100
AcDbLine
62
3
6
CONTINUOUS
10
185.5121350000
20
193.6433150000
11
185.9121350000
21
194.0433150000
0
LINE
5
6E6
100
AcDbEntity
8
035
100
AcDbLine
62
3
6
CONTINUOUS
10
187.5121350000
20
194.0433150000
11
187.5121350000
21
193.0433150000
0
LINE
5
6E7
100
AcDbEntity
8
035
100
AcDbLine
62
3
6
CONTINUOUS
10
185.5121350000
20
193.6433150000
11
185.5121350000
21
193.4433150000
0
LINE
5
6E8
100
AcDbEntity
8
035
100
AcDbLine
62
3
6
CONTINUOUS
10
187.5121350000
20
193.4433150000
11
185.5121350000
21
193.4433150000
0
LINE
5
6E9
100
AcDbEntity
8
035
100
AcDbLine
62
3
6
CONTINUOUS
10
187.5121350000
20
193.6433150000
11
185.5121350000
21
193.6433150000
0
LINE
5
6EA
100
AcDbEntity
8
035
100
AcDbLine
62
3
6
CONTINUOUS
10
195.1121350000
20
193.0433150000
11
185.9121350000
21
193.0433150000
0
LINE
5
6EB
100
AcDbEntity
8
035
100
AcDbLine
62
3
6
CONTINUOUS
10
195.1121350000
20
194.0433150000
11
185.9121350000
21
194.0433150000
0
LINE
5
6EC
100
AcDbEntity
8
035
100
AcDbLine
62
3
6
CONTINUOUS
10
343.0914630000
20
193.9433150000
11
342.9257780000
21
193.5433150000
0
LINE
5
6ED
100
AcDbEntity
8
035
100
AcDbLine
62
3
6
CONTINUOUS
10
342.9257780000
20
193.5433150000
11
342.9257780000
21
193.3433150000
0
LINE
5
6EE
100
AcDbEntity
8
035
100
AcDbLine
62
3
6
CONTINUOUS
10
342.9257780000
20
193.3433150000
11
343.0914630000
21
192.9433150000
0
LINE
5
6EF
100
AcDbEntity
8
035
100
AcDbLine
62
3
6
CONTINUOUS
10
337.6571480000
20
193.3433150000
11
337.4914630000
21
192.9433150000
0
LINE
5
6F0
100
AcDbEntity
8
035
100
AcDbLine
62
3
6
CONTINUOUS
10
337.4914630000
20
193.9433150000
11
337.6571480000
21
193.5433150000
0
LINE
5
6F1
100
AcDbEntity
8
035
100
AcDbLine
62
3
6
CONTINUOUS
10
337.6571480000
20
193.5433150000
11
337.6571480000
21
193.3433150000
0
LINE
5
6F2
100
AcDbEntity
8
035
100
AcDbLine
62
3
6
CONTINUOUS
10
335.4914630000
20
193.5433150000
11
345.0914630000
21
193.5433150000
0
LINE
5
6F3
100
AcDbEntity
8
035
100
AcDbLine
62
3
6
CONTINUOUS
10
335.4914630000
20
193.3433150000
11
345.0914630000
21
193.3433150000
0
LINE
5
6F4
100
AcDbEntity
8
035
100
AcDbLine
62
3
6
CONTINUOUS
10
335.4914630000
20
193.9433150000
11
335.4914630000
21
192.9433150000
0
LINE
5
6F5
100
AcDbEntity
8
035
100
AcDbLine
62
3
6
CONTINUOUS
10
345.0914630000
20
193.9433150000
11
345.0914630000
21
192.9433150000
0
LINE
5
6F6
100
AcDbEntity
8
035
100
AcDbLine
62
3
6
CONTINUOUS
10
335.4914630000
20
192.9433150000
11
345.0914630000
21
192.9433150000
0
LINE
5
6F7
100
AcDbEntity
8
035
100
AcDbLine
62
3
6
CONTINUOUS
10
335.4914630000
20
193.9433150000
11
345.0914630000
21
193.9433150000
0
LINE
5
6F8
100
AcDbEntity
8
035
100
AcDbLine
62
3
6
CONTINUOUS
10
329.0914630000
20
182.1433150000
11
329.0914630000
21
190.5433150000
0
LINE
5
6F9
100
AcDbEntity
8
035
100
AcDbLine
62
3
6
CONTINUOUS
10
328.5914630000
20
181.5433150000
11
328.5914630000
21
191.1433150000
0
LINE
5
6FA
100
AcDbEntity
8
035
100
AcDbLine
62
3
6
CONTINUOUS
10
329.5914630000
20
181.5433150000
11
329.5914630000
21
191.1433150000
0
LINE
5
6FB
100
AcDbEntity
8
035
100
AcDbLine
62
3
6
CONTINUOUS
10
328.5914630000
20
191.1433150000
11
329.5914630000
21
191.1433150000
0
LINE
5
6FC
100
AcDbEntity
8
035
100
AcDbLine
62
3
6
CONTINUOUS
10
328.5914630000
20
181.5433150000
11
329.5914630000
21
181.5433150000
0
LINE
5
6FD
100
AcDbEntity
8
035
100
AcDbLine
62
3
6
CONTINUOUS
10
329.1914630000
20
181.5433150000
11
329.1914630000
21
191.1433150000
0
LINE
5
6FE
100
AcDbEntity
8
035
100
AcDbLine
62
3
6
CONTINUOUS
10
328.9914630000
20
181.5433150000
11
328.9914630000
21
191.1433150000
0
LINE
5
6FF
100
AcDbEntity
8
035
100
AcDbLine
62
3
6
CONTINUOUS
10
328.9914630000
20
183.7090000000
11
329.1914630000
21
183.7090000000
0
LINE
5
700
100
AcDbEntity
8
035
100
AcDbLine
62
3
6
CONTINUOUS
10
328.5914630000
20
183.5433150000
11
328.9914630000
21
183.7090000000
0
LINE
5
701
100
AcDbEntity
8
035
100
AcDbLine
62
3
6
CONTINUOUS
10
329.1914630000
20
183.7090000000
11
329.5914630000
21
183.5433150000
0
LINE
5
702
100
AcDbEntity
8
035
100
AcDbLine
62
3
6
CONTINUOUS
10
329.1914630000
20
188.9776300000
11
329.5914630000
21
189.1433150000
0
LINE
5
703
100
AcDbEntity
8
035
100
AcDbLine
62
3
6
CONTINUOUS
10
328.9914630000
20
188.9776300000
11
329.1914630000
21
188.9776300000
0
LINE
5
704
100
AcDbEntity
8
035
100
AcDbLine
62
3
6
CONTINUOUS
10
328.5914630000
20
189.1433150000
11
328.9914630000
21
188.9776300000
0
LINE
5
705
100
AcDbEntity
8
035
100
AcDbLine
62
3
6
CONTINUOUS
10
335.4914630000
20
178.7433150000
11
345.0914630000
21
178.7433150000
0
LINE
5
706
100
AcDbEntity
8
035
100
AcDbLine
62
3
6
CONTINUOUS
10
335.4914630000
20
179.7433150000
11
345.0914630000
21
179.7433150000
0
LINE
5
707
100
AcDbEntity
8
035
100
AcDbLine
62
3
6
CONTINUOUS
10
345.0914630000
20
178.7433150000
11
345.0914630000
21
179.7433150000
0
LINE
5
708
100
AcDbEntity
8
035
100
AcDbLine
62
3
6
CONTINUOUS
10
335.4914630000
20
178.7433150000
11
335.4914630000
21
179.7433150000
0
LINE
5
709
100
AcDbEntity
8
035
100
AcDbLine
62
3
6
CONTINUOUS
10
335.4914630000
20
179.3433150000
11
345.0914630000
21
179.3433150000
0
LINE
5
70A
100
AcDbEntity
8
035
100
AcDbLine
62
3
6
CONTINUOUS
10
335.4914630000
20
179.1433150000
11
345.0914630000
21
179.1433150000
0
LINE
5
70B
100
AcDbEntity
8
035
100
AcDbLine
62
3
6
CONTINUOUS
10
337.6571480000
20
179.1433150000
11
337.6571480000
21
179.3433150000
0
LINE
5
70C
100
AcDbEntity
8
035
100
AcDbLine
62
3
6
CONTINUOUS
10
337.4914630000
20
178.7433150000
11
337.6571480000
21
179.1433150000
0
LINE
5
70D
100
AcDbEntity
8
035
100
AcDbLine
62
3
6
CONTINUOUS
10
337.6571480000
20
179.3433150000
11
337.4914630000
21
179.7433150000
0
LINE
5
70E
100
AcDbEntity
8
035
100
AcDbLine
62
3
6
CONTINUOUS
10
342.9257780000
20
179.3433150000
11
343.0914630000
21
179.7433150000
0
LINE
5
70F
100
AcDbEntity
8
035
100
AcDbLine
62
3
6
CONTINUOUS
10
342.9257780000
20
179.1433150000
11
342.9257780000
21
179.3433150000
0
LINE
5
710
100
AcDbEntity
8
035
100
AcDbLine
62
3
6
CONTINUOUS
10
343.0914630000
20
178.7433150000
11
342.9257780000
21
179.1433150000
0
LINE
5
711
100
AcDbEntity
8
035
100
AcDbLine
62
3
6
CONTINUOUS
10
351.9914630000
20
189.1433150000
11
351.5914630000
21
188.9776300000
0
LINE
5
712
100
AcDbEntity
8
035
100
AcDbLine
62
3
6
CONTINUOUS
10
351.5914630000
20
188.9776300000
11
351.3914630000
21
188.9776300000
0
LINE
5
713
100
AcDbEntity
8
035
100
AcDbLine
62
3
6
CONTINUOUS
10
351.3914630000
20
188.9776300000
11
350.9914630000
21
189.1433150000
0
LINE
5
714
100
AcDbEntity
8
035
100
AcDbLine
62
3
6
CONTINUOUS
10
351.3914630000
20
183.7090000000
11
350.9914630000
21
183.5433150000
0
LINE
5
715
100
AcDbEntity
8
035
100
AcDbLine
62
3
6
CONTINUOUS
10
351.9914630000
20
183.5433150000
11
351.5914630000
21
183.7090000000
0
LINE
5
716
100
AcDbEntity
8
035
100
AcDbLine
62
3
6
CONTINUOUS
10
351.5914630000
20
183.7090000000
11
351.3914630000
21
183.7090000000
0
LINE
5
717
100
AcDbEntity
8
035
100
AcDbLine
62
3
6
CONTINUOUS
10
351.5914630000
20
181.5433150000
11
351.5914630000
21
191.1433150000
0
LINE
5
718
100
AcDbEntity
8
035
100
AcDbLine
62
3
6
CONTINUOUS
10
351.3914630000
20
181.5433150000
11
351.3914630000
21
191.1433150000
0
LINE
5
719
100
AcDbEntity
8
035
100
AcDbLine
62
3
6
CONTINUOUS
10
351.9914630000
20
181.5433150000
11
350.9914630000
21
181.5433150000
0
LINE
5
71A
100
AcDbEntity
8
035
100
AcDbLine
62
3
6
CONTINUOUS
10
351.9914630000
20
191.1433150000
11
350.9914630000
21
191.1433150000
0
LINE
5
71B
100
AcDbEntity
8
035
100
AcDbLine
62
3
6
CONTINUOUS
10
350.9914630000
20
181.5433150000
11
350.9914630000
21
191.1433150000
0
LINE
5
71C
100
AcDbEntity
8
035
100
AcDbLine
62
3
6
CONTINUOUS
10
351.9914630000
20
181.5433150000
11
351.9914630000
21
191.1433150000
0
LINE
5
71D
100
AcDbEntity
8
035
100
AcDbLine
62
3
6
CONTINUOUS
10
351.4914630000
20
182.1433150000
11
351.4914630000
21
190.5433150000
0
LINE
5
71E
100
AcDbEntity
8
035
100
AcDbLine
62
3
6
CONTINUOUS
10
185.5121350000
20
189.1433150000
11
185.5121350000
21
187.8433150000
0
LINE
5
71F
100
AcDbEntity
8
035
100
AcDbLine
62
3
6
CONTINUOUS
10
187.5121350000
20
181.5433150000
11
185.5121350000
21
183.5433150000
0
LINE
5
720
100
AcDbEntity
8
035
100
AcDbLine
62
3
6
CONTINUOUS
10
187.5121350000
20
191.1433150000
11
185.5121350000
21
189.1433150000
0
LINE
5
721
100
AcDbEntity
8
035
100
AcDbLine
62
3
6
CONTINUOUS
10
185.5121350000
20
187.8433150000
11
187.5121350000
21
186.3433150000
0
LINE
5
722
100
AcDbEntity
8
035
100
AcDbLine
62
3
6
CONTINUOUS
10
187.5121350000
20
186.3433150000
11
185.5121350000
21
184.8433150000
0
LINE
5
723
100
AcDbEntity
8
035
100
AcDbLine
62
3
6
CONTINUOUS
10
185.5121350000
20
184.8433150000
11
185.5121350000
21
183.5433150000
0
CIRCLE
5
724
100
AcDbEntity
8
035
100
AcDbCircle
62
3
6
CONTINUOUS
10
191.5121350000
20
186.3433150000
40
1.2000000000
0
LINE
5
725
100
AcDbEntity
8
035
100
AcDbLine
62
3
6
CONTINUOUS
10
188.0778200000
20
191.1433150000
11
185.9121350000
21
188.9776300000
0
LINE
5
726
100
AcDbEntity
8
035
100
AcDbLine
62
3
6
CONTINUOUS
10
185.9121350000
20
188.9776300000
11
185.9121350000
21
187.5433150000
0
LINE
5
727
100
AcDbEntity
8
035
100
AcDbLine
62
3
6
CONTINUOUS
10
185.9121350000
20
185.1433150000
11
185.9121350000
21
183.7090000000
0
LINE
5
728
100
AcDbEntity
8
035
100
AcDbLine
62
3
6
CONTINUOUS
10
188.0778200000
20
181.5433150000
11
185.9121350000
21
183.7090000000
0
LINE
5
729
100
AcDbEntity
8
035
100
AcDbLine
62
3
6
CONTINUOUS
10
185.9121350000
20
188.9776300000
11
185.5121350000
21
189.1433150000
0
LINE
5
72A
100
AcDbEntity
8
035
100
AcDbLine
62
3
6
CONTINUOUS
10
185.9121350000
20
183.7090000000
11
185.5121350000
21
183.5433150000
0
LINE
5
72B
100
AcDbEntity
8
035
100
AcDbLine
62
3
6
CONTINUOUS
10
278.1107220000
20
13.2089520000
11
279.8185550000
21
13.2089520000
0
LINE
5
72C
100
AcDbEntity
8
035
100
AcDbLine
62
3
6
CONTINUOUS
10
278.6614380000
20
15.6930720000
11
280.6797860000
21
15.6930720000
0
LINE
5
72D
100
AcDbEntity
8
035
100
AcDbLine
62
3
6
CONTINUOUS
10
278.1107220000
20
13.2089520000
11
278.6614380000
21
15.6930720000
0
LINE
5
72E
100
AcDbEntity
8
035
100
AcDbLine
62
3
6
CONTINUOUS
10
279.8185550000
20
13.2089520000
11
280.1283320000
21
14.6062700000
0
LINE
5
72F
100
AcDbEntity
8
035
100
AcDbLine
62
3
6
CONTINUOUS
10
283.6223630000
20
13.2089520000
11
284.1730790000
21
15.6930720000
0
LINE
5
730
100
AcDbEntity
8
035
100
AcDbLine
62
3
6
CONTINUOUS
10
282.2243080000
20
14.6062700000
11
282.4652470000
21
15.6930720000
0
LINE
5
731
100
AcDbEntity
8
035
100
AcDbLine
62
3
6
CONTINUOUS
10
280.1283320000
20
14.6062700000
11
281.6816440000
21
13.2089520000
0
LINE
5
732
100
AcDbEntity
8
035
100
AcDbLine
62
3
6
CONTINUOUS
10
280.6797860000
20
15.6930720000
11
282.2243080000
21
14.6062700000
0
LINE
5
733
100
AcDbEntity
8
035
100
AcDbLine
62
3
6
CONTINUOUS
10
282.4652470000
20
15.6930720000
11
284.1730790000
21
15.6930720000
0
LINE
5
734
100
AcDbEntity
8
035
100
AcDbLine
62
3
6
CONTINUOUS
10
281.6816440000
20
13.2089520000
11
283.6223630000
21
13.2089520000
0
LINE
5
735
100
AcDbEntity
8
035
100
AcDbLine
62
3
6
CONTINUOUS
10
284.4762790000
20
13.2089520000
11
285.0269950000
21
15.6930720000
0
LINE
5
736
100
AcDbEntity
8
035
100
AcDbLine
62
3
6
CONTINUOUS
10
286.2816520000
20
13.6489310000
11
286.4273260000
21
14.3060230000
0
LINE
5
737
100
AcDbEntity
8
035
100
AcDbLine
62
3
6
CONTINUOUS
10
289.1443320000
20
14.3060230000
11
289.2086190000
21
14.5960010000
0
LINE
5
738
100
AcDbEntity
8
035
100
AcDbLine
62
3
6
CONTINUOUS
10
289.1340040000
20
13.2089520000
11
289.2315440000
21
13.6489310000
0
LINE
5
739
100
AcDbEntity
8
035
100
AcDbLine
62
3
6
CONTINUOUS
10
284.4762790000
20
13.2089520000
11
289.1340040000
21
13.2089520000
0
LINE
5
73A
100
AcDbEntity
8
035
100
AcDbLine
62
3
6
CONTINUOUS
10
285.0269950000
20
15.6930720000
11
289.6847200000
21
15.6930720000
0
LINE
5
73B
100
AcDbEntity
8
035
100
AcDbLine
62
3
6
CONTINUOUS
10
286.4916130000
20
14.5960010000
11
286.6372870000
21
15.2530940000
0
LINE
5
73C
100
AcDbEntity
8
035
100
AcDbLine
62
3
6
CONTINUOUS
10
289.5871790000
20
15.2530940000
11
289.6847200000
21
15.6930720000
0
LINE
5
73D
100
AcDbEntity
8
035
100
AcDbLine
62
3
6
CONTINUOUS
10
290.0785120000
20
13.9677470000
11
290.4610070000
21
15.6930720000
0
LINE
5
73E
100
AcDbEntity
8
035
100
AcDbLine
62
3
6
CONTINUOUS
10
291.8294160000
20
14.1814320000
11
292.1645380000
21
15.6930720000
0
LINE
5
73F
100
AcDbEntity
8
035
100
AcDbLine
62
3
6
CONTINUOUS
10
293.6970730000
20
14.1008870000
11
294.0500510000
21
15.6930720000
0
LINE
5
740
100
AcDbEntity
8
035
100
AcDbLine
62
3
6
CONTINUOUS
10
295.3443260000
20
13.8470990000
11
295.7535680000
21
15.6930720000
0
LINE
5
741
100
AcDbEntity
8
035
100
AcDbLine
62
3
6
CONTINUOUS
10
290.4610070000
20
15.6930720000
11
292.1645380000
21
15.6930720000
0
ARC
5
742
100
AcDbEntity
8
035
100
AcDbCircle
62
3
6
CONTINUOUS
10
290.3565382511
20
13.9076074747
40
0.2844562511
100
AcDbArc
50
167.7944635173
51
179.9992899294
0
ARC
5
743
100
AcDbEntity
8
035
100
AcDbCircle
62
3
6
CONTINUOUS
10
290.3565385413
20
13.9076113390
40
0.2844565413
100
AcDbArc
50
180.0000682898
51
234.6229224813
0
ARC
5
744
100
AcDbEntity
8
035
100
AcDbCircle
62
3
6
CONTINUOUS
10
291.4662366591
20
15.4704306902
40
2.2011814138
100
AcDbArc
50
234.6229020698
51
253.6104761870
0
ARC
5
745
100
AcDbEntity
8
035
100
AcDbCircle
62
3
6
CONTINUOUS
10
292.2145988754
20
18.0148393689
40
4.8533619377
100
AcDbArc
50
253.6103910211
51
263.0540333551
0
ARC
5
746
100
AcDbEntity
8
035
100
AcDbCircle
62
3
6
CONTINUOUS
10
292.7114581813
20
22.0931766141
40
8.9618536141
100
AcDbArc
50
263.0539945915
51
270.0000116273
0
ARC
5
747
100
AcDbEntity
8
035
100
AcDbCircle
62
3
6
CONTINUOUS
10
292.7114613187
20
22.0931683755
40
8.9618453755
100
AcDbArc
50
269.9999915694
51
276.9460086052
0
ARC
5
748
100
AcDbEntity
8
035
100
AcDbCircle
62
3
6
CONTINUOUS
10
293.2083201246
20
18.0148393689
40
4.8533619377
100
AcDbArc
50
276.9459666449
51
286.3896089789
0
ARC
5
749
100
AcDbEntity
8
035
100
AcDbCircle
62
3
6
CONTINUOUS
10
293.9566823409
20
15.4704306902
40
2.2011814138
100
AcDbArc
50
286.3895238130
51
305.3770979302
0
ARC
5
74A
100
AcDbEntity
8
035
100
AcDbCircle
62
3
6
CONTINUOUS
10
295.0663810713
20
13.9076107687
40
0.2844557216
100
AcDbArc
50
305.3770434265
51
347.7177170673
0
ARC
5
74B
100
AcDbEntity
8
035
100
AcDbCircle
62
3
6
CONTINUOUS
10
292.0025297663
20
14.1404964568
40
0.1778877663
100
AcDbArc
50
179.9998250514
51
225.0422913416
0
ARC
5
74C
100
AcDbEntity
8
035
100
AcDbCircle
62
3
6
CONTINUOUS
10
292.3618635061
20
14.5003622419
40
0.6864387665
100
AcDbArc
50
225.0423614170
51
247.5300128082
0
ARC
5
74D
100
AcDbEntity
8
035
100
AcDbCircle
62
3
6
CONTINUOUS
10
292.6034918176
20
15.0845620937
40
1.3186362892
100
AcDbArc
50
247.5298821870
51
260.2785491795
0
ARC
5
74E
100
AcDbEntity
8
035
100
AcDbCircle
62
3
6
CONTINUOUS
10
292.7630903846
20
16.0161117087
40
2.2637587087
100
AcDbArc
50
260.2783770082
51
269.9999902662
0
ARC
5
74F
100
AcDbEntity
8
035
100
AcDbCircle
62
3
6
CONTINUOUS
10
292.7630896154
20
16.0161117087
40
2.2637587087
100
AcDbArc
50
270.0000097338
51
279.7216229918
0
ARC
5
750
100
AcDbEntity
8
035
100
AcDbCircle
62
3
6
CONTINUOUS
10
292.9226881824
20
15.0845620937
40
1.3186362892
100
AcDbArc
50
279.7214508205
51
292.4701178130
0
ARC
5
751
100
AcDbEntity
8
035
100
AcDbCircle
62
3
6
CONTINUOUS
10
293.1643164939
20
14.5003622419
40
0.6864387665
100
AcDbArc
50
292.4699871918
51
314.9576385830
0
ARC
5
752
100
AcDbEntity
8
035
100
AcDbCircle
62
3
6
CONTINUOUS
10
293.5236507293
20
14.1404979651
40
0.1778884834
100
AcDbArc
50
314.9572524508
51
347.1339192357
0
ARC
5
753
100
AcDbEntity
8
035
100
AcDbCircle
62
3
6
CONTINUOUS
10
292.0025290776
20
14.1404969937
40
0.1778870776
100
AcDbArc
50
166.6959850486
51
179.9999979692
0
LINE
5
754
100
AcDbEntity
8
035
100
AcDbLine
62
3
6
CONTINUOUS
10
294.0500510000
20
15.6930720000
11
295.7535680000
21
15.6930720000
0
LINE
5
755
100
AcDbEntity
8
035
100
AcDbLine
62
3
6
CONTINUOUS
10
296.0678550000
20
15.0720420000
11
296.2055340000
21
15.6930720000
0
LINE
5
756
100
AcDbEntity
8
035
100
AcDbLine
62
3
6
CONTINUOUS
10
297.2073930000
20
13.2089520000
11
297.6204300000
21
15.0720420000
0
LINE
5
757
100
AcDbEntity
8
035
100
AcDbLine
62
3
6
CONTINUOUS
10
298.9152250000
20
13.2089520000
11
299.3282620000
21
15.0720420000
0
LINE
5
758
100
AcDbEntity
8
035
100
AcDbLine
62
3
6
CONTINUOUS
10
300.9584660000
20
15.0720420000
11
301.0961450000
21
15.6930720000
0
LINE
5
759
100
AcDbEntity
8
035
100
AcDbLine
62
3
6
CONTINUOUS
10
296.0678550000
20
15.0720420000
11
297.6204300000
21
15.0720420000
0
LINE
5
75A
100
AcDbEntity
8
035
100
AcDbLine
62
3
6
CONTINUOUS
10
297.2073930000
20
13.2089520000
11
298.9152250000
21
13.2089520000
0
LINE
5
75B
100
AcDbEntity
8
035
100
AcDbLine
62
3
6
CONTINUOUS
10
296.2055340000
20
15.6930720000
11
301.0961450000
21
15.6930720000
0
LINE
5
75C
100
AcDbEntity
8
035
100
AcDbLine
62
3
6
CONTINUOUS
10
299.3282620000
20
15.0720420000
11
300.9584660000
21
15.0720420000
0
LINE
5
75D
100
AcDbEntity
8
035
100
AcDbLine
62
3
6
CONTINUOUS
10
301.0888300000
20
13.2089520000
11
301.6395460000
21
15.6930720000
0
LINE
5
75E
100
AcDbEntity
8
035
100
AcDbLine
62
3
6
CONTINUOUS
10
302.7966620000
20
13.2089520000
11
303.0020150000
21
14.1352400000
0
LINE
5
75F
100
AcDbEntity
8
035
100
AcDbLine
62
3
6
CONTINUOUS
10
301.0888300000
20
13.2089520000
11
302.7966620000
21
13.2089520000
0
LINE
5
760
100
AcDbEntity
8
035
100
AcDbLine
62
3
6
CONTINUOUS
10
301.6395460000
20
15.6930720000
11
305.9979220000
21
15.6930720000
0
LINE
5
761
100
AcDbEntity
8
035
100
AcDbLine
62
3
6
CONTINUOUS
10
306.3081340000
20
13.4689140000
11
306.3485860000
21
14.0474050000
0
LINE
5
762
100
AcDbEntity
8
035
100
AcDbLine
62
3
6
CONTINUOUS
10
304.5959630000
20
13.4068680000
11
304.6272290000
21
13.8619210000
0
LINE
5
763
100
AcDbEntity
8
035
100
AcDbLine
62
3
6
CONTINUOUS
10
303.0663020000
20
14.4252180000
11
303.2498370000
21
15.2530940000
0
ARC
5
764
100
AcDbEntity
8
035
100
AcDbCircle
62
3
6
CONTINUOUS
10
306.6953320000
20
13.4418380000
40
0.3881440000
100
AcDbArc
50
176.0000000000
51
216.8698980000
0
ARC
5
765
100
AcDbEntity
8
035
100
AcDbCircle
62
3
6
CONTINUOUS
10
304.9697530000
20
13.4119050000
40
0.3738240000
100
AcDbArc
50
180.7720050000
51
212.8818750000
0
LINE
5
766
100
AcDbEntity
8
035
100
AcDbLine
62
3
6
CONTINUOUS
10
304.6558180000
20
13.2089520000
11
306.3848170000
21
13.2089520000
0
ARC
5
767
100
AcDbEntity
8
035
100
AcDbCircle
62
3
6
CONTINUOUS
10
306.0645091256
20
14.0692414046
40
0.2849148980
100
AcDbArc
50
355.6044351018
51
14.9998321139
0
ARC
5
768
100
AcDbEntity
8
035
100
AcDbCircle
62
3
6
CONTINUOUS
10
306.0645115927
20
14.0692393407
40
0.2849130492
100
AcDbArc
50
15.0003614107
51
49.8062951149
0
ARC
5
769
100
AcDbEntity
8
035
100
AcDbCircle
62
3
6
CONTINUOUS
10
305.8802286242
20
13.8511285638
40
0.5704520544
100
AcDbArc
50
49.8058236467
51
55.6063554031
0
ARC
5
76A
100
AcDbEntity
8
035
100
AcDbCircle
62
3
6
CONTINUOUS
10
305.3132482994
20
16.1994672129
40
2.0775325922
100
AcDbArc
50
295.3416402972
51
298.8636783469
0
ARC
5
76B
100
AcDbEntity
8
035
100
AcDbCircle
62
3
6
CONTINUOUS
10
305.6415395293
20
15.6038639832
40
1.3974455839
100
AcDbArc
50
298.8639281557
51
315.7882926038
0
ARC
5
76C
100
AcDbEntity
8
035
100
AcDbCircle
62
3
6
CONTINUOUS
10
305.9889757242
20
15.2658585190
40
0.9127192659
100
AcDbArc
50
315.7883093494
51
340.1939355680
0
ARC
5
76D
100
AcDbEntity
8
035
100
AcDbCircle
62
3
6
CONTINUOUS
10
306.4188091494
20
15.1110581593
40
0.4558605079
100
AcDbArc
50
340.1938658204
51
14.9997995246
0
ARC
5
76E
100
AcDbEntity
8
035
100
AcDbCircle
62
3
6
CONTINUOUS
10
306.4188087341
20
15.1110565785
40
0.4558613183
100
AcDbArc
50
14.9999779363
51
49.8059116405
0
ARC
5
76F
100
AcDbEntity
8
035
100
AcDbCircle
62
3
6
CONTINUOUS
10
306.1239631890
20
14.7620752320
40
0.9127222113
100
AcDbArc
50
49.8061438314
51
74.2117700500
0
ARC
5
770
100
AcDbEntity
8
035
100
AcDbCircle
62
3
6
CONTINUOUS
10
305.9920781414
20
14.2956381767
40
1.3974460423
100
AcDbArc
50
74.2117641360
51
89.7603990413
0
LINE
5
771
100
AcDbEntity
8
035
100
AcDbLine
62
3
6
CONTINUOUS
10
307.1438710000
20
13.2089520000
11
307.6945880000
21
15.6930720000
0
LINE
5
772
100
AcDbEntity
8
035
100
AcDbLine
62
3
6
CONTINUOUS
10
308.8517040000
20
13.2089520000
11
309.4024200000
21
15.6930720000
0
LINE
5
773
100
AcDbEntity
8
035
100
AcDbLine
62
3
6
CONTINUOUS
10
307.1438710000
20
13.2089520000
11
308.8517040000
21
13.2089520000
0
LINE
5
774
100
AcDbEntity
8
035
100
AcDbLine
62
3
6
CONTINUOUS
10
307.6945880000
20
15.6930720000
11
309.4024200000
21
15.6930720000
0
LINE
5
775
100
AcDbEntity
8
035
100
AcDbLine
62
3
6
CONTINUOUS
10
309.8608770000
20
13.2089520000
11
310.4115940000
21
15.6930720000
0
LINE
5
776
100
AcDbEntity
8
035
100
AcDbLine
62
3
6
CONTINUOUS
10
311.4910810000
20
13.2089520000
11
311.6287600000
21
13.8299820000
0
LINE
5
777
100
AcDbEntity
8
035
100
AcDbLine
62
3
6
CONTINUOUS
10
310.4115940000
20
15.6930720000
11
312.0417970000
21
15.6930720000
0
LINE
5
778
100
AcDbEntity
8
035
100
AcDbLine
62
3
6
CONTINUOUS
10
309.8608770000
20
13.2089520000
11
311.4910810000
21
13.2089520000
0
LINE
5
779
100
AcDbEntity
8
035
100
AcDbLine
62
3
6
CONTINUOUS
10
311.6287600000
20
13.8299820000
11
312.3574440000
21
14.1404970000
0
LINE
5
77A
100
AcDbEntity
8
035
100
AcDbLine
62
3
6
CONTINUOUS
10
311.8555250000
20
14.8528550000
11
313.8272580000
21
15.6930720000
0
LINE
5
77B
100
AcDbEntity
8
035
100
AcDbLine
62
3
6
CONTINUOUS
10
313.8272580000
20
15.6930720000
11
316.0008630000
21
15.6930720000
0
LINE
5
77C
100
AcDbEntity
8
035
100
AcDbLine
62
3
6
CONTINUOUS
10
312.3574440000
20
14.1404970000
11
313.2765420000
21
13.2089520000
0
LINE
5
77D
100
AcDbEntity
8
035
100
AcDbLine
62
3
6
CONTINUOUS
10
313.9969820000
20
14.8391560000
11
315.6054040000
21
13.2089520000
0
LINE
5
77E
100
AcDbEntity
8
035
100
AcDbLine
62
3
6
CONTINUOUS
10
313.9969820000
20
14.8391560000
11
316.0008630000
21
15.6930720000
0
LINE
5
77F
100
AcDbEntity
8
035
100
AcDbLine
62
3
6
CONTINUOUS
10
311.8555250000
20
14.8528550000
11
312.0417970000
21
15.6930720000
0
LINE
5
780
100
AcDbEntity
8
035
100
AcDbLine
62
3
6
CONTINUOUS
10
313.2765420000
20
13.2089520000
11
315.6054040000
21
13.2089520000
0
LINE
5
781
100
AcDbEntity
8
035
100
AcDbLine
62
3
6
CONTINUOUS
10
318.4641510000
20
13.2089520000
11
320.1402870000
21
13.2089520000
0
LINE
5
782
100
AcDbEntity
8
035
100
AcDbLine
62
3
6
CONTINUOUS
10
320.3277870000
20
15.6938010000
11
323.2824910000
21
15.6938010000
0
LINE
5
783
100
AcDbEntity
8
035
100
AcDbLine
62
3
6
CONTINUOUS
10
318.4641510000
20
13.2089520000
11
320.3277870000
21
15.6938010000
0
LINE
5
784
100
AcDbEntity
8
035
100
AcDbLine
62
3
6
CONTINUOUS
10
323.2824910000
20
15.6938010000
11
323.9037030000
21
13.2089520000
0
LINE
5
785
100
AcDbEntity
8
035
100
AcDbLine
62
3
6
CONTINUOUS
10
320.5003110000
20
13.6889840000
11
322.2260320000
21
13.6889840000
0
LINE
5
786
100
AcDbEntity
8
035
100
AcDbLine
62
3
6
CONTINUOUS
10
320.7802020000
20
14.0621710000
11
322.1327350000
21
14.0621710000
0
LINE
5
787
100
AcDbEntity
8
035
100
AcDbLine
62
3
6
CONTINUOUS
10
324.6150190000
20
13.7199520000
11
324.8833800000
21
15.2419070000
0
LINE
5
788
100
AcDbEntity
8
035
100
AcDbLine
62
3
6
CONTINUOUS
10
329.3670730000
20
13.2089520000
11
329.5596970000
21
14.3013760000
0
LINE
5
789
100
AcDbEntity
8
035
100
AcDbLine
62
3
6
CONTINUOUS
10
326.2261250000
20
14.0493180000
11
326.3860210000
21
14.9561340000
0
LINE
5
78A
100
AcDbEntity
8
035
100
AcDbLine
62
3
6
CONTINUOUS
10
327.8140420000
20
13.2089520000
11
327.8190480000
21
13.2373380000
0
LINE
5
78B
100
AcDbEntity
8
035
100
AcDbLine
62
3
6
CONTINUOUS
10
327.3461810000
20
14.0786490000
11
327.3854540000
21
14.3013760000
0
LINE
5
78C
100
AcDbEntity
8
035
100
AcDbLine
62
3
6
CONTINUOUS
10
327.3461810000
20
14.0786490000
11
327.9673930000
21
14.0786490000
0
ARC
5
78D
100
AcDbEntity
8
035
100
AcDbCircle
62
3
6
CONTINUOUS
10
327.4684270000
20
1.9968720000
40
13.6971530000
100
AcDbArc
50
81.6598950000
51
99.8027900000
0
ARC
5
78E
100
AcDbEntity
8
035
100
AcDbCircle
62
3
6
CONTINUOUS
10
326.9084660000
20
26.9041900000
40
13.6971530000
100
AcDbArc
50
261.4614730000
51
273.8118150000
0
ARC
5
78F
100
AcDbEntity
8
035
100
AcDbCircle
62
3
6
CONTINUOUS
10
325.1892670000
20
15.1879710000
40
0.3106060000
100
AcDbArc
50
99.8027900000
51
170.0000000000
0
ARC
5
790
100
AcDbEntity
8
035
100
AcDbCircle
62
3
6
CONTINUOUS
10
324.9209060000
20
13.6660160000
40
0.3106060000
100
AcDbArc
50
170.0000000000
51
261.4614730000
0
ARC
5
791
100
AcDbEntity
8
035
100
AcDbCircle
62
3
6
CONTINUOUS
10
329.4101300000
20
15.2418500000
40
0.3106060000
100
AcDbArc
50
350.0000000000
51
81.6598950000
0
LINE
5
792
100
AcDbEntity
8
035
100
AcDbLine
62
3
6
CONTINUOUS
10
328.1015710000
20
14.9639930000
11
329.6765340000
21
14.9639930000
0
LINE
5
793
100
AcDbEntity
8
035
100
AcDbLine
62
3
6
CONTINUOUS
10
329.6765340000
20
14.9639930000
11
329.7160170000
21
15.1879140000
0
LINE
5
794
100
AcDbEntity
8
035
100
AcDbLine
62
3
6
CONTINUOUS
10
327.9478530000
20
13.9678320000
11
327.9673930000
21
14.0786490000
0
ARC
5
795
100
AcDbEntity
8
035
100
AcDbCircle
62
3
6
CONTINUOUS
10
327.2442760000
20
11.6982740000
40
3.5617970000
100
AcDbArc
50
80.2083390000
51
99.7818250000
0
ARC
5
796
100
AcDbEntity
8
035
100
AcDbCircle
62
3
6
CONTINUOUS
10
327.0108590000
20
17.2111170000
40
3.5617970000
100
AcDbArc
50
261.5304680000
51
281.1930680000
0
ARC
5
797
100
AcDbEntity
8
035
100
AcDbCircle
62
3
6
CONTINUOUS
10
326.6919080000
20
14.9021980000
40
0.3106060000
100
AcDbArc
50
99.7818250000
51
170.0000000000
0
ARC
5
798
100
AcDbEntity
8
035
100
AcDbCircle
62
3
6
CONTINUOUS
10
327.7971930000
20
14.9021030000
40
0.3106060000
100
AcDbArc
50
11.4934250000
51
80.2083390000
0
ARC
5
799
100
AcDbEntity
8
035
100
AcDbCircle
62
3
6
CONTINUOUS
10
326.5320120000
20
13.9953820000
40
0.3106060000
100
AcDbArc
50
170.0000000000
51
261.5304680000
0
ARC
5
79A
100
AcDbEntity
8
035
100
AcDbCircle
62
3
6
CONTINUOUS
10
327.6419660000
20
14.0217680000
40
0.3106060000
100
AcDbArc
50
281.1930680000
51
350.0000000000
0
LINE
5
79B
100
AcDbEntity
8
035
100
AcDbLine
62
3
6
CONTINUOUS
10
327.8140420000
20
13.2089520000
11
329.3670730000
21
13.2089520000
0
LINE
5
79C
100
AcDbEntity
8
035
100
AcDbLine
62
3
6
CONTINUOUS
10
322.3460400000
20
13.2089520000
11
323.9037030000
21
13.2089520000
0
LINE
5
79D
100
AcDbEntity
8
035
100
AcDbLine
62
3
6
CONTINUOUS
10
286.6372870000
20
15.2530940000
11
289.5871790000
21
15.2530940000
0
LINE
5
79E
100
AcDbEntity
8
035
100
AcDbLine
62
3
6
CONTINUOUS
10
286.4916130000
20
14.5960010000
11
289.2086190000
21
14.5960010000
0
LINE
5
79F
100
AcDbEntity
8
035
100
AcDbLine
62
3
6
CONTINUOUS
10
286.4273260000
20
14.3060230000
11
289.1443320000
21
14.3060230000
0
LINE
5
7A0
100
AcDbEntity
8
035
100
AcDbLine
62
3
6
CONTINUOUS
10
286.2816520000
20
13.6489310000
11
289.2315440000
21
13.6489310000
0
LINE
5
7A1
100
AcDbEntity
8
035
100
AcDbLine
62
3
6
CONTINUOUS
10
303.2498370000
20
15.2530940000
11
304.6563970000
21
15.2530940000
0
LINE
5
7A2
100
AcDbEntity
8
035
100
AcDbLine
62
3
6
CONTINUOUS
10
303.0663020000
20
14.4252180000
11
304.4266270000
21
14.4252180000
0
LINE
5
7A3
100
AcDbEntity
8
035
100
AcDbLine
62
3
6
CONTINUOUS
10
303.0020150000
20
14.1352400000
11
304.4509000000
21
14.1352400000
0
LINE
5
7A4
100
AcDbEntity
8
035
100
AcDbLine
62
3
6
CONTINUOUS
10
304.6563970000
20
15.2530940000
11
304.7674140000
21
15.2349300000
0
LINE
5
7A5
100
AcDbEntity
8
035
100
AcDbLine
62
3
6
CONTINUOUS
10
304.7674140000
20
15.2349300000
11
304.8636110000
21
15.1861990000
0
LINE
5
7A6
100
AcDbEntity
8
035
100
AcDbLine
62
3
6
CONTINUOUS
10
304.8636110000
20
15.1861990000
11
304.9097870000
21
15.1118220000
0
LINE
5
7A7
100
AcDbEntity
8
035
100
AcDbLine
62
3
6
CONTINUOUS
10
304.9097870000
20
15.1118220000
11
304.9456990000
21
15.0220570000
0
LINE
5
7A8
100
AcDbEntity
8
035
100
AcDbLine
62
3
6
CONTINUOUS
10
304.9456990000
20
15.0220570000
11
304.9469830000
21
14.9246000000
0
LINE
5
7A9
100
AcDbEntity
8
035
100
AcDbLine
62
3
6
CONTINUOUS
10
304.9469830000
20
14.9246000000
11
304.9367220000
21
14.7835390000
0
LINE
5
7AA
100
AcDbEntity
8
035
100
AcDbLine
62
3
6
CONTINUOUS
10
304.9367220000
20
14.7835390000
11
304.8854140000
21
14.6976240000
0
LINE
5
7AB
100
AcDbEntity
8
035
100
AcDbLine
62
3
6
CONTINUOUS
10
304.8854140000
20
14.6976240000
11
304.7943500000
21
14.5911860000
0
LINE
5
7AC
100
AcDbEntity
8
035
100
AcDbLine
62
3
6
CONTINUOUS
10
304.7943500000
20
14.5911860000
11
304.6571060000
21
14.5091160000
0
LINE
5
7AD
100
AcDbEntity
8
035
100
AcDbLine
62
3
6
CONTINUOUS
10
304.6571060000
20
14.5091160000
11
304.5262760000
21
14.4424340000
0
LINE
5
7AE
100
AcDbEntity
8
035
100
AcDbLine
62
3
6
CONTINUOUS
10
304.5262760000
20
14.4424340000
11
304.4266270000
21
14.4252180000
0
LINE
5
7AF
100
AcDbEntity
8
035
100
AcDbLine
62
3
6
CONTINUOUS
10
304.4509000000
20
14.1352400000
11
304.5337810000
21
14.1235790000
0
LINE
5
7B0
100
AcDbEntity
8
035
100
AcDbLine
62
3
6
CONTINUOUS
10
304.5337810000
20
14.1235790000
11
304.5869810000
21
14.0899330000
0
LINE
5
7B1
100
AcDbEntity
8
035
100
AcDbLine
62
3
6
CONTINUOUS
10
304.5869810000
20
14.0899330000
11
304.6195510000
21
14.0367450000
0
LINE
5
7B2
100
AcDbEntity
8
035
100
AcDbLine
62
3
6
CONTINUOUS
10
304.6195510000
20
14.0367450000
11
304.6347510000
21
13.9727040000
0
LINE
5
7B3
100
AcDbEntity
8
035
100
AcDbLine
62
3
6
CONTINUOUS
10
304.6347510000
20
13.9727040000
11
304.6272290000
21
13.8619210000
0
LINE
5
7B4
100
AcDbEntity
8
035
100
AcDbLine
62
3
6
CONTINUOUS
10
321.7946020000
20
15.4147050000
11
322.1327350000
21
14.0621710000
0
LINE
5
7B5
100
AcDbEntity
8
035
100
AcDbLine
62
3
6
CONTINUOUS
10
320.7802020000
20
14.0621710000
11
321.7946020000
21
15.4147050000
0
LINE
5
7B6
100
AcDbEntity
8
035
100
AcDbLine
62
3
6
CONTINUOUS
10
322.2260320000
20
13.6889840000
11
322.3460400000
21
13.2089520000
0
LINE
5
7B7
100
AcDbEntity
8
035
100
AcDbLine
62
3
6
CONTINUOUS
10
320.1402870000
20
13.2089520000
11
320.5003110000
21
13.6889840000
0
LINE
5
7B8
100
AcDbEntity
8
035
100
AcDbLine
62
3
6
CONTINUOUS
10
327.3854540000
20
14.3013760000
11
329.5596970000
21
14.3013760000
0
LINE
5
7B9
100
AcDbEntity
8
035
100
AcDbLine
62
3
6
CONTINUOUS
10
70.3265510000
20
227.3433150000
11
112.3265510000
21
227.3433150000
0
LINE
5
7BA
100
AcDbEntity
8
035
100
AcDbLine
62
3
6
CONTINUOUS
10
113.3265510000
20
226.3433150000
11
113.3265510000
21
222.3433150000
0
LINE
5
7BB
100
AcDbEntity
8
035
100
AcDbLine
62
3
6
CONTINUOUS
10
69.3265510000
20
226.3433150000
11
69.3265510000
21
222.3433150000
0
ARC
5
7BC
100
AcDbEntity
8
035
100
AcDbCircle
62
3
6
CONTINUOUS
10
70.3265510000
20
226.3433150000
40
1.0000000000
100
AcDbArc
50
90.0000000000
51
180.0000000000
0
ARC
5
7BD
100
AcDbEntity
8
035
100
AcDbCircle
62
3
6
CONTINUOUS
10
112.3265510000
20
226.3433150000
40
1.0000000000
100
AcDbArc
50
0.0000000000
51
90.0000000000
0
LINE
5
7BE
100
AcDbEntity
8
035
100
AcDbLine
62
3
6
CONTINUOUS
10
70.3265510000
20
221.3433150000
11
112.3265510000
21
221.3433150000
0
ARC
5
7BF
100
AcDbEntity
8
035
100
AcDbCircle
62
3
6
CONTINUOUS
10
70.3265510000
20
222.3433150000
40
1.0000000000
100
AcDbArc
50
180.0000000000
51
270.0000000000
0
ARC
5
7C0
100
AcDbEntity
8
035
100
AcDbCircle
62
3
6
CONTINUOUS
10
112.3265510000
20
222.3433150000
40
1.0000000000
100
AcDbArc
50
270.0000000000
51
360.0000000000
0
LINE
5
7C1
100
AcDbEntity
8
035
100
AcDbLine
62
3
6
CONTINUOUS
10
100.2861500000
20
191.9937570000
11
100.9753650000
21
190.7503820000
0
LINE
5
7C2
100
AcDbEntity
8
035
100
AcDbLine
62
3
6
CONTINUOUS
10
98.9445710000
20
190.1488330000
11
100.9753650000
21
190.7503820000
0
LINE
5
7C3
100
AcDbEntity
8
035
100
AcDbLine
62
3
6
CONTINUOUS
10
97.3562520000
20
192.8527050000
11
97.6247980000
21
193.2538290000
0
LINE
5
7C4
100
AcDbEntity
8
035
100
AcDbLine
62
3
6
CONTINUOUS
10
96.0938380000
20
193.5162260000
11
96.3046810000
21
193.8319880000
0
ARC
5
7C5
100
AcDbEntity
8
035
100
AcDbCircle
62
3
6
CONTINUOUS
10
97.4286368148
20
193.3871268890
40
0.2371656337
100
AcDbArc
50
325.8026204852
51
345.1980174973
0
ARC
5
7C6
100
AcDbEntity
8
035
100
AcDbCircle
62
3
6
CONTINUOUS
10
97.4286373942
20
193.3871249269
40
0.2371645722
100
AcDbArc
50
345.1984400090
51
20.0043737132
0
ARC
5
7C7
100
AcDbEntity
8
035
100
AcDbCircle
62
3
6
CONTINUOUS
10
97.2052900007
20
193.3058144904
40
0.4748522776
100
AcDbArc
50
20.0042971638
51
25.8048289202
0
ARC
5
7C8
100
AcDbEntity
8
035
100
AcDbCircle
62
3
6
CONTINUOUS
10
96.2410671214
20
193.8743034900
40
0.0764023968
100
AcDbArc
50
326.3684376194
51
345.1978112326
0
ARC
5
7C9
100
AcDbEntity
8
035
100
AcDbCircle
62
3
6
CONTINUOUS
10
96.2410643845
20
193.8743040293
40
0.0764051808
100
AcDbArc
50
345.1979445493
51
20.0038782534
0
ARC
5
7CA
100
AcDbEntity
8
035
100
AcDbCircle
62
3
6
CONTINUOUS
10
96.1691110614
20
193.8481095361
40
0.1529782319
100
AcDbArc
50
20.0039168380
51
44.4095430566
0
ARC
5
7CB
100
AcDbEntity
8
035
100
AcDbCircle
62
3
6
CONTINUOUS
10
96.1110785931
20
193.7912555665
40
0.2342194852
100
AcDbArc
50
44.4104936639
51
59.9591285692
0
ARC
5
7CC
100
AcDbEntity
8
035
100
AcDbCircle
62
3
6
CONTINUOUS
10
97.6247340000
20
192.6729610000
40
0.3230950000
100
AcDbArc
50
146.1983300000
51
187.0682270000
0
LINE
5
7CD
100
AcDbEntity
8
035
100
AcDbLine
62
3
6
CONTINUOUS
10
96.0551940000
20
193.3485040000
11
97.3040940000
21
192.6332040000
0
LINE
5
7CE
100
AcDbEntity
8
035
100
AcDbLine
62
3
6
CONTINUOUS
10
94.7122780000
20
194.1176510000
11
95.1577450000
21
194.6071850000
0
LINE
5
7CF
100
AcDbEntity
8
035
100
AcDbLine
62
3
6
CONTINUOUS
10
95.1577450000
20
194.6071850000
11
96.2283330000
21
193.9940120000
0
ARC
5
7D0
100
AcDbEntity
8
035
100
AcDbCircle
62
3
6
CONTINUOUS
10
96.3659200000
20
193.3652240000
40
0.3111760000
100
AcDbArc
50
150.9703340000
51
183.0802050000
0
LINE
5
7D1
100
AcDbEntity
8
035
100
AcDbLine
62
3
6
CONTINUOUS
10
95.4963010000
20
194.9792310000
11
95.7992180000
21
195.3121140000
0
LINE
5
7D2
100
AcDbEntity
8
035
100
AcDbLine
62
3
6
CONTINUOUS
10
94.9041630000
20
196.3907030000
11
98.0523300000
21
194.5876080000
0
LINE
5
7D3
100
AcDbEntity
8
035
100
AcDbLine
62
3
6
CONTINUOUS
10
95.7992180000
20
195.3121140000
11
96.8392330000
21
194.7164510000
0
ARC
5
7D4
100
AcDbEntity
8
035
100
AcDbCircle
62
3
6
CONTINUOUS
10
97.7672711546
20
195.2366422516
40
1.7293579740
100
AcDbArc
50
265.5400025712
51
269.0620406210
0
ARC
5
7D5
100
AcDbEntity
8
035
100
AcDbCircle
62
3
6
CONTINUOUS
10
97.7580016821
20
194.6706072805
40
1.1632471088
100
AcDbArc
50
269.0621578729
51
285.9865223211
0
ARC
5
7D6
100
AcDbEntity
8
035
100
AcDbCircle
62
3
6
CONTINUOUS
10
97.8691257387
20
194.2827249715
40
0.7597607502
100
AcDbArc
50
285.9865708043
51
310.3921970230
0
ARC
5
7D7
100
AcDbEntity
8
035
100
AcDbCircle
62
3
6
CONTINUOUS
10
98.1155629226
20
193.9930800424
40
0.3794641942
100
AcDbArc
50
310.3924227774
51
345.1983564816
0
ARC
5
7D8
100
AcDbEntity
8
035
100
AcDbCircle
62
3
6
CONTINUOUS
10
98.1155631926
20
193.9930801212
40
0.3794639532
100
AcDbArc
50
345.1983345634
51
20.0042682675
0
ARC
5
7D9
100
AcDbEntity
8
035
100
AcDbCircle
62
3
6
CONTINUOUS
10
97.7582148404
20
193.8629827772
40
0.7597574764
100
AcDbArc
50
20.0044831520
51
44.4101093706
0
ARC
5
7DA
100
AcDbEntity
8
035
100
AcDbCircle
62
3
6
CONTINUOUS
10
97.4699799518
20
193.5806211674
40
1.1632515032
100
AcDbArc
50
44.4101624564
51
59.9587973618
0
LINE
5
7DB
100
AcDbEntity
8
035
100
AcDbLine
62
3
6
CONTINUOUS
10
95.4963010000
20
194.9792310000
11
96.4548780000
21
194.4302110000
0
ARC
5
7DC
100
AcDbEntity
8
035
100
AcDbCircle
62
3
6
CONTINUOUS
10
96.7418216705
20
194.9352649953
40
0.5808753810
100
AcDbArc
50
240.3971638483
51
255.3904403393
0
ARC
5
7DD
100
AcDbEntity
8
035
100
AcDbCircle
62
3
6
CONTINUOUS
10
96.7435730299
20
194.9342636251
40
0.5803514018
100
AcDbArc
50
255.1981899060
51
269.0619593049
0
ARC
5
7DE
100
AcDbEntity
8
035
100
AcDbCircle
62
3
6
CONTINUOUS
10
96.7404600046
20
194.7443053738
40
0.3903676441
100
AcDbArc
50
269.0623658312
51
285.9867302794
0
ARC
5
7DF
100
AcDbEntity
8
035
100
AcDbCircle
62
3
6
CONTINUOUS
10
96.7777530692
20
194.6141369906
40
0.2549623981
100
AcDbArc
50
285.9866211841
51
310.3922474027
0
ARC
5
7E0
100
AcDbEntity
8
035
100
AcDbCircle
62
3
6
CONTINUOUS
10
96.8604531757
20
194.5169372453
40
0.1273414825
100
AcDbArc
50
310.3924822656
51
345.1984159698
0
ARC
5
7E1
100
AcDbEntity
8
035
100
AcDbCircle
62
3
6
CONTINUOUS
10
96.8604528074
20
194.5169378505
40
0.1273419932
100
AcDbArc
50
345.1981950159
51
20.0041287201
0
ARC
5
7E2
100
AcDbEntity
8
035
100
AcDbCircle
62
3
6
CONTINUOUS
10
96.7405325811
20
194.4732796229
40
0.2549621387
100
AcDbArc
50
20.0043500852
51
44.4099763038
0
ARC
5
7E3
100
AcDbEntity
8
035
100
AcDbCircle
62
3
6
CONTINUOUS
10
96.6438079344
20
194.3785222235
40
0.3903675374
100
AcDbArc
50
44.4104616778
51
59.9590965832
0
LINE
5
7E4
100
AcDbEntity
8
035
100
AcDbLine
62
3
6
CONTINUOUS
10
90.1250100000
20
194.8645210000
11
91.5466290000
21
194.8645210000
0
LINE
5
7E5
100
AcDbEntity
8
035
100
AcDbLine
62
3
6
CONTINUOUS
10
91.8904450000
20
196.4153780000
11
93.2474450000
21
196.4153780000
0
LINE
5
7E6
100
AcDbEntity
8
035
100
AcDbLine
62
3
6
CONTINUOUS
10
93.2474450000
20
196.4153780000
11
93.3620510000
21
196.9323310000
0
LINE
5
7E7
100
AcDbEntity
8
035
100
AcDbLine
62
3
6
CONTINUOUS
10
89.1764450000
20
196.4153780000
11
90.4688260000
21
196.4153780000
0
LINE
5
7E8
100
AcDbEntity
8
035
100
AcDbLine
62
3
6
CONTINUOUS
10
89.1764450000
20
196.4153780000
11
89.2910510000
21
196.9323310000
0
LINE
5
7E9
100
AcDbEntity
8
035
100
AcDbLine
62
3
6
CONTINUOUS
10
89.2910510000
20
196.9323310000
11
93.3620510000
21
196.9323310000
0
LINE
5
7EA
100
AcDbEntity
8
035
100
AcDbLine
62
3
6
CONTINUOUS
10
91.5466290000
20
194.8645210000
11
91.8904450000
21
196.4153780000
0
LINE
5
7EB
100
AcDbEntity
8
035
100
AcDbLine
62
3
6
CONTINUOUS
10
90.1250100000
20
194.8645210000
11
90.4688260000
21
196.4153780000
0
LINE
5
7EC
100
AcDbEntity
8
035
100
AcDbLine
62
3
6
CONTINUOUS
10
88.5518210000
20
195.0341440000
11
88.0849990000
21
196.5372370000
0
LINE
5
7ED
100
AcDbEntity
8
035
100
AcDbLine
62
3
6
CONTINUOUS
10
93.4786660000
20
194.8241950000
11
94.9041630000
21
196.3907030000
0
LINE
5
7EE
100
AcDbEntity
8
035
100
AcDbLine
62
3
6
CONTINUOUS
10
93.4786660000
20
194.8241950000
11
94.7122780000
21
194.1176510000
0
ARC
5
7EF
100
AcDbEntity
8
035
100
AcDbCircle
62
3
6
CONTINUOUS
10
86.0155894204
20
193.8656799079
40
0.1480757160
100
AcDbArc
50
209.7536964326
51
254.7961627227
0
ARC
5
7F0
100
AcDbEntity
8
035
100
AcDbCircle
62
3
6
CONTINUOUS
10
86.1266111765
20
194.2741855996
40
0.5713991508
100
AcDbArc
50
254.7957914387
51
277.2834428299
0
ARC
5
7F1
100
AcDbEntity
8
035
100
AcDbCircle
62
3
6
CONTINUOUS
10
86.0598989983
20
194.7961870994
40
1.0976463176
100
AcDbArc
50
277.2832129400
51
290.0318799325
0
ARC
5
7F2
100
AcDbEntity
8
035
100
AcDbCircle
62
3
6
CONTINUOUS
10
85.7904067024
20
195.5353245590
40
1.8843802508
100
AcDbArc
50
290.0319491233
51
299.7535623812
0
ARC
5
7F3
100
AcDbEntity
8
035
100
AcDbCircle
62
3
6
CONTINUOUS
10
85.7904141319
20
195.5353248665
40
1.8843768308
100
AcDbArc
50
299.7533616217
51
309.4749748796
0
ARC
5
7F4
100
AcDbEntity
8
035
100
AcDbCircle
62
3
6
CONTINUOUS
10
86.2905692348
20
194.9280489190
40
1.0976499382
100
AcDbArc
50
309.4749441714
51
322.2236111639
0
ARC
5
7F5
100
AcDbEntity
8
035
100
AcDbCircle
62
3
6
CONTINUOUS
10
86.7065219172
20
194.6056781642
40
0.5713994869
100
AcDbArc
50
322.2235508569
51
344.7112022481
0
ARC
5
7F6
100
AcDbEntity
8
035
100
AcDbCircle
62
3
6
CONTINUOUS
10
87.1148642831
20
194.4940545103
40
0.1480753465
100
AcDbArc
50
344.7110647460
51
16.8877315310
0
LINE
5
7F7
100
AcDbEntity
8
035
100
AcDbLine
62
3
6
CONTINUOUS
10
84.2692520000
20
192.4806160000
11
83.9045550000
21
192.8270740000
0
LINE
5
7F8
100
AcDbEntity
8
035
100
AcDbLine
62
3
6
CONTINUOUS
10
83.7837500000
20
193.2028870000
11
83.4190530000
21
193.5493450000
0
LINE
5
7F9
100
AcDbEntity
8
035
100
AcDbLine
62
3
6
CONTINUOUS
10
84.9546210000
20
192.0905730000
11
84.5899240000
21
192.4370310000
0
LINE
5
7FA
100
AcDbEntity
8
035
100
AcDbLine
62
3
6
CONTINUOUS
10
84.2602040000
20
194.3508820000
11
85.4913010000
21
195.0546110000
0
LINE
5
7FB
100
AcDbEntity
8
035
100
AcDbLine
62
3
6
CONTINUOUS
10
87.2565540000
20
194.5370700000
11
86.8539120000
21
195.8335150000
0
LINE
5
7FC
100
AcDbEntity
8
035
100
AcDbLine
62
3
6
CONTINUOUS
10
85.8735750000
20
193.8237490000
11
85.4913010000
21
195.0546110000
0
LINE
5
7FD
100
AcDbEntity
8
035
100
AcDbLine
62
3
6
CONTINUOUS
10
84.6965160000
20
192.9460270000
11
84.2602040000
21
194.3508820000
0
LINE
5
7FE
100
AcDbEntity
8
035
100
AcDbLine
62
3
6
CONTINUOUS
10
83.1033640000
20
190.5426170000
11
84.2692520000
21
192.4806160000
0
LINE
5
7FF
100
AcDbEntity
8
035
100
AcDbLine
62
3
6
CONTINUOUS
10
82.5179290000
20
191.0987740000
11
83.7837500000
21
193.2028870000
0
LINE
5
800
100
AcDbEntity
8
035
100
AcDbLine
62
3
6
CONTINUOUS
10
82.7386660000
20
190.8890750000
11
83.9045550000
21
192.8270740000
0
LINE
5
801
100
AcDbEntity
8
035
100
AcDbLine
62
3
6
CONTINUOUS
10
81.4203870000
20
190.2270620000
11
83.4190530000
21
193.5493450000
0
LINE
5
802
100
AcDbEntity
8
035
100
AcDbLine
62
3
6
CONTINUOUS
10
83.3241020000
20
190.3329180000
11
84.5899240000
21
192.4370310000
0
LINE
5
803
100
AcDbEntity
8
035
100
AcDbLine
62
3
6
CONTINUOUS
10
82.9559550000
20
188.7682890000
11
84.9546210000
21
192.0905730000
0
LINE
5
804
100
AcDbEntity
8
035
100
AcDbLine
62
3
6
CONTINUOUS
10
82.9559550000
20
188.7682890000
11
81.4203870000
21
190.2270620000
0
LINE
5
805
100
AcDbEntity
8
035
100
AcDbLine
62
3
6
CONTINUOUS
10
86.8539120000
20
195.8335150000
11
88.0849990000
21
196.5372370000
0
ARC
5
806
100
AcDbEntity
8
035
100
AcDbCircle
62
3
6
CONTINUOUS
10
84.9222806731
20
193.0174204412
40
0.2367841065
100
AcDbArc
50
209.7534169500
51
264.3762711415
0
ARC
5
807
100
AcDbEntity
8
035
100
AcDbCircle
62
3
6
CONTINUOUS
10
85.0786316081
20
194.6052443086
40
1.8322872400
100
AcDbArc
50
264.3762866223
51
283.3638607396
0
ARC
5
808
100
AcDbEntity
8
035
100
AcDbCircle
62
3
6
CONTINUOUS
10
84.5683542970
20
196.7531690680
40
4.0399927697
100
AcDbArc
50
283.3638736132
51
292.8075159471
0
ARC
5
809
100
AcDbEntity
8
035
100
AcDbCircle
62
3
6
CONTINUOUS
10
83.2426646089
20
199.9057297808
40
7.4599477691
100
AcDbArc
50
292.8074348225
51
299.7534518583
0
ARC
5
80A
100
AcDbEntity
8
035
100
AcDbCircle
62
3
6
CONTINUOUS
10
83.2426650538
20
199.9057334948
40
7.4599507726
100
AcDbArc
50
299.7534347357
51
306.6994517715
0
ARC
5
80B
100
AcDbEntity
8
035
100
AcDbCircle
62
3
6
CONTINUOUS
10
85.2864970139
20
197.1636795857
40
4.0399933575
100
AcDbArc
50
306.6993519356
51
316.1429942696
0
ARC
5
80C
100
AcDbEntity
8
035
100
AcDbCircle
62
3
6
CONTINUOUS
10
86.8784089535
20
195.6340467774
40
1.8322886327
100
AcDbArc
50
316.1430134676
51
335.1305875849
0
ARC
5
80D
100
AcDbEntity
8
035
100
AcDbCircle
62
3
6
CONTINUOUS
10
88.3259602388
20
194.9630550458
40
0.2367841271
100
AcDbArc
50
335.1305555165
51
17.4712291573
0
LINE
5
80E
100
AcDbEntity
8
035
100
AcDbLine
62
3
6
CONTINUOUS
10
98.2553560000
20
191.3922090000
11
98.9445710000
21
190.1488330000
0
LINE
5
80F
100
AcDbEntity
8
035
100
AcDbLine
62
3
6
CONTINUOUS
10
98.2553560000
20
191.3922090000
11
100.2861500000
21
191.9937570000
0
LINE
5
810
100
AcDbEntity
8
035
100
AcDbLine
62
3
6
CONTINUOUS
10
82.9550380000
20
183.5906010000
11
82.9523190000
21
185.0122170000
0
LINE
5
811
100
AcDbEntity
8
035
100
AcDbLine
62
3
6
CONTINUOUS
10
80.8863560000
20
184.0450660000
11
80.8831420000
21
185.7251580000
0
LINE
5
812
100
AcDbEntity
8
035
100
AcDbLine
62
3
6
CONTINUOUS
10
82.9550380000
20
183.5906010000
11
80.8863560000
21
184.0450660000
0
LINE
5
813
100
AcDbEntity
8
035
100
AcDbLine
62
3
6
CONTINUOUS
10
82.9493520000
20
186.5630710000
11
82.9462620000
21
188.1785440000
0
LINE
5
814
100
AcDbEntity
8
035
100
AcDbLine
62
3
6
CONTINUOUS
10
81.7853470000
20
187.0125650000
11
80.8802990000
21
187.2113940000
0
LINE
5
815
100
AcDbEntity
8
035
100
AcDbLine
62
3
6
CONTINUOUS
10
82.9523190000
20
185.0122170000
11
81.7886850000
21
185.2678540000
0
LINE
5
816
100
AcDbEntity
8
035
100
AcDbLine
62
3
6
CONTINUOUS
10
81.7886850000
20
185.2678540000
11
82.9493520000
21
186.5630710000
0
LINE
5
817
100
AcDbEntity
8
035
100
AcDbLine
62
3
6
CONTINUOUS
10
80.8831420000
20
185.7251580000
11
81.7853470000
21
187.0125650000
0
LINE
5
818
100
AcDbEntity
8
035
100
AcDbLine
62
3
6
CONTINUOUS
10
82.9462620000
20
188.1785440000
11
80.8775790000
21
188.6330100000
0
LINE
5
819
100
AcDbEntity
8
035
100
AcDbLine
62
3
6
CONTINUOUS
10
80.8802990000
20
187.2113940000
11
80.8775790000
21
188.6330100000
0
LINE
5
81A
100
AcDbEntity
8
035
100
AcDbLine
62
3
6
CONTINUOUS
10
101.0544980000
20
185.5450920000
11
99.6870870000
21
184.2168590000
0
LINE
5
81B
100
AcDbEntity
8
035
100
AcDbLine
62
3
6
CONTINUOUS
10
99.7022220000
20
186.1553720000
11
99.6870870000
21
184.2168590000
0
LINE
5
81C
100
AcDbEntity
8
035
100
AcDbLine
62
3
6
CONTINUOUS
10
101.0544980000
20
185.5450920000
11
101.7522630000
21
183.8715410000
0
LINE
5
81D
100
AcDbEntity
8
035
100
AcDbLine
62
3
6
CONTINUOUS
10
101.7663890000
20
185.6808190000
11
101.7522630000
21
183.8715410000
0
LINE
5
81E
100
AcDbEntity
8
035
100
AcDbLine
62
3
6
CONTINUOUS
10
100.4836000000
20
186.9143620000
11
99.7022220000
21
186.1553720000
0
LINE
5
81F
100
AcDbEntity
8
035
100
AcDbLine
62
3
6
CONTINUOUS
10
99.7244210000
20
188.9985230000
11
101.7885880000
21
188.5239700000
0
LINE
5
820
100
AcDbEntity
8
035
100
AcDbLine
62
3
6
CONTINUOUS
10
99.7138260000
20
187.6415640000
11
100.2298680000
21
187.5229260000
0
LINE
5
821
100
AcDbEntity
8
035
100
AcDbLine
62
3
6
CONTINUOUS
10
99.7244210000
20
188.9985230000
11
99.7138260000
21
187.6415640000
0
LINE
5
822
100
AcDbEntity
8
035
100
AcDbLine
62
3
6
CONTINUOUS
10
101.0798190000
20
187.3275220000
11
101.7663890000
21
185.6808190000
0
LINE
5
823
100
AcDbEntity
8
035
100
AcDbLine
62
3
6
CONTINUOUS
10
100.2298680000
20
187.5229260000
11
100.4836000000
21
186.9143620000
0
LINE
5
824
100
AcDbEntity
8
035
100
AcDbLine
62
3
6
CONTINUOUS
10
101.0798190000
20
187.3275220000
11
101.7779930000
21
187.1670120000
0
LINE
5
825
100
AcDbEntity
8
035
100
AcDbLine
62
3
6
CONTINUOUS
10
101.7885880000
20
188.5239700000
11
101.7779930000
21
187.1670120000
0
ARC
5
826
100
AcDbEntity
8
035
100
AcDbCircle
62
3
6
CONTINUOUS
10
91.3265510000
20
186.2369820000
40
20.8000000000
100
AcDbArc
50
74.2800300000
51
105.7199700000
0
ARC
5
827
100
AcDbEntity
8
035
100
AcDbCircle
62
3
6
CONTINUOUS
10
85.8265510000
20
205.7777090000
40
0.5000000000
100
AcDbArc
50
105.7199700000
51
180.0000000000
0
LINE
5
828
100
AcDbEntity
8
035
100
AcDbLine
62
3
6
CONTINUOUS
10
85.3265510000
20
202.8890090000
11
85.3265510000
21
205.7777090000
0
ARC
5
829
100
AcDbEntity
8
035
100
AcDbCircle
62
3
6
CONTINUOUS
10
96.8265510000
20
205.7777090000
40
0.5000000000
100
AcDbArc
50
0.0000000000
51
74.2800300000
0
LINE
5
82A
100
AcDbEntity
8
035
100
AcDbLine
62
3
6
CONTINUOUS
10
97.3265510000
20
205.7777090000
11
97.3265510000
21
202.8890090000
0
LINE
5
82B
100
AcDbEntity
8
BEM1
100
AcDbLine
62
4
6
CONTINUOUS
10
114.0265510000
20
98.5809260000
11
95.8798050000
21
98.5809260000
0
LINE
5
82C
100
AcDbEntity
8
BEM1
100
AcDbLine
62
4
6
CONTINUOUS
10
114.0265510000
20
98.1809260000
11
95.8798050000
21
98.1809260000
0
LINE
5
82D
100
AcDbEntity
8
BEM1
100
AcDbLine
62
4
6
CONTINUOUS
10
96.6798050000
20
98.5809260000
11
96.6798050000
21
71.4699780000
0
LINE
5
82E
100
AcDbEntity
8
BEM1
100
AcDbLine
62
4
6
CONTINUOUS
10
96.6798050000
20
102.0809260000
11
96.6798050000
21
105.3759170000
0
LINE
5
82F
100
AcDbEntity
8
BEM1
100
AcDbLine
62
4
6
CONTINUOUS
10
96.0964720000
20
94.6809260000
11
96.6798050000
21
98.1809260000
0
LINE
5
830
100
AcDbEntity
8
BEM1
100
AcDbLine
62
4
6
CONTINUOUS
10
96.6798050000
20
98.1809260000
11
97.2631390000
21
94.6809260000
0
LINE
5
831
100
AcDbEntity
8
BEM1
100
AcDbLine
62
4
6
CONTINUOUS
10
97.2631390000
20
94.6809260000
11
96.0964720000
21
94.6809260000
0
LINE
5
832
100
AcDbEntity
8
BEM1
100
AcDbLine
62
4
6
CONTINUOUS
10
97.2631390000
20
94.6809259200
11
96.6798050000
21
98.1809260000
0
LINE
5
833
100
AcDbEntity
8
BEM1
100
AcDbLine
62
4
6
CONTINUOUS
10
96.6798050000
20
98.1809260000
11
96.0964720000
21
94.6809259200
0
LINE
5
834
100
AcDbEntity
8
BEM1
100
AcDbLine
62
4
6
CONTINUOUS
10
96.0964720000
20
94.6809259200
11
97.2631390000
21
94.6809259200
0
SOLID
5
835
100
AcDbEntity
8
BEM1
100
AcDbTrace
62
4
6
CONTINUOUS
10
96.0964720000
20
94.6809259200
11
97.2631390000
21
94.6809259200
12
96.6798050000
22
98.1809260000
13
96.6798050000
23
98.1809260000
0
LINE
5
836
100
AcDbEntity
8
BEM1
100
AcDbLine
62
4
6
CONTINUOUS
10
96.0964720000
20
102.0809260000
11
96.6798050000
21
98.5809260000
0
LINE
5
837
100
AcDbEntity
8
BEM1
100
AcDbLine
62
4
6
CONTINUOUS
10
96.6798050000
20
98.5809260000
11
97.2631390000
21
102.0809260000
0
LINE
5
838
100
AcDbEntity
8
BEM1
100
AcDbLine
62
4
6
CONTINUOUS
10
97.2631390000
20
102.0809260000
11
96.0964720000
21
102.0809260000
0
LINE
5
839
100
AcDbEntity
8
BEM1
100
AcDbLine
62
4
6
CONTINUOUS
10
96.0964720000
20
102.0809260800
11
96.6798050000
21
98.5809260000
0
LINE
5
83A
100
AcDbEntity
8
BEM1
100
AcDbLine
62
4
6
CONTINUOUS
10
96.6798050000
20
98.5809260000
11
97.2631390000
21
102.0809260800
0
LINE
5
83B
100
AcDbEntity
8
BEM1
100
AcDbLine
62
4
6
CONTINUOUS
10
97.2631390000
20
102.0809260800
11
96.0964720000
21
102.0809260800
0
SOLID
5
83C
100
AcDbEntity
8
BEM1
100
AcDbTrace
62
4
6
CONTINUOUS
10
97.2631390000
20
102.0809260800
11
96.0964720000
21
102.0809260800
12
96.6798050000
22
98.5809260000
13
96.6798050000
23
98.5809260000
0
LINE
5
83D
100
AcDbEntity
8
BEM1
100
AcDbLine
62
4
6
CONTINUOUS
10
60.6265510000
20
157.1433150000
11
68.1265510000
21
157.1433150000
0
LINE
5
83E
100
AcDbEntity
8
BEM1
100
AcDbLine
62
4
6
CONTINUOUS
10
235.9320500000
20
237.1433150000
11
164.3827860000
21
237.1433150000
0
LINE
5
83F
100
AcDbEntity
8
BEM1
100
AcDbLine
62
4
6
CONTINUOUS
10
235.7276780000
20
135.5433150000
11
164.3827860000
21
135.5433150000
0
LINE
5
840
100
AcDbEntity
8
BEM1
100
AcDbLine
62
4
6
CONTINUOUS
10
165.1827860000
20
233.6433150000
11
165.1827860000
21
139.0433150000
0
LINE
5
841
100
AcDbEntity
8
BEM1
100
AcDbLine
62
4
6
CONTINUOUS
10
164.5994520000
20
233.6433150000
11
165.1827860000
21
237.1433150000
0
LINE
5
842
100
AcDbEntity
8
BEM1
100
AcDbLine
62
4
6
CONTINUOUS
10
165.1827860000
20
237.1433150000
11
165.7661190000
21
233.6433150000
0
LINE
5
843
100
AcDbEntity
8
BEM1
100
AcDbLine
62
4
6
CONTINUOUS
10
165.7661190000
20
233.6433150000
11
164.5994520000
21
233.6433150000
0
LINE
5
844
100
AcDbEntity
8
BEM1
100
AcDbLine
62
4
6
CONTINUOUS
10
165.7661190000
20
233.6433149400
11
165.1827860000
21
237.1433150000
0
LINE
5
845
100
AcDbEntity
8
BEM1
100
AcDbLine
62
4
6
CONTINUOUS
10
165.1827860000
20
237.1433150000
11
164.5994520000
21
233.6433149400
0
LINE
5
846
100
AcDbEntity
8
BEM1
100
AcDbLine
62
4
6
CONTINUOUS
10
164.5994520000
20
233.6433149400
11
165.7661190000
21
233.6433149400
0
SOLID
5
847
100
AcDbEntity
8
BEM1
100
AcDbTrace
62
4
6
CONTINUOUS
10
164.5994520000
20
233.6433149400
11
165.7661190000
21
233.6433149400
12
165.1827860000
22
237.1433150000
13
165.1827860000
23
237.1433150000
0
LINE
5
848
100
AcDbEntity
8
BEM1
100
AcDbLine
62
4
6
CONTINUOUS
10
164.5994520000
20
139.0433150000
11
165.1827860000
21
135.5433150000
0
LINE
5
849
100
AcDbEntity
8
BEM1
100
AcDbLine
62
4
6
CONTINUOUS
10
165.1827860000
20
135.5433150000
11
165.7661190000
21
139.0433150000
0
LINE
5
84A
100
AcDbEntity
8
BEM1
100
AcDbLine
62
4
6
CONTINUOUS
10
165.7661190000
20
139.0433150000
11
164.5994520000
21
139.0433150000
0
LINE
5
84B
100
AcDbEntity
8
BEM1
100
AcDbLine
62
4
6
CONTINUOUS
10
164.5994520000
20
139.0433150400
11
165.1827860000
21
135.5433150000
0
LINE
5
84C
100
AcDbEntity
8
BEM1
100
AcDbLine
62
4
6
CONTINUOUS
10
165.1827860000
20
135.5433150000
11
165.7661190000
21
139.0433150400
0
LINE
5
84D
100
AcDbEntity
8
BEM1
100
AcDbLine
62
4
6
CONTINUOUS
10
165.7661190000
20
139.0433150400
11
164.5994520000
21
139.0433150400
0
SOLID
5
84E
100
AcDbEntity
8
BEM1
100
AcDbTrace
62
4
6
CONTINUOUS
10
165.7661190000
20
139.0433150400
11
164.5994520000
21
139.0433150400
12
165.1827860000
22
135.5433150000
13
165.1827860000
23
135.5433150000
0
LINE
5
84F
100
AcDbEntity
8
BEM1
100
AcDbLine
62
4
6
CONTINUOUS
10
195.1121350000
20
204.7758770000
11
195.1121350000
21
208.4872710000
0
LINE
5
850
100
AcDbEntity
8
BEM1
100
AcDbLine
62
4
6
CONTINUOUS
10
198.6121350000
20
258.3636180000
11
223.3121350000
21
258.3636180000
0
LINE
5
851
100
AcDbEntity
8
BEM1
100
AcDbLine
62
4
6
CONTINUOUS
10
248.0121350000
20
258.3636180000
11
223.3121350000
21
258.3636180000
0
LINE
5
852
100
AcDbEntity
8
BEM1
100
AcDbLine
62
4
6
CONTINUOUS
10
198.6121350000
20
258.9469520000
11
195.1121350000
21
258.3636180000
0
LINE
5
853
100
AcDbEntity
8
BEM1
100
AcDbLine
62
4
6
CONTINUOUS
10
195.1121350000
20
258.3636180000
11
198.6121350000
21
257.7802850000
0
LINE
5
854
100
AcDbEntity
8
BEM1
100
AcDbLine
62
4
6
CONTINUOUS
10
198.6121350000
20
257.7802850000
11
198.6121350000
21
258.9469520000
0
LINE
5
855
100
AcDbEntity
8
BEM1
100
AcDbLine
62
4
6
CONTINUOUS
10
198.6121350000
20
257.7802850000
11
198.6121350000
21
258.9469520000
0
LINE
5
856
100
AcDbEntity
8
BEM1
100
AcDbLine
62
4
6
CONTINUOUS
10
198.6121350000
20
258.9469520000
11
195.1121350000
21
258.3636180000
0
LINE
5
857
100
AcDbEntity
8
BEM1
100
AcDbLine
62
4
6
CONTINUOUS
10
195.1121350000
20
258.3636180000
11
198.6121350000
21
257.7802850000
0
SOLID
5
858
100
AcDbEntity
8
BEM1
100
AcDbTrace
62
4
6
CONTINUOUS
10
195.1121350000
20
258.3636180000
11
198.6121350000
21
257.7802850000
12
198.6121350000
22
258.9469520000
13
198.6121350000
23
258.9469520000
0
LINE
5
859
100
AcDbEntity
8
BEM1
100
AcDbLine
62
4
6
CONTINUOUS
10
248.0121350000
20
258.9469520000
11
251.5121350000
21
258.3636180000
0
LINE
5
85A
100
AcDbEntity
8
BEM1
100
AcDbLine
62
4
6
CONTINUOUS
10
251.5121350000
20
258.3636180000
11
248.0121350000
21
257.7802850000
0
LINE
5
85B
100
AcDbEntity
8
BEM1
100
AcDbLine
62
4
6
CONTINUOUS
10
248.0121350000
20
257.7802850000
11
248.0121350000
21
258.9469520000
0
LINE
5
85C
100
AcDbEntity
8
BEM1
100
AcDbLine
62
4
6
CONTINUOUS
10
248.0121350000
20
258.9469520000
11
248.0121350000
21
257.7802850000
0
LINE
5
85D
100
AcDbEntity
8
BEM1
100
AcDbLine
62
4
6
CONTINUOUS
10
248.0121350000
20
257.7802850000
11
251.5121350000
21
258.3636180000
0
LINE
5
85E
100
AcDbEntity
8
BEM1
100
AcDbLine
62
4
6
CONTINUOUS
10
251.5121350000
20
258.3636180000
11
248.0121350000
21
258.9469520000
0
SOLID
5
85F
100
AcDbEntity
8
BEM1
100
AcDbTrace
62
4
6
CONTINUOUS
10
251.5121350000
20
258.3636180000
11
248.0121350000
21
258.9469520000
12
248.0121350000
22
257.7802850000
13
248.0121350000
23
257.7802850000
0
LINE
5
860
100
AcDbEntity
8
BEM1
100
AcDbLine
62
4
6
CONTINUOUS
10
195.1121350000
20
167.5963000000
11
195.1121350000
21
164.5334870000
0
LINE
5
861
100
AcDbEntity
8
BEM1
100
AcDbLine
62
4
6
CONTINUOUS
10
198.6121350000
20
110.2044620000
11
216.3121350000
21
110.2044620000
0
LINE
5
862
100
AcDbEntity
8
BEM1
100
AcDbLine
62
4
6
CONTINUOUS
10
234.0121350000
20
110.2044620000
11
216.3121350000
21
110.2044620000
0
LINE
5
863
100
AcDbEntity
8
BEM1
100
AcDbLine
62
4
6
CONTINUOUS
10
198.6121350000
20
110.7877950000
11
195.1121350000
21
110.2044620000
0
LINE
5
864
100
AcDbEntity
8
BEM1
100
AcDbLine
62
4
6
CONTINUOUS
10
195.1121350000
20
110.2044620000
11
198.6121350000
21
109.6211280000
0
LINE
5
865
100
AcDbEntity
8
BEM1
100
AcDbLine
62
4
6
CONTINUOUS
10
198.6121350000
20
109.6211280000
11
198.6121350000
21
110.7877950000
0
LINE
5
866
100
AcDbEntity
8
BEM1
100
AcDbLine
62
4
6
CONTINUOUS
10
198.6121350000
20
109.6211280000
11
198.6121350000
21
110.7877950000
0
LINE
5
867
100
AcDbEntity
8
BEM1
100
AcDbLine
62
4
6
CONTINUOUS
10
198.6121350000
20
110.7877950000
11
195.1121350000
21
110.2044620000
0
LINE
5
868
100
AcDbEntity
8
BEM1
100
AcDbLine
62
4
6
CONTINUOUS
10
195.1121350000
20
110.2044620000
11
198.6121350000
21
109.6211280000
0
SOLID
5
869
100
AcDbEntity
8
BEM1
100
AcDbTrace
62
4
6
CONTINUOUS
10
195.1121350000
20
110.2044620000
11
198.6121350000
21
109.6211280000
12
198.6121350000
22
110.7877950000
13
198.6121350000
23
110.7877950000
0
LINE
5
86A
100
AcDbEntity
8
BEM1
100
AcDbLine
62
4
6
CONTINUOUS
10
234.0121350000
20
110.7877950000
11
237.5121350000
21
110.2044620000
0
LINE
5
86B
100
AcDbEntity
8
BEM1
100
AcDbLine
62
4
6
CONTINUOUS
10
237.5121350000
20
110.2044620000
11
234.0121350000
21
109.6211280000
0
LINE
5
86C
100
AcDbEntity
8
BEM1
100
AcDbLine
62
4
6
CONTINUOUS
10
234.0121350000
20
109.6211280000
11
234.0121350000
21
110.7877950000
0
LINE
5
86D
100
AcDbEntity
8
BEM1
100
AcDbLine
62
4
6
CONTINUOUS
10
234.0121350000
20
110.7877950000
11
234.0121350000
21
109.6211280000
0
LINE
5
86E
100
AcDbEntity
8
BEM1
100
AcDbLine
62
4
6
CONTINUOUS
10
234.0121350000
20
109.6211280000
11
237.5121350000
21
110.2044620000
0
LINE
5
86F
100
AcDbEntity
8
BEM1
100
AcDbLine
62
4
6
CONTINUOUS
10
237.5121350000
20
110.2044620000
11
234.0121350000
21
110.7877950000
0
SOLID
5
870
100
AcDbEntity
8
BEM1
100
AcDbTrace
62
4
6
CONTINUOUS
10
237.5121350000
20
110.2044620000
11
234.0121350000
21
110.7877950000
12
234.0121350000
22
109.6211280000
13
234.0121350000
23
109.6211280000
0
ARC
5
871
100
AcDbEntity
8
BEM1
100
AcDbCircle
62
4
6
CONTINUOUS
10
120.5265510000
20
92.1809260000
40
24.4009390000
100
AcDbArc
50
45.0000000000
51
126.7745980000
0
LINE
5
872
100
AcDbEntity
8
BEM1
100
AcDbLine
62
4
6
CONTINUOUS
10
101.9996890000
20
110.7077870000
11
114.1729980000
21
98.5344790000
0
LINE
5
873
100
AcDbEntity
8
BEM1
100
AcDbLine
62
4
6
CONTINUOUS
10
139.0534130000
20
110.7077870000
11
126.8801040000
21
98.5344790000
0
LINE
5
874
100
AcDbEntity
8
BEM1
100
AcDbLine
62
4
6
CONTINUOUS
10
135.5164600000
20
112.1670010000
11
137.7806200000
21
109.4349950000
0
LINE
5
875
100
AcDbEntity
8
BEM1
100
AcDbLine
62
4
6
CONTINUOUS
10
137.7806200000
20
109.4349950000
11
134.7527910000
21
111.2850020000
0
LINE
5
876
100
AcDbEntity
8
BEM1
100
AcDbLine
62
4
6
CONTINUOUS
10
134.7527910000
20
111.2850020000
11
135.5164600000
21
112.1670010000
0
LINE
5
877
100
AcDbEntity
8
BEM1
100
AcDbLine
62
4
6
CONTINUOUS
10
137.7806200000
20
109.4349950000
11
135.5164600000
21
112.1670010000
0
LINE
5
878
100
AcDbEntity
8
BEM1
100
AcDbLine
62
4
6
CONTINUOUS
10
135.5164600000
20
112.1670010000
11
134.7527910000
21
111.2850020000
0
LINE
5
879
100
AcDbEntity
8
BEM1
100
AcDbLine
62
4
6
CONTINUOUS
10
134.7527910000
20
111.2850020000
11
137.7806200000
21
109.4349950000
0
SOLID
5
87A
100
AcDbEntity
8
BEM1
100
AcDbTrace
62
4
6
CONTINUOUS
10
134.7527910000
20
111.2850020000
11
137.7806200000
21
109.4349950000
12
135.5164600000
22
112.1670010000
13
135.5164600000
23
112.1670010000
0
LINE
5
87B
100
AcDbEntity
8
BEM1
100
AcDbLine
62
4
6
CONTINUOUS
10
105.5366420000
20
112.1670010000
11
103.2724810000
21
109.4349950000
0
LINE
5
87C
100
AcDbEntity
8
BEM1
100
AcDbLine
62
4
6
CONTINUOUS
10
103.2724810000
20
109.4349950000
11
106.3003110000
21
111.2850020000
0
LINE
5
87D
100
AcDbEntity
8
BEM1
100
AcDbLine
62
4
6
CONTINUOUS
10
106.3003110000
20
111.2850020000
11
105.5366420000
21
112.1670010000
0
LINE
5
87E
100
AcDbEntity
8
BEM1
100
AcDbLine
62
4
6
CONTINUOUS
10
105.5366420000
20
112.1670010000
11
103.2724810000
21
109.4349950000
0
LINE
5
87F
100
AcDbEntity
8
BEM1
100
AcDbLine
62
4
6
CONTINUOUS
10
103.2724810000
20
109.4349950000
11
106.3003110000
21
111.2850020000
0
LINE
5
880
100
AcDbEntity
8
BEM1
100
AcDbLine
62
4
6
CONTINUOUS
10
106.3003110000
20
111.2850020000
11
105.5366420000
21
112.1670010000
0
SOLID
5
881
100
AcDbEntity
8
BEM1
100
AcDbTrace
62
4
6
CONTINUOUS
10
106.3003110000
20
111.2850020000
11
105.5366420000
21
112.1670010000
12
103.2724810000
22
109.4349950000
13
103.2724810000
23
109.4349950000
0
LINE
5
882
100
AcDbEntity
8
BEM1
100
AcDbLine
62
4
6
CONTINUOUS
10
62.1230410000
20
216.0468250000
11
62.1230410000
21
249.7484460000
0
LINE
5
883
100
AcDbEntity
8
BEM1
100
AcDbLine
62
4
6
CONTINUOUS
10
120.5300610000
20
216.0468250000
11
120.5300610000
21
249.7484460000
0
LINE
5
884
100
AcDbEntity
8
BEM1
100
AcDbLine
62
4
6
CONTINUOUS
10
65.6230410000
20
248.9484460000
11
117.0300610000
21
248.9484460000
0
LINE
5
885
100
AcDbEntity
8
BEM1
100
AcDbLine
62
4
6
CONTINUOUS
10
65.6230410000
20
249.5317800000
11
62.1230410000
21
248.9484460000
0
LINE
5
886
100
AcDbEntity
8
BEM1
100
AcDbLine
62
4
6
CONTINUOUS
10
62.1230410000
20
248.9484460000
11
65.6230410000
21
248.3651130000
0
LINE
5
887
100
AcDbEntity
8
BEM1
100
AcDbLine
62
4
6
CONTINUOUS
10
65.6230410000
20
248.3651130000
11
65.6230410000
21
249.5317800000
0
LINE
5
888
100
AcDbEntity
8
BEM1
100
AcDbLine
62
4
6
CONTINUOUS
10
65.6230410000
20
248.3651130000
11
65.6230410000
21
249.5317800000
0
LINE
5
889
100
AcDbEntity
8
BEM1
100
AcDbLine
62
4
6
CONTINUOUS
10
65.6230410000
20
249.5317800000
11
62.1230410000
21
248.9484460000
0
LINE
5
88A
100
AcDbEntity
8
BEM1
100
AcDbLine
62
4
6
CONTINUOUS
10
62.1230410000
20
248.9484460000
11
65.6230410000
21
248.3651130000
0
SOLID
5
88B
100
AcDbEntity
8
BEM1
100
AcDbTrace
62
4
6
CONTINUOUS
10
62.1230410000
20
248.9484460000
11
65.6230410000
21
248.3651130000
12
65.6230410000
22
249.5317800000
13
65.6230410000
23
249.5317800000
0
LINE
5
88C
100
AcDbEntity
8
BEM1
100
AcDbLine
62
4
6
CONTINUOUS
10
117.0300610000
20
249.5317800000
11
120.5300610000
21
248.9484460000
0
LINE
5
88D
100
AcDbEntity
8
BEM1
100
AcDbLine
62
4
6
CONTINUOUS
10
120.5300610000
20
248.9484460000
11
117.0300610000
21
248.3651130000
0
LINE
5
88E
100
AcDbEntity
8
BEM1
100
AcDbLine
62
4
6
CONTINUOUS
10
117.0300610000
20
248.3651130000
11
117.0300610000
21
249.5317800000
0
LINE
5
88F
100
AcDbEntity
8
BEM1
100
AcDbLine
62
4
6
CONTINUOUS
10
117.0300610000
20
249.5317800000
11
117.0300610000
21
248.3651130000
0
LINE
5
890
100
AcDbEntity
8
BEM1
100
AcDbLine
62
4
6
CONTINUOUS
10
117.0300610000
20
248.3651130000
11
120.5300610000
21
248.9484460000
0
LINE
5
891
100
AcDbEntity
8
BEM1
100
AcDbLine
62
4
6
CONTINUOUS
10
120.5300610000
20
248.9484460000
11
117.0300610000
21
249.5317800000
0
SOLID
5
892
100
AcDbEntity
8
BEM1
100
AcDbTrace
62
4
6
CONTINUOUS
10
120.5300610000
20
248.9484460000
11
117.0300610000
21
249.5317800000
12
117.0300610000
22
248.3651130000
13
117.0300610000
23
248.3651130000
0
LINE
5
893
100
AcDbEntity
8
BEM1
100
AcDbLine
62
4
6
CONTINUOUS
10
61.6230410000
20
157.1398050000
11
29.1754120000
21
157.1398050000
0
LINE
5
894
100
AcDbEntity
8
BEM1
100
AcDbLine
62
4
6
CONTINUOUS
10
61.6230410000
20
215.5468250000
11
29.1754120000
21
215.5468250000
0
LINE
5
895
100
AcDbEntity
8
BEM1
100
AcDbLine
62
4
6
CONTINUOUS
10
29.9754120000
20
160.6398050000
11
29.9754120000
21
212.0468250000
0
LINE
5
896
100
AcDbEntity
8
BEM1
100
AcDbLine
62
4
6
CONTINUOUS
10
29.3920780000
20
160.6398050000
11
29.9754120000
21
157.1398050000
0
LINE
5
897
100
AcDbEntity
8
BEM1
100
AcDbLine
62
4
6
CONTINUOUS
10
29.9754120000
20
157.1398050000
11
30.5587450000
21
160.6398050000
0
LINE
5
898
100
AcDbEntity
8
BEM1
100
AcDbLine
62
4
6
CONTINUOUS
10
30.5587450000
20
160.6398050000
11
29.3920780000
21
160.6398050000
0
LINE
5
899
100
AcDbEntity
8
BEM1
100
AcDbLine
62
4
6
CONTINUOUS
10
29.3920780000
20
160.6398049200
11
29.9754120000
21
157.1398050000
0
LINE
5
89A
100
AcDbEntity
8
BEM1
100
AcDbLine
62
4
6
CONTINUOUS
10
29.9754120000
20
157.1398050000
11
30.5587450000
21
160.6398049200
0
LINE
5
89B
100
AcDbEntity
8
BEM1
100
AcDbLine
62
4
6
CONTINUOUS
10
30.5587450000
20
160.6398049200
11
29.3920780000
21
160.6398049200
0
SOLID
5
89C
100
AcDbEntity
8
BEM1
100
AcDbTrace
62
4
6
CONTINUOUS
10
30.5587450000
20
160.6398049200
11
29.3920780000
21
160.6398049200
12
29.9754120000
22
157.1398050000
13
29.9754120000
23
157.1398050000
0
LINE
5
89D
100
AcDbEntity
8
BEM1
100
AcDbLine
62
4
6
CONTINUOUS
10
29.3920780000
20
212.0468250000
11
29.9754120000
21
215.5468250000
0
LINE
5
89E
100
AcDbEntity
8
BEM1
100
AcDbLine
62
4
6
CONTINUOUS
10
29.9754120000
20
215.5468250000
11
30.5587450000
21
212.0468250000
0
LINE
5
89F
100
AcDbEntity
8
BEM1
100
AcDbLine
62
4
6
CONTINUOUS
10
30.5587450000
20
212.0468250000
11
29.3920780000
21
212.0468250000
0
LINE
5
8A0
100
AcDbEntity
8
BEM1
100
AcDbLine
62
4
6
CONTINUOUS
10
30.5587450000
20
212.0468250600
11
29.9754120000
21
215.5468250000
0
LINE
5
8A1
100
AcDbEntity
8
BEM1
100
AcDbLine
62
4
6
CONTINUOUS
10
29.9754120000
20
215.5468250000
11
29.3920780000
21
212.0468250600
0
LINE
5
8A2
100
AcDbEntity
8
BEM1
100
AcDbLine
62
4
6
CONTINUOUS
10
29.3920780000
20
212.0468250600
11
30.5587450000
21
212.0468250600
0
SOLID
5
8A3
100
AcDbEntity
8
BEM1
100
AcDbTrace
62
4
6
CONTINUOUS
10
29.3920780000
20
212.0468250600
11
30.5587450000
21
212.0468250600
12
29.9754120000
22
215.5468250000
13
29.9754120000
23
215.5468250000
0
LINE
5
8A4
100
AcDbEntity
8
BEM1
100
AcDbLine
62
4
6
CONTINUOUS
10
197.7146310000
20
209.9433150000
11
174.2755910000
21
209.9433150000
0
LINE
5
8A5
100
AcDbEntity
8
BEM1
100
AcDbLine
62
4
6
CONTINUOUS
10
198.6121350000
20
162.7433150000
11
174.2755910000
21
162.7433150000
0
LINE
5
8A6
100
AcDbEntity
8
BEM1
100
AcDbLine
62
4
6
CONTINUOUS
10
175.0755910000
20
206.4433150000
11
175.0755910000
21
166.2433150000
0
LINE
5
8A7
100
AcDbEntity
8
BEM1
100
AcDbLine
62
4
6
CONTINUOUS
10
174.4922580000
20
206.4433150000
11
175.0755910000
21
209.9433150000
0
LINE
5
8A8
100
AcDbEntity
8
BEM1
100
AcDbLine
62
4
6
CONTINUOUS
10
175.0755910000
20
209.9433150000
11
175.6589250000
21
206.4433150000
0
LINE
5
8A9
100
AcDbEntity
8
BEM1
100
AcDbLine
62
4
6
CONTINUOUS
10
175.6589250000
20
206.4433150000
11
174.4922580000
21
206.4433150000
0
LINE
5
8AA
100
AcDbEntity
8
BEM1
100
AcDbLine
62
4
6
CONTINUOUS
10
175.6589250000
20
206.4433148400
11
175.0755910000
21
209.9433150000
0
LINE
5
8AB
100
AcDbEntity
8
BEM1
100
AcDbLine
62
4
6
CONTINUOUS
10
175.0755910000
20
209.9433150000
11
174.4922580000
21
206.4433148400
0
LINE
5
8AC
100
AcDbEntity
8
BEM1
100
AcDbLine
62
4
6
CONTINUOUS
10
174.4922580000
20
206.4433148400
11
175.6589250000
21
206.4433148400
0
SOLID
5
8AD
100
AcDbEntity
8
BEM1
100
AcDbTrace
62
4
6
CONTINUOUS
10
174.4922580000
20
206.4433148400
11
175.6589250000
21
206.4433148400
12
175.0755910000
22
209.9433150000
13
175.0755910000
23
209.9433150000
0
LINE
5
8AE
100
AcDbEntity
8
BEM1
100
AcDbLine
62
4
6
CONTINUOUS
10
174.4922580000
20
166.2433150000
11
175.0755910000
21
162.7433150000
0
LINE
5
8AF
100
AcDbEntity
8
BEM1
100
AcDbLine
62
4
6
CONTINUOUS
10
175.0755910000
20
162.7433150000
11
175.6589250000
21
166.2433150000
0
LINE
5
8B0
100
AcDbEntity
8
BEM1
100
AcDbLine
62
4
6
CONTINUOUS
10
175.6589250000
20
166.2433150000
11
174.4922580000
21
166.2433150000
0
LINE
5
8B1
100
AcDbEntity
8
BEM1
100
AcDbLine
62
4
6
CONTINUOUS
10
174.4922580000
20
166.2433151400
11
175.0755910000
21
162.7433150000
0
LINE
5
8B2
100
AcDbEntity
8
BEM1
100
AcDbLine
62
4
6
CONTINUOUS
10
175.0755910000
20
162.7433150000
11
175.6589250000
21
166.2433151400
0
LINE
5
8B3
100
AcDbEntity
8
BEM1
100
AcDbLine
62
4
6
CONTINUOUS
10
175.6589250000
20
166.2433151400
11
174.4922580000
21
166.2433151400
0
SOLID
5
8B4
100
AcDbEntity
8
BEM1
100
AcDbTrace
62
4
6
CONTINUOUS
10
175.6589250000
20
166.2433151400
11
174.4922580000
21
166.2433151400
12
175.0755910000
22
162.7433150000
13
175.0755910000
23
162.7433150000
0
LINE
5
8B5
100
AcDbEntity
8
BEM1
100
AcDbLine
62
4
6
CONTINUOUS
10
237.5121350000
20
133.8895400000
11
237.5121350000
21
109.4044620000
0
LINE
5
8B6
100
AcDbEntity
8
BEM1
100
AcDbLine
62
4
6
CONTINUOUS
10
246.5121350000
20
134.2981070000
11
246.5121350000
21
116.8760830000
0
LINE
5
8B7
100
AcDbEntity
8
BEM1
100
AcDbLine
62
4
6
CONTINUOUS
10
237.5121350000
20
110.2044620000
11
262.3645340000
21
110.2044620000
0
LINE
5
8B8
100
AcDbEntity
8
BEM1
100
AcDbLine
62
4
6
CONTINUOUS
10
250.0121350000
20
110.7877950000
11
246.5121350000
21
110.2044620000
0
LINE
5
8B9
100
AcDbEntity
8
BEM1
100
AcDbLine
62
4
6
CONTINUOUS
10
246.5121350000
20
110.2044620000
11
250.0121350000
21
109.6211280000
0
LINE
5
8BA
100
AcDbEntity
8
BEM1
100
AcDbLine
62
4
6
CONTINUOUS
10
250.0121350000
20
109.6211280000
11
250.0121350000
21
110.7877950000
0
LINE
5
8BB
100
AcDbEntity
8
BEM1
100
AcDbLine
62
4
6
CONTINUOUS
10
250.0121350000
20
109.6211280000
11
250.0121350000
21
110.7877950000
0
LINE
5
8BC
100
AcDbEntity
8
BEM1
100
AcDbLine
62
4
6
CONTINUOUS
10
250.0121350000
20
110.7877950000
11
246.5121350000
21
110.2044620000
0
LINE
5
8BD
100
AcDbEntity
8
BEM1
100
AcDbLine
62
4
6
CONTINUOUS
10
246.5121350000
20
110.2044620000
11
250.0121350000
21
109.6211280000
0
SOLID
5
8BE
100
AcDbEntity
8
BEM1
100
AcDbTrace
62
4
6
CONTINUOUS
10
246.5121350000
20
110.2044620000
11
250.0121350000
21
109.6211280000
12
250.0121350000
22
110.7877950000
13
250.0121350000
23
110.7877950000
0
LINE
5
8BF
100
AcDbEntity
8
BEM1
100
AcDbLine
62
4
6
CONTINUOUS
10
246.5121350000
20
238.0740690000
11
246.5121350000
21
249.7484460000
0
LINE
5
8C0
100
AcDbEntity
8
BEM1
100
AcDbLine
62
4
6
CONTINUOUS
10
251.5121350000
20
211.1522700000
11
251.5121350000
21
259.2349930000
0
LINE
5
8C1
100
AcDbEntity
8
BEM1
100
AcDbLine
62
4
6
CONTINUOUS
10
255.0121350000
20
248.9484460000
11
257.6711970000
21
248.9484460000
0
LINE
5
8C2
100
AcDbEntity
8
BEM1
100
AcDbLine
62
4
6
CONTINUOUS
10
251.5121350000
20
248.9484460000
11
218.9251460000
21
248.9484460000
0
LINE
5
8C3
100
AcDbEntity
8
BEM1
100
AcDbLine
62
4
6
CONTINUOUS
10
255.0121350000
20
249.5317800000
11
251.5121350000
21
248.9484460000
0
LINE
5
8C4
100
AcDbEntity
8
BEM1
100
AcDbLine
62
4
6
CONTINUOUS
10
251.5121350000
20
248.9484460000
11
255.0121350000
21
248.3651130000
0
LINE
5
8C5
100
AcDbEntity
8
BEM1
100
AcDbLine
62
4
6
CONTINUOUS
10
255.0121350000
20
248.3651130000
11
255.0121350000
21
249.5317800000
0
LINE
5
8C6
100
AcDbEntity
8
BEM1
100
AcDbLine
62
4
6
CONTINUOUS
10
255.0121350000
20
248.3651130000
11
255.0121350000
21
249.5317800000
0
LINE
5
8C7
100
AcDbEntity
8
BEM1
100
AcDbLine
62
4
6
CONTINUOUS
10
255.0121350000
20
249.5317800000
11
251.5121350000
21
248.9484460000
0
LINE
5
8C8
100
AcDbEntity
8
BEM1
100
AcDbLine
62
4
6
CONTINUOUS
10
251.5121350000
20
248.9484460000
11
255.0121350000
21
248.3651130000
0
SOLID
5
8C9
100
AcDbEntity
8
BEM1
100
AcDbTrace
62
4
6
CONTINUOUS
10
251.5121350000
20
248.9484460000
11
255.0121350000
21
248.3651130000
12
255.0121350000
22
249.5317800000
13
255.0121350000
23
249.5317800000
0
LINE
5
8CA
100
AcDbEntity
8
BEM1
100
AcDbLine
62
4
6
CONTINUOUS
10
243.0121350000
20
249.5317800000
11
246.5121350000
21
248.9484460000
0
LINE
5
8CB
100
AcDbEntity
8
BEM1
100
AcDbLine
62
4
6
CONTINUOUS
10
246.5121350000
20
248.9484460000
11
243.0121350000
21
248.3651130000
0
LINE
5
8CC
100
AcDbEntity
8
BEM1
100
AcDbLine
62
4
6
CONTINUOUS
10
243.0121350000
20
248.3651130000
11
243.0121350000
21
249.5317800000
0
LINE
5
8CD
100
AcDbEntity
8
BEM1
100
AcDbLine
62
4
6
CONTINUOUS
10
243.0121350000
20
249.5317800000
11
243.0121350000
21
248.3651130000
0
LINE
5
8CE
100
AcDbEntity
8
BEM1
100
AcDbLine
62
4
6
CONTINUOUS
10
243.0121350000
20
248.3651130000
11
246.5121350000
21
248.9484460000
0
LINE
5
8CF
100
AcDbEntity
8
BEM1
100
AcDbLine
62
4
6
CONTINUOUS
10
246.5121350000
20
248.9484460000
11
243.0121350000
21
249.5317800000
0
SOLID
5
8D0
100
AcDbEntity
8
BEM1
100
AcDbTrace
62
4
6
CONTINUOUS
10
246.5121350000
20
248.9484460000
11
243.0121350000
21
249.5317800000
12
243.0121350000
22
248.3651130000
13
243.0121350000
23
248.3651130000
0
LINE
5
8D1
100
AcDbEntity
8
BEM1
100
AcDbLine
62
4
6
CONTINUOUS
10
252.6904900000
20
209.9433150000
11
265.4585860000
21
209.9433150000
0
LINE
5
8D2
100
AcDbEntity
8
BEM1
100
AcDbLine
62
4
6
CONTINUOUS
10
253.0992330000
20
162.7433150000
11
265.4585860000
21
162.7433150000
0
LINE
5
8D3
100
AcDbEntity
8
BEM1
100
AcDbLine
62
4
6
CONTINUOUS
10
264.6585860000
20
206.4433150000
11
264.6585860000
21
166.2433150000
0
LINE
5
8D4
100
AcDbEntity
8
BEM1
100
AcDbLine
62
4
6
CONTINUOUS
10
264.0752520000
20
206.4433150000
11
264.6585860000
21
209.9433150000
0
LINE
5
8D5
100
AcDbEntity
8
BEM1
100
AcDbLine
62
4
6
CONTINUOUS
10
264.6585860000
20
209.9433150000
11
265.2419190000
21
206.4433150000
0
LINE
5
8D6
100
AcDbEntity
8
BEM1
100
AcDbLine
62
4
6
CONTINUOUS
10
265.2419190000
20
206.4433150000
11
264.0752520000
21
206.4433150000
0
LINE
5
8D7
100
AcDbEntity
8
BEM1
100
AcDbLine
62
4
6
CONTINUOUS
10
265.2419190000
20
206.4433148400
11
264.6585860000
21
209.9433150000
0
LINE
5
8D8
100
AcDbEntity
8
BEM1
100
AcDbLine
62
4
6
CONTINUOUS
10
264.6585860000
20
209.9433150000
11
264.0752520000
21
206.4433148400
0
LINE
5
8D9
100
AcDbEntity
8
BEM1
100
AcDbLine
62
4
6
CONTINUOUS
10
264.0752520000
20
206.4433148400
11
265.2419190000
21
206.4433148400
0
SOLID
5
8DA
100
AcDbEntity
8
BEM1
100
AcDbTrace
62
4
6
CONTINUOUS
10
264.0752520000
20
206.4433148400
11
265.2419190000
21
206.4433148400
12
264.6585860000
22
209.9433150000
13
264.6585860000
23
209.9433150000
0
LINE
5
8DB
100
AcDbEntity
8
BEM1
100
AcDbLine
62
4
6
CONTINUOUS
10
264.0752520000
20
166.2433150000
11
264.6585860000
21
162.7433150000
0
LINE
5
8DC
100
AcDbEntity
8
BEM1
100
AcDbLine
62
4
6
CONTINUOUS
10
264.6585860000
20
162.7433150000
11
265.2419190000
21
166.2433150000
0
LINE
5
8DD
100
AcDbEntity
8
BEM1
100
AcDbLine
62
4
6
CONTINUOUS
10
265.2419190000
20
166.2433150000
11
264.0752520000
21
166.2433150000
0
LINE
5
8DE
100
AcDbEntity
8
BEM1
100
AcDbLine
62
4
6
CONTINUOUS
10
264.0752520000
20
166.2433151400
11
264.6585860000
21
162.7433150000
0
LINE
5
8DF
100
AcDbEntity
8
BEM1
100
AcDbLine
62
4
6
CONTINUOUS
10
264.6585860000
20
162.7433150000
11
265.2419190000
21
166.2433151400
0
LINE
5
8E0
100
AcDbEntity
8
BEM1
100
AcDbLine
62
4
6
CONTINUOUS
10
265.2419190000
20
166.2433151400
11
264.0752520000
21
166.2433151400
0
SOLID
5
8E1
100
AcDbEntity
8
BEM1
100
AcDbTrace
62
4
6
CONTINUOUS
10
265.2419190000
20
166.2433151400
11
264.0752520000
21
166.2433151400
12
264.6585860000
22
162.7433150000
13
264.6585860000
23
162.7433150000
0
LINE
5
8E2
100
AcDbEntity
8
05
100
AcDbLine
62
4
6
CONTINUOUS
10
210.0000000000
20
21.0000000000
11
277.0000000000
21
21.0000000000
0
LINE
5
8E3
100
AcDbEntity
8
05
100
AcDbLine
62
4
6
CONTINUOUS
10
210.0000000000
20
26.0000000000
11
277.0000000000
21
26.0000000000
0
LINE
5
8E4
100
AcDbEntity
8
05
100
AcDbLine
62
4
6
CONTINUOUS
10
210.0000000000
20
31.0000000000
11
277.0000000000
21
31.0000000000
0
LINE
5
8E5
100
AcDbEntity
8
05
100
AcDbLine
62
4
6
CONTINUOUS
10
210.0000000000
20
36.0000000000
11
277.0000000000
21
36.0000000000
0
LINE
5
8E6
100
AcDbEntity
8
05
100
AcDbLine
62
4
6
CONTINUOUS
10
210.0000000000
20
41.0000000000
11
277.0000000000
21
41.0000000000
0
LINE
5
8E7
100
AcDbEntity
8
05
100
AcDbLine
62
4
6
CONTINUOUS
10
210.0000000000
20
46.0000000000
11
277.0000000000
21
46.0000000000
0
LINE
5
8E8
100
AcDbEntity
8
05
100
AcDbLine
62
4
6
CONTINUOUS
10
210.0000000000
20
51.0000000000
11
277.0000000000
21
51.0000000000
0
LINE
5
8E9
100
AcDbEntity
8
05
100
AcDbLine
62
4
6
CONTINUOUS
10
315.9116940000
20
15.6550740000
11
315.9496920000
21
15.6930720000
0
LINE
5
8EA
100
AcDbEntity
8
05
100
AcDbLine
62
4
6
CONTINUOUS
10
315.5868920000
20
13.2089520000
11
315.5962100000
21
13.2182700000
0
LINE
5
8EB
100
AcDbEntity
8
BEM1
100
AcDbLine
62
4
6
CONTINUOUS
10
127.0265510000
20
98.5809260000
11
140.1992420000
21
98.5809260000
0
LINE
5
8EC
100
AcDbEntity
8
BEM1
100
AcDbLine
62
4
6
CONTINUOUS
10
128.0965990000
20
89.5809260000
11
140.0825470000
21
89.5809260000
0
LINE
5
8ED
100
AcDbEntity
8
BEM1
100
AcDbLine
62
4
6
CONTINUOUS
10
146.3179780000
20
89.5809260000
11
146.3179780000
21
106.1861240000
0
LINE
5
8EE
100
AcDbEntity
8
BEM1
100
AcDbLine
62
4
6
CONTINUOUS
10
146.3179780000
20
86.0809260000
11
146.3179780000
21
79.6722710000
0
LINE
5
8EF
100
AcDbEntity
8
BEM1
100
AcDbLine
62
4
6
CONTINUOUS
10
146.9013110000
20
102.0809260000
11
146.3179780000
21
98.5809260000
0
LINE
5
8F0
100
AcDbEntity
8
BEM1
100
AcDbLine
62
4
6
CONTINUOUS
10
146.3179780000
20
98.5809260000
11
145.7346440000
21
102.0809260000
0
LINE
5
8F1
100
AcDbEntity
8
BEM1
100
AcDbLine
62
4
6
CONTINUOUS
10
145.7346440000
20
102.0809260000
11
146.9013110000
21
102.0809260000
0
LINE
5
8F2
100
AcDbEntity
8
BEM1
100
AcDbLine
62
4
6
CONTINUOUS
10
145.7346440000
20
102.0809260800
11
146.3179780000
21
98.5809260000
0
LINE
5
8F3
100
AcDbEntity
8
BEM1
100
AcDbLine
62
4
6
CONTINUOUS
10
146.3179780000
20
98.5809260000
11
146.9013110000
21
102.0809260800
0
LINE
5
8F4
100
AcDbEntity
8
BEM1
100
AcDbLine
62
4
6
CONTINUOUS
10
146.9013110000
20
102.0809260800
11
145.7346440000
21
102.0809260800
0
SOLID
5
8F5
100
AcDbEntity
8
BEM1
100
AcDbTrace
62
4
6
CONTINUOUS
10
146.9013110000
20
102.0809260800
11
145.7346440000
21
102.0809260800
12
146.3179780000
22
98.5809260000
13
146.3179780000
23
98.5809260000
0
LINE
5
8F6
100
AcDbEntity
8
BEM1
100
AcDbLine
62
4
6
CONTINUOUS
10
146.9013110000
20
86.0809260000
11
146.3179780000
21
89.5809260000
0
LINE
5
8F7
100
AcDbEntity
8
BEM1
100
AcDbLine
62
4
6
CONTINUOUS
10
146.3179780000
20
89.5809260000
11
145.7346440000
21
86.0809260000
0
LINE
5
8F8
100
AcDbEntity
8
BEM1
100
AcDbLine
62
4
6
CONTINUOUS
10
145.7346440000
20
86.0809260000
11
146.9013110000
21
86.0809260000
0
LINE
5
8F9
100
AcDbEntity
8
BEM1
100
AcDbLine
62
4
6
CONTINUOUS
10
146.9013110000
20
86.0809261200
11
146.3179780000
21
89.5809260000
0
LINE
5
8FA
100
AcDbEntity
8
BEM1
100
AcDbLine
62
4
6
CONTINUOUS
10
146.3179780000
20
89.5809260000
11
145.7346440000
21
86.0809261200
0
LINE
5
8FB
100
AcDbEntity
8
BEM1
100
AcDbLine
62
4
6
CONTINUOUS
10
145.7346440000
20
86.0809261200
11
146.9013110000
21
86.0809261200
0
SOLID
5
8FC
100
AcDbEntity
8
BEM1
100
AcDbTrace
62
4
6
CONTINUOUS
10
145.7346440000
20
86.0809261200
11
146.9013110000
21
86.0809261200
12
146.3179780000
22
89.5809260000
13
146.3179780000
23
89.5809260000
0
LINE
5
8FD
100
AcDbEntity
8
BEM1
100
AcDbLine
62
4
6
CONTINUOUS
10
114.5265510000
20
96.1768690000
11
114.5265510000
21
83.7199640000
0
LINE
5
8FE
100
AcDbEntity
8
BEM1
100
AcDbLine
62
4
6
CONTINUOUS
10
126.5265510000
20
96.4651040000
11
126.5265510000
21
83.8199350000
0
LINE
5
8FF
100
AcDbEntity
8
BEM1
100
AcDbLine
62
4
6
CONTINUOUS
10
111.0265510000
20
67.1583330000
11
106.9572710000
21
67.1583330000
0
LINE
5
900
100
AcDbEntity
8
BEM1
100
AcDbLine
62
4
6
CONTINUOUS
10
114.5265510000
20
67.1583330000
11
133.5265510000
21
67.1583330000
0
LINE
5
901
100
AcDbEntity
8
BEM1
100
AcDbLine
62
4
6
CONTINUOUS
10
111.0265510000
20
66.5750000000
11
114.5265510000
21
67.1583330000
0
LINE
5
902
100
AcDbEntity
8
BEM1
100
AcDbLine
62
4
6
CONTINUOUS
10
114.5265510000
20
67.1583330000
11
111.0265510000
21
67.7416670000
0
LINE
5
903
100
AcDbEntity
8
BEM1
100
AcDbLine
62
4
6
CONTINUOUS
10
111.0265510000
20
67.7416670000
11
111.0265510000
21
66.5750000000
0
LINE
5
904
100
AcDbEntity
8
BEM1
100
AcDbLine
62
4
6
CONTINUOUS
10
111.0265510000
20
67.7416670000
11
111.0265510000
21
66.5750000000
0
LINE
5
905
100
AcDbEntity
8
BEM1
100
AcDbLine
62
4
6
CONTINUOUS
10
111.0265510000
20
66.5750000000
11
114.5265510000
21
67.1583330000
0
LINE
5
906
100
AcDbEntity
8
BEM1
100
AcDbLine
62
4
6
CONTINUOUS
10
114.5265510000
20
67.1583330000
11
111.0265510000
21
67.7416670000
0
SOLID
5
907
100
AcDbEntity
8
BEM1
100
AcDbTrace
62
4
6
CONTINUOUS
10
114.5265510000
20
67.1583330000
11
111.0265510000
21
67.7416670000
12
111.0265510000
22
66.5750000000
13
111.0265510000
23
66.5750000000
0
LINE
5
908
100
AcDbEntity
8
BEM1
100
AcDbLine
62
4
6
CONTINUOUS
10
130.0265510000
20
66.5750000000
11
126.5265510000
21
67.1583330000
0
LINE
5
909
100
AcDbEntity
8
BEM1
100
AcDbLine
62
4
6
CONTINUOUS
10
126.5265510000
20
67.1583330000
11
130.0265510000
21
67.7416670000
0
LINE
5
90A
100
AcDbEntity
8
BEM1
100
AcDbLine
62
4
6
CONTINUOUS
10
130.0265510000
20
67.7416670000
11
130.0265510000
21
66.5750000000
0
LINE
5
90B
100
AcDbEntity
8
BEM1
100
AcDbLine
62
4
6
CONTINUOUS
10
130.0265510000
20
66.5750000000
11
130.0265510000
21
67.7416670000
0
LINE
5
90C
100
AcDbEntity
8
BEM1
100
AcDbLine
62
4
6
CONTINUOUS
10
130.0265510000
20
67.7416670000
11
126.5265510000
21
67.1583330000
0
LINE
5
90D
100
AcDbEntity
8
BEM1
100
AcDbLine
62
4
6
CONTINUOUS
10
126.5265510000
20
67.1583330000
11
130.0265510000
21
66.5750000000
0
SOLID
5
90E
100
AcDbEntity
8
BEM1
100
AcDbTrace
62
4
6
CONTINUOUS
10
126.5265510000
20
67.1583330000
11
130.0265510000
21
66.5750000000
12
130.0265510000
22
67.7416670000
13
130.0265510000
23
67.7416670000
0
LINE
5
90F
100
AcDbEntity
8
BEM1
100
AcDbLine
62
4
6
CONTINUOUS
10
116.7300610000
20
88.5866680000
11
116.7300610000
21
83.4294370000
0
LINE
5
910
100
AcDbEntity
8
BEM1
100
AcDbLine
62
4
6
CONTINUOUS
10
124.3300610000
20
88.5866680000
11
124.3300610000
21
83.3859630000
0
LINE
5
911
100
AcDbEntity
8
BEM1
100
AcDbLine
62
4
6
CONTINUOUS
10
124.3300610000
20
77.3114180000
11
107.7345160000
21
77.3114180000
0
LINE
5
912
100
AcDbEntity
8
BEM1
100
AcDbLine
62
4
6
CONTINUOUS
10
127.8300610000
20
77.3114180000
11
132.9041850000
21
77.3114180000
0
LINE
5
913
100
AcDbEntity
8
BEM1
100
AcDbLine
62
4
6
CONTINUOUS
10
113.2300610000
20
76.7280850000
11
116.7300610000
21
77.3114180000
0
LINE
5
914
100
AcDbEntity
8
BEM1
100
AcDbLine
62
4
6
CONTINUOUS
10
116.7300610000
20
77.3114180000
11
113.2300610000
21
77.8947510000
0
LINE
5
915
100
AcDbEntity
8
BEM1
100
AcDbLine
62
4
6
CONTINUOUS
10
113.2300610000
20
77.8947510000
11
113.2300610000
21
76.7280850000
0
LINE
5
916
100
AcDbEntity
8
BEM1
100
AcDbLine
62
4
6
CONTINUOUS
10
113.2300610000
20
77.8947510000
11
113.2300610000
21
76.7280850000
0
LINE
5
917
100
AcDbEntity
8
BEM1
100
AcDbLine
62
4
6
CONTINUOUS
10
113.2300610000
20
76.7280850000
11
116.7300610000
21
77.3114180000
0
LINE
5
918
100
AcDbEntity
8
BEM1
100
AcDbLine
62
4
6
CONTINUOUS
10
116.7300610000
20
77.3114180000
11
113.2300610000
21
77.8947510000
0
SOLID
5
919
100
AcDbEntity
8
BEM1
100
AcDbTrace
62
4
6
CONTINUOUS
10
116.7300610000
20
77.3114180000
11
113.2300610000
21
77.8947510000
12
113.2300610000
22
76.7280850000
13
113.2300610000
23
76.7280850000
0
LINE
5
91A
100
AcDbEntity
8
BEM1
100
AcDbLine
62
4
6
CONTINUOUS
10
127.8300610000
20
76.7280850000
11
124.3300610000
21
77.3114180000
0
LINE
5
91B
100
AcDbEntity
8
BEM1
100
AcDbLine
62
4
6
CONTINUOUS
10
124.3300610000
20
77.3114180000
11
127.8300610000
21
77.8947510000
0
LINE
5
91C
100
AcDbEntity
8
BEM1
100
AcDbLine
62
4
6
CONTINUOUS
10
127.8300610000
20
77.8947510000
11
127.8300610000
21
76.7280850000
0
LINE
5
91D
100
AcDbEntity
8
BEM1
100
AcDbLine
62
4
6
CONTINUOUS
10
127.8300610000
20
76.7280850000
11
127.8300610000
21
77.8947510000
0
LINE
5
91E
100
AcDbEntity
8
BEM1
100
AcDbLine
62
4
6
CONTINUOUS
10
127.8300610000
20
77.8947510000
11
124.3300610000
21
77.3114180000
0
LINE
5
91F
100
AcDbEntity
8
BEM1
100
AcDbLine
62
4
6
CONTINUOUS
10
124.3300610000
20
77.3114180000
11
127.8300610000
21
76.7280850000
0
SOLID
5
920
100
AcDbEntity
8
BEM1
100
AcDbTrace
62
4
6
CONTINUOUS
10
124.3300610000
20
77.3114180000
11
127.8300610000
21
76.7280850000
12
127.8300610000
22
77.8947510000
13
127.8300610000
23
77.8947510000
0
LINE
5
921
100
AcDbEntity
8
BEM1
100
AcDbLine
62
4
6
CONTINUOUS
10
114.5265510000
20
76.0178910000
11
114.5265510000
21
73.2451560000
0
LINE
5
922
100
AcDbEntity
8
BEM1
100
AcDbLine
62
4
6
CONTINUOUS
10
126.5265510000
20
75.8454560000
11
126.5265510000
21
73.3865520000
0
LINE
5
923
100
AcDbEntity
8
025
100
AcDbLine
62
4
6
CONTINUOUS
10
0.0000000000
20
297.0000000000
11
1.0000000000
21
297.0000000000
0
ARC
5
924
100
AcDbEntity
8
BEM1
100
AcDbCircle
62
4
6
CONTINUOUS
10
87.3845675000
20
147.2642470000
40
0.1833335000
100
AcDbArc
50
0.0000000000
51
180.0000000000
0
ARC
5
925
100
AcDbEntity
8
BEM1
100
AcDbCircle
62
4
6
CONTINUOUS
10
87.3845675000
20
147.2642470000
40
0.1833335000
100
AcDbArc
50
180.0000000000
51
360.0000000000
0
LINE
5
926
100
AcDbEntity
8
05
100
AcDbLine
62
4
6
CONTINUOUS
10
331.2503690000
20
227.1703150000
11
330.5721670000
21
229.0336590000
0
ARC
5
927
100
AcDbEntity
8
05
100
AcDbCircle
62
4
6
CONTINUOUS
10
331.1711837235
20
229.2516828550
40
0.6374601450
100
AcDbArc
50
89.9999751493
51
199.9999660339
0
LINE
5
928
100
AcDbEntity
8
05
100
AcDbLine
62
4
6
CONTINUOUS
10
331.1711840000
20
229.8891430000
11
335.0615720000
21
229.8891430000
0
LINE
5
929
100
AcDbEntity
8
05
100
AcDbLine
62
4
6
CONTINUOUS
10
335.0615720000
20
229.8891430000
11
336.3465860000
21
226.3585960000
0
LINE
5
92A
100
AcDbEntity
8
05
100
AcDbLine
62
4
6
CONTINUOUS
10
336.3465860000
20
226.3585960000
11
337.4945970000
21
226.3585960000
0
LINE
5
92B
100
AcDbEntity
8
05
100
AcDbLine
62
4
6
CONTINUOUS
10
337.4945970000
20
226.3585960000
11
336.2095840000
21
229.8891430000
0
LINE
5
92C
100
AcDbEntity
8
05
100
AcDbLine
62
4
6
CONTINUOUS
10
336.2095840000
20
229.8891430000
11
337.7800170000
21
229.8891430000
0
LINE
5
92D
100
AcDbEntity
8
05
100
AcDbLine
62
4
6
CONTINUOUS
10
337.7800170000
20
229.8891430000
11
339.2890830000
21
225.7430190000
0
ARC
5
92E
100
AcDbEntity
8
05
100
AcDbCircle
62
4
6
CONTINUOUS
10
338.6900667765
20
225.5249947949
40
0.6374597949
100
AcDbArc
50
270.0000200900
51
20.0000109746
0
LINE
5
92F
100
AcDbEntity
8
05
100
AcDbLine
62
4
6
CONTINUOUS
10
338.6900670000
20
224.8875350000
11
335.3165380000
21
224.8875350000
0
LINE
5
930
100
AcDbEntity
8
05
100
AcDbLine
62
4
6
CONTINUOUS
10
335.3165380000
20
224.8875350000
11
334.6383360000
21
226.7508790000
0
LINE
5
931
100
AcDbEntity
8
05
100
AcDbLine
62
4
6
CONTINUOUS
10
334.6383360000
20
226.7508790000
11
334.1459840000
21
226.7508790000
0
LINE
5
932
100
AcDbEntity
8
05
100
AcDbLine
62
4
6
CONTINUOUS
10
334.1459840000
20
226.7508790000
11
333.6467030000
21
224.8875350000
0
LINE
5
933
100
AcDbEntity
8
05
100
AcDbLine
62
4
6
CONTINUOUS
10
333.6467030000
20
224.8875350000
11
332.0812330000
21
224.8875350000
0
LINE
5
934
100
AcDbEntity
8
05
100
AcDbLine
62
4
6
CONTINUOUS
10
332.0812330000
20
224.8875350000
11
332.5805140000
21
226.7508790000
0
LINE
5
935
100
AcDbEntity
8
05
100
AcDbLine
62
4
6
CONTINUOUS
10
332.5805140000
20
226.7508790000
11
331.8493850000
21
226.7508790000
0
ARC
5
936
100
AcDbEntity
8
05
100
AcDbCircle
62
4
6
CONTINUOUS
10
331.8493850989
20
227.3883384036
40
0.6374594036
100
AcDbArc
50
199.9999471047
51
269.9999911148
0
LINE
5
937
100
AcDbEntity
8
05
100
AcDbLine
62
4
6
CONTINUOUS
10
334.2099980000
20
227.9277280000
11
332.5401630000
21
227.9277280000
0
LINE
5
938
100
AcDbEntity
8
05
100
AcDbLine
62
4
6
CONTINUOUS
10
332.5401630000
20
227.9277280000
11
332.2546050000
21
228.7122940000
0
LINE
5
939
100
AcDbEntity
8
05
100
AcDbLine
62
4
6
CONTINUOUS
10
332.2546050000
20
228.7122940000
11
333.9244400000
21
228.7122940000
0
LINE
5
93A
100
AcDbEntity
8
05
100
AcDbLine
62
4
6
CONTINUOUS
10
333.9244400000
20
228.7122940000
11
334.2099980000
21
227.9277280000
0
ARC
5
93B
100
AcDbEntity
8
05
100
AcDbCircle
62
4
6
CONTINUOUS
10
345.9259970000
20
227.8910890000
40
2.4908310000
100
AcDbArc
50
197.3971790000
51
259.0052580000
0
LINE
5
93C
100
AcDbEntity
8
05
100
AcDbLine
62
4
6
CONTINUOUS
10
344.3965040000
20
228.7287230000
11
345.5543500000
21
227.7440810000
0
ARC
5
93D
100
AcDbEntity
8
05
100
AcDbCircle
62
4
6
CONTINUOUS
10
345.9259970000
20
227.8910890000
40
1.7798840000
100
AcDbArc
50
196.3975970000
51
230.1316580000
0
ARC
5
93E
100
AcDbEntity
8
05
100
AcDbCircle
62
4
6
CONTINUOUS
10
345.9259970000
20
227.8910890000
40
1.7798840000
100
AcDbArc
50
129.8683420000
51
149.8535740000
0
LINE
5
93F
100
AcDbEntity
8
05
100
AcDbLine
62
4
6
CONTINUOUS
10
343.5697980000
20
228.4971760000
11
344.8423960000
21
227.4149470000
0
ARC
5
940
100
AcDbEntity
8
05
100
AcDbCircle
62
4
6
CONTINUOUS
10
345.9259970000
20
227.8910890000
40
2.4908310000
100
AcDbArc
50
100.9947420000
51
163.4191810000
0
ARC
5
941
100
AcDbEntity
8
05
100
AcDbCircle
62
4
6
CONTINUOUS
10
345.9259970000
20
227.8910890000
40
4.0047380000
100
AcDbArc
50
40.6437860000
51
319.3562140000
0
ARC
5
942
100
AcDbEntity
8
05
100
AcDbCircle
62
4
6
CONTINUOUS
10
345.9259970000
20
227.8910890000
40
3.0035540000
100
AcDbArc
50
40.8364640000
51
319.1635360000
0
ARC
5
943
100
AcDbEntity
8
05
100
AcDbCircle
62
4
6
CONTINUOUS
10
343.6445340000
20
227.1762450000
40
0.1000000000
100
AcDbArc
50
105.0000000000
51
197.3971790000
0
ARC
5
944
100
AcDbEntity
8
05
100
AcDbCircle
62
4
6
CONTINUOUS
10
343.6345810000
20
228.5733550000
40
0.1000000000
100
AcDbArc
50
163.4191810000
51
229.6218710000
0
ARC
5
945
100
AcDbEntity
8
05
100
AcDbCircle
62
4
6
CONTINUOUS
10
344.1758210000
20
227.3760640000
40
0.0444970000
100
AcDbArc
50
16.3975970000
51
105.0000000001
0
ARC
5
946
100
AcDbEntity
8
05
100
AcDbCircle
62
4
6
CONTINUOUS
10
344.4253310000
20
228.7626200000
40
0.0444970000
100
AcDbArc
50
149.8535740000
51
229.6218709999
0
LINE
5
947
100
AcDbEntity
8
05
100
AcDbLine
62
4
6
CONTINUOUS
10
344.1643050000
20
227.4190450000
11
343.6186520000
21
227.2728380000
0
LINE
5
948
100
AcDbEntity
8
05
100
AcDbLine
62
4
6
CONTINUOUS
10
348.2606900000
20
225.9320490000
11
348.9595260000
21
225.3456560000
0
ARC
5
949
100
AcDbEntity
8
05
100
AcDbCircle
62
4
6
CONTINUOUS
10
345.9259970000
20
227.8910890000
40
2.4908310000
100
AcDbArc
50
322.3971790000
51
79.0052580000
0
LINE
5
94A
100
AcDbEntity
8
05
100
AcDbLine
62
4
6
CONTINUOUS
10
348.2606900000
20
229.8501290000
11
348.9595260000
21
230.4365220000
0
ARC
5
94B
100
AcDbEntity
8
05
100
AcDbCircle
62
4
6
CONTINUOUS
10
346.3819740000
20
230.2380360000
40
0.1000000000
100
AcDbArc
50
79.0052580000
51
180.0000000000
0
ARC
5
94C
100
AcDbEntity
8
05
100
AcDbCircle
62
4
6
CONTINUOUS
10
345.4700200000
20
230.2380360000
40
0.1000000000
100
AcDbArc
50
0.0000000000
51
100.9947420000
0
ARC
5
94D
100
AcDbEntity
8
05
100
AcDbCircle
62
4
6
CONTINUOUS
10
345.4700200000
20
225.5441420000
40
0.1000000000
100
AcDbArc
50
259.0052580000
51
360.0000000000
0
ARC
5
94E
100
AcDbEntity
8
05
100
AcDbCircle
62
4
6
CONTINUOUS
10
346.3819740000
20
225.5441420000
40
0.1000000000
100
AcDbArc
50
180.0000000000
51
280.9947420000
0
ARC
5
94F
100
AcDbEntity
8
05
100
AcDbCircle
62
4
6
CONTINUOUS
10
346.8939270000
20
225.7049540000
40
0.1000000000
100
AcDbArc
50
293.8817840000
51
360.0000000000
0
ARC
5
950
100
AcDbEntity
8
05
100
AcDbCircle
62
4
6
CONTINUOUS
10
347.8201560000
20
226.4322420000
40
0.1000000000
100
AcDbArc
50
230.0000000000
51
322.3971790000
0
ARC
5
951
100
AcDbEntity
8
05
100
AcDbCircle
62
4
6
CONTINUOUS
10
345.9259970000
20
227.8910890000
40
2.4908310000
100
AcDbArc
50
280.9947420000
51
293.8817840000
0
ARC
5
952
100
AcDbEntity
8
05
100
AcDbCircle
62
4
6
CONTINUOUS
10
348.2320880000
20
225.8979620000
40
0.0444970000
100
AcDbArc
50
50.0000000000
51
139.1635359999
0
ARC
5
953
100
AcDbEntity
8
05
100
AcDbCircle
62
4
6
CONTINUOUS
10
348.2320880000
20
229.8842160000
40
0.0444970000
100
AcDbArc
50
220.8364640000
51
310.0000000000
0
ARC
5
954
100
AcDbEntity
8
05
100
AcDbCircle
62
4
6
CONTINUOUS
10
345.9259970000
20
227.8910890000
40
1.7798840000
100
AcDbArc
50
13.3423640000
51
50.1316580000
0
LINE
5
955
100
AcDbEntity
8
05
100
AcDbLine
62
4
6
CONTINUOUS
10
346.9939270000
20
228.2915630000
11
346.9939270000
21
229.2230320000
0
LINE
5
956
100
AcDbEntity
8
05
100
AcDbLine
62
4
6
CONTINUOUS
10
346.9939270000
20
225.7049540000
11
346.9939270000
21
227.4906150000
0
LINE
5
957
100
AcDbEntity
8
05
100
AcDbLine
62
4
6
CONTINUOUS
10
347.3231380000
20
226.7187490000
11
347.7558770000
21
226.3556370000
0
ARC
5
958
100
AcDbEntity
8
05
100
AcDbCircle
62
4
6
CONTINUOUS
10
345.9259970000
20
227.8910890000
40
1.7798840000
100
AcDbArc
50
321.3975970000
51
346.6576360000
0
ARC
5
959
100
AcDbEntity
8
05
100
AcDbCircle
62
4
6
CONTINUOUS
10
347.6145430000
20
228.2915630000
40
0.0444970000
100
AcDbArc
50
270.0000000000
51
13.3423640000
0
ARC
5
95A
100
AcDbEntity
8
05
100
AcDbCircle
62
4
6
CONTINUOUS
10
347.6145430000
20
227.4906150000
40
0.0444970000
100
AcDbArc
50
346.6576360000
51
90.0000000000
0
LINE
5
95B
100
AcDbEntity
8
05
100
AcDbLine
62
4
6
CONTINUOUS
10
347.0384240000
20
227.5351120000
11
347.6145430000
21
227.5351120000
0
LINE
5
95C
100
AcDbEntity
8
05
100
AcDbLine
62
4
6
CONTINUOUS
10
347.0384240000
20
228.2470660000
11
347.6145430000
21
228.2470660000
0
ARC
5
95D
100
AcDbEntity
8
05
100
AcDbCircle
62
4
6
CONTINUOUS
10
347.0384240000
20
228.2915630000
40
0.0444970000
100
AcDbArc
50
180.0000000000
51
270.0000000000
0
ARC
5
95E
100
AcDbEntity
8
05
100
AcDbCircle
62
4
6
CONTINUOUS
10
347.3517400000
20
226.7528350000
40
0.0444970000
100
AcDbArc
50
141.3975970000
51
230.0000000002
0
ARC
5
95F
100
AcDbEntity
8
05
100
AcDbCircle
62
4
6
CONTINUOUS
10
347.0384240000
20
227.4906150000
40
0.0444970000
100
AcDbArc
50
90.0000000000
51
180.0000000000
0
ARC
5
960
100
AcDbEntity
8
05
100
AcDbCircle
62
4
6
CONTINUOUS
10
347.0384240000
20
229.2230320000
40
0.0444970000
100
AcDbArc
50
50.1316580000
51
180.0000000000
0
ARC
5
961
100
AcDbEntity
8
05
100
AcDbCircle
62
4
6
CONTINUOUS
10
345.5255230000
20
227.7101840000
40
0.0444970000
100
AcDbArc
50
0.0000000000
51
49.6218710000
0
LINE
5
962
100
AcDbEntity
8
05
100
AcDbLine
62
4
6
CONTINUOUS
10
344.8580670000
20
226.5591460000
11
344.8580670000
21
227.3810500000
0
ARC
5
963
100
AcDbEntity
8
05
100
AcDbCircle
62
4
6
CONTINUOUS
10
344.8135700000
20
226.5591460000
40
0.0444970000
100
AcDbArc
50
230.1316580000
51
360.0000000000
0
ARC
5
964
100
AcDbEntity
8
05
100
AcDbCircle
62
4
6
CONTINUOUS
10
344.8135700000
20
227.3810500000
40
0.0444970000
100
AcDbArc
50
0.0000000000
51
49.6218710000
0
ARC
5
965
100
AcDbEntity
8
05
100
AcDbCircle
62
4
6
CONTINUOUS
10
345.5255230000
20
228.9367710000
40
0.0444970000
100
AcDbArc
50
270.0000000000
51
360.0000000000
0
LINE
5
966
100
AcDbEntity
8
05
100
AcDbLine
62
4
6
CONTINUOUS
10
344.8580670000
20
228.9367710000
11
344.8580670000
21
229.2230320000
0
ARC
5
967
100
AcDbEntity
8
05
100
AcDbCircle
62
4
6
CONTINUOUS
10
344.9025640000
20
228.9367710000
40
0.0444970000
100
AcDbArc
50
180.0000000000
51
270.0000000000
0
ARC
5
968
100
AcDbEntity
8
05
100
AcDbCircle
62
4
6
CONTINUOUS
10
344.8135700000
20
229.2230320000
40
0.0444970000
100
AcDbArc
50
0.0000000000
51
129.8683420000
0
LINE
5
969
100
AcDbEntity
8
05
100
AcDbLine
62
4
6
CONTINUOUS
10
344.9025640000
20
228.8922740000
11
345.5255230000
21
228.8922740000
0
LINE
5
96A
100
AcDbEntity
8
05
100
AcDbLine
62
4
6
CONTINUOUS
10
345.5700200000
20
225.5441420000
11
345.5700200000
21
227.7101840000
0
LINE
5
96B
100
AcDbEntity
8
05
100
AcDbLine
62
4
6
CONTINUOUS
10
346.2819740000
20
225.5441420000
11
346.2819740000
21
230.2380360000
0
LINE
5
96C
100
AcDbEntity
8
05
100
AcDbLine
62
4
6
CONTINUOUS
10
345.5700200000
20
228.9367710000
11
345.5700200000
21
230.2380360000
0
ARC
5
96D
100
AcDbEntity
8
05
100
AcDbCircle
62
4
6
CONTINUOUS
10
348.9309240000
20
230.4706090000
40
0.0444970000
100
AcDbArc
50
310.0000000000
51
40.6437859998
0
ARC
5
96E
100
AcDbEntity
8
05
100
AcDbCircle
62
4
6
CONTINUOUS
10
348.9309240000
20
225.3115690000
40
0.0444970000
100
AcDbArc
50
319.3562140000
51
50.0000000000
0
CIRCLE
5
96F
100
AcDbEntity
8
05
100
AcDbCircle
62
4
6
CONTINUOUS
10
350.3295440000
20
227.8910890000
40
1.4651860000
0
CIRCLE
5
970
100
AcDbEntity
8
05
100
AcDbCircle
62
4
6
CONTINUOUS
10
350.3295440000
20
227.8910890000
40
1.1987890000
0
LINE
5
971
100
AcDbEntity
8
BEM1
100
AcDbLine
62
4
6
CONTINUOUS
10
185.5121350000
20
176.9933350000
11
185.5121350000
21
164.7444270000
0
LINE
5
972
100
AcDbEntity
8
BEM1
100
AcDbLine
62
4
6
CONTINUOUS
10
199.1121350000
20
162.2433150000
11
199.1121350000
21
137.7440450000
0
LINE
5
973
100
AcDbEntity
8
BEM1
100
AcDbLine
62
4
6
CONTINUOUS
10
204.2635720000
20
118.9191210000
11
179.6035170000
21
118.9191210000
0
LINE
5
974
100
AcDbEntity
8
BEM1
100
AcDbLine
62
4
6
CONTINUOUS
10
195.6121350000
20
118.3357880000
11
199.1121350000
21
118.9191210000
0
LINE
5
975
100
AcDbEntity
8
BEM1
100
AcDbLine
62
4
6
CONTINUOUS
10
199.1121350000
20
118.9191210000
11
195.6121350000
21
119.5024550000
0
LINE
5
976
100
AcDbEntity
8
BEM1
100
AcDbLine
62
4
6
CONTINUOUS
10
195.6121350000
20
119.5024550000
11
195.6121350000
21
118.3357880000
0
LINE
5
977
100
AcDbEntity
8
BEM1
100
AcDbLine
62
4
6
CONTINUOUS
10
195.6121350000
20
119.5024550000
11
195.6121350000
21
118.3357880000
0
LINE
5
978
100
AcDbEntity
8
BEM1
100
AcDbLine
62
4
6
CONTINUOUS
10
195.6121350000
20
118.3357880000
11
199.1121350000
21
118.9191210000
0
LINE
5
979
100
AcDbEntity
8
BEM1
100
AcDbLine
62
4
6
CONTINUOUS
10
199.1121350000
20
118.9191210000
11
195.6121350000
21
119.5024550000
0
SOLID
5
97A
100
AcDbEntity
8
BEM1
100
AcDbTrace
62
4
6
CONTINUOUS
10
199.1121350000
20
118.9191210000
11
195.6121350000
21
119.5024550000
12
195.6121350000
22
118.3357880000
13
195.6121350000
23
118.3357880000
0
LINE
5
97B
100
AcDbEntity
8
BEM1
100
AcDbLine
62
4
6
CONTINUOUS
10
189.0121350000
20
118.3357880000
11
185.5121350000
21
118.9191210000
0
LINE
5
97C
100
AcDbEntity
8
BEM1
100
AcDbLine
62
4
6
CONTINUOUS
10
185.5121350000
20
118.9191210000
11
189.0121350000
21
119.5024550000
0
LINE
5
97D
100
AcDbEntity
8
BEM1
100
AcDbLine
62
4
6
CONTINUOUS
10
189.0121350000
20
119.5024550000
11
189.0121350000
21
118.3357880000
0
LINE
5
97E
100
AcDbEntity
8
BEM1
100
AcDbLine
62
4
6
CONTINUOUS
10
189.0121350000
20
118.3357880000
11
189.0121350000
21
119.5024550000
0
LINE
5
97F
100
AcDbEntity
8
BEM1
100
AcDbLine
62
4
6
CONTINUOUS
10
189.0121350000
20
119.5024550000
11
185.5121350000
21
118.9191210000
0
LINE
5
980
100
AcDbEntity
8
BEM1
100
AcDbLine
62
4
6
CONTINUOUS
10
185.5121350000
20
118.9191210000
11
189.0121350000
21
118.3357880000
0
SOLID
5
981
100
AcDbEntity
8
BEM1
100
AcDbTrace
62
4
6
CONTINUOUS
10
185.5121350000
20
118.9191210000
11
189.0121350000
21
118.3357880000
12
189.0121350000
22
119.5024550000
13
189.0121350000
23
119.5024550000
0
LINE
5
982
100
AcDbEntity
8
BEM1
100
AcDbLine
62
4
6
CONTINUOUS
10
195.1121350000
20
117.3878120000
11
195.1121350000
21
109.4044620000
0
LINE
5
983
100
AcDbEntity
8
BEM1
100
AcDbLine
62
4
6
CONTINUOUS
10
195.1121350000
20
238.9954790000
11
195.1121350000
21
259.1636180000
0
LINE
5
984
100
AcDbEntity
8
BEM1
100
AcDbLine
62
4
6
CONTINUOUS
10
199.1121350000
20
133.9471160000
11
199.1121350000
21
125.3372810000
0
LINE
5
985
100
AcDbEntity
8
BEM1
100
AcDbLine
62
4
6
CONTINUOUS
10
195.1121350000
20
133.5252350000
11
195.1121350000
21
125.2455110000
0
LINE
5
986
100
AcDbEntity
8
BEM1
100
AcDbLine
62
4
6
CONTINUOUS
10
185.5121350000
20
133.9471160000
11
185.5121350000
21
125.2327000000
0
LINE
5
987
100
AcDbEntity
8
BEM1
100
AcDbLine
62
4
6
CONTINUOUS
10
185.5121350000
20
161.3693800000
11
185.5121350000
21
137.7440450000
0
LINE
5
988
100
AcDbEntity
8
BEM1
100
AcDbLine
62
4
6
CONTINUOUS
10
195.1121350000
20
161.1584390000
11
195.1121350000
21
137.3221640000
0
LINE
5
989
100
AcDbEntity
8
BEM1
100
AcDbLine
62
4
6
CONTINUOUS
10
199.1121350000
20
119.8899880000
11
199.1121350000
21
118.1191210000
0
LINE
5
98A
100
AcDbEntity
8
BEM1
100
AcDbLine
62
4
6
CONTINUOUS
10
185.5121350000
20
119.8364590000
11
185.5121350000
21
118.1191210000
0
LINE
5
98B
100
AcDbEntity
8
BEM1
100
AcDbLine
62
4
6
CONTINUOUS
10
116.7300610000
20
78.1908140000
11
116.7300610000
21
76.5114180000
0
LINE
5
98C
100
AcDbEntity
8
BEM1
100
AcDbLine
62
4
6
CONTINUOUS
10
124.3300610000
20
78.1908140000
11
124.3300610000
21
76.5114180000
0
LINE
5
98D
100
AcDbEntity
8
BEM1
100
AcDbLine
62
4
6
CONTINUOUS
10
114.5265510000
20
68.0983290000
11
114.5265510000
21
66.3583330000
0
LINE
5
98E
100
AcDbEntity
8
BEM1
100
AcDbLine
62
4
6
CONTINUOUS
10
126.5265510000
20
68.1266090000
11
126.5265510000
21
66.3583330000
0
LINE
5
98F
100
AcDbEntity
8
BEM1
100
AcDbLine
62
4
6
CONTINUOUS
10
145.5088540000
20
98.5809260000
11
147.1179780000
21
98.5809260000
0
LINE
5
990
100
AcDbEntity
8
BEM1
100
AcDbLine
62
4
6
CONTINUOUS
10
145.3338110000
20
89.5809260000
11
147.1179780000
21
89.5809260000
0
LINE
5
991
100
AcDbEntity
8
BEM1
100
AcDbLine
62
4
6
CONTINUOUS
10
195.1121350000
20
211.6849750000
11
195.1121350000
21
235.1985500000
0
LINE
5
992
100
AcDbEntity
8
BEM1
100
AcDbLine
62
4
6
CONTINUOUS
10
246.5121350000
20
111.3553530000
11
246.5121350000
21
109.4574360000
0
TEXT
5
993
100
AcDbEntity
8
BEM1
100
AcDbText
62
3
6
CONTINUOUS
10
94.9298050000
20
70.9655240000
40
3.5000000000
1
0.20 [0.008"]
50
90.0000000000
51
15.0000000000
72
5
11
94.9298050000
21
102.2155240000
100
AcDbText
0
TEXT
5
994
100
AcDbEntity
8
BEM1
100
AcDbText
62
3
6
CONTINUOUS
10
217.9980960000
20
66.4567570000
40
3.5000000000
1
Housing material PA6 / 30% GR
51
15.0000000000
72
5
11
294.0814293333
21
66.4567570000
100
AcDbText
0
TEXT
5
995
100
AcDbEntity
8
05
100
AcDbText
62
2
6
CONTINUOUS
10
340.7653370000
20
168.3035780000
40
8.0000000000
1
+
72
5
11
346.4796227143
21
168.3035780000
100
AcDbText
0
TEXT
5
996
100
AcDbEntity
8
05
100
AcDbText
62
2
6
CONTINUOUS
10
360.6581580000
20
181.8124730000
40
7.0000000000
1
1-
50
90.0000000000
72
5
11
360.6581580000
21
190.8124730000
100
AcDbText
0
TEXT
5
997
100
AcDbEntity
8
05
100
AcDbText
62
2
6
CONTINUOUS
10
328.0940310000
20
181.8850230000
40
7.0000000000
1
2-
50
90.0000000000
72
5
11
328.0940310000
21
192.3850230000
100
AcDbText
0
TEXT
5
998
100
AcDbEntity
8
05
100
AcDbText
62
2
6
CONTINUOUS
10
334.1827530000
20
167.9705330000
40
7.0000000000
1
2
72
5
11
339.6827530000
21
167.9705330000
100
AcDbText
0
TEXT
5
999
100
AcDbEntity
8
05
100
AcDbText
62
2
6
CONTINUOUS
10
335.2483800000
20
197.6564190000
40
7.0000000000
1
1+
72
5
11
344.2483800000
21
197.6564190000
100
AcDbText
0
TEXT
5
99A
100
AcDbEntity
8
BEM1
100
AcDbText
62
3
6
CONTINUOUS
10
163.4327860000
20
172.1351020000
40
3.5000000000
1
%%c50.80 [2.000"]
50
90.0000000000
51
15.0000000000
72
5
11
163.4327860000
21
210.5517686667
100
AcDbText
0
TEXT
5
99B
100
AcDbEntity
8
BEM1
100
AcDbText
62
3
6
CONTINUOUS
10
210.4433470000
20
260.1136180000
40
3.5000000000
1
28.20 [1.110"]
51
15.0000000000
72
5
11
242.1933470000
21
260.1136180000
100
AcDbText
0
TEXT
5
99C
100
AcDbEntity
8
BEM1
100
AcDbText
62
3
6
CONTINUOUS
10
202.1378820000
20
111.9544620000
40
3.5000000000
1
(21.20 [0.835"])
51
15.0000000000
72
5
11
237.8878820000
21
111.9544620000
100
AcDbText
0
TEXT
5
99D
100
AcDbEntity
8
BEM1
100
AcDbText
62
3
6
CONTINUOUS
10
117.6857920000
20
117.5764150000
40
3.5000000000
1
90%%d
51
15.0000000000
72
5
11
125.5191253333
21
117.5764150000
100
AcDbText
0
TEXT
5
99E
100
AcDbEntity
8
BEM1
100
AcDbText
62
3
6
CONTINUOUS
10
78.4791510000
20
250.6984460000
40
3.5000000000
1
29.20 [1.150"]
51
15.0000000000
72
5
11
110.7291510000
21
250.6984460000
100
AcDbText
0
TEXT
5
99F
100
AcDbEntity
8
BEM1
100
AcDbText
62
3
6
CONTINUOUS
10
28.2254120000
20
172.9110260000
40
3.5000000000
1
29.20 [1.150"]
50
90.0000000000
51
15.0000000000
72
5
11
28.2254120000
21
205.1610260000
100
AcDbText
0
TEXT
5
9A0
100
AcDbEntity
8
BEM1
100
AcDbText
62
3
6
CONTINUOUS
10
173.3255910000
20
170.6494360000
40
3.5000000000
1
%%c23.60 [0.929"]
50
90.0000000000
51
15.0000000000
72
5
11
173.3255910000
21
209.0661026667
100
AcDbText
0
TEXT
5
9A1
100
AcDbEntity
8
BEM1
100
AcDbText
62
3
6
CONTINUOUS
10
238.6855780000
20
111.9544620000
40
3.5000000000
1
4.50 [0.177"]
51
15.0000000000
72
5
11
268.9355780000
21
111.9544620000
100
AcDbText
0
TEXT
5
9A2
100
AcDbEntity
8
BEM1
100
AcDbText
62
3
6
CONTINUOUS
10
219.1460760000
20
250.6984460000
40
3.5000000000
1
2.50 [0.098"]
51
15.0000000000
72
5
11
250.1460760000
21
250.6984460000
100
AcDbText
0
TEXT
5
9A3
100
AcDbEntity
8
BEM1
100
AcDbText
62
3
6
CONTINUOUS
10
262.9085860000
20
171.4540270000
40
3.5000000000
1
%%c23.60 [0.929"]
50
90.0000000000
51
15.0000000000
72
5
11
262.9085860000
21
209.8706936667
100
AcDbText
0
TEXT
5
9A4
100
AcDbEntity
8
05
100
AcDbText
62
4
6
CONTINUOUS
10
360.0000000000
20
15.7411809549
40
2.0000000000
1
Zeichn. Nr.
51
15.0000000000
72
5
11
374.9047619048
21
15.7411809549
100
AcDbText
0
TEXT
5
9A5
100
AcDbEntity
8
05
100
AcDbText
62
4
6
CONTINUOUS
10
360.0000000000
20
32.7411809549
40
2.0000000000
1
Ersetzt durch:         Blatt
51
15.0000000000
72
5
11
398.8571428571
21
32.7411809549
100
AcDbText
0
TEXT
5
9A6
100
AcDbEntity
8
05
100
AcDbText
62
4
6
CONTINUOUS
10
360.0000000000
20
47.7411809549
40
2.0000000000
1
Gezeichnet
51
15.0000000000
72
5
11
373.6190476190
21
47.7411809549
100
AcDbText
0
TEXT
5
9A7
100
AcDbEntity
8
05
100
AcDbText
62
4
6
CONTINUOUS
10
360.0000000000
20
36.7411809549
40
2.0000000000
1
Gesehen
51
15.0000000000
72
5
11
370.1428571429
21
36.7411809549
100
AcDbText
0
TEXT
5
9A8
100
AcDbEntity
8
05
100
AcDbText
62
4
6
CONTINUOUS
10
379.0000000000
20
51.7411809549
40
2.0000000000
1
Datum     Name
51
15.0000000000
72
5
11
400.8095238095
21
51.7411809549
100
AcDbText
0
TEXT
5
9A9
100
AcDbEntity
8
05
100
AcDbText
62
4
6
CONTINUOUS
10
319.0000000000
20
51.7411809549
40
2.0000000000
1
Werkstoff:      Massstab:
51
15.0000000000
72
5
11
354.4285714286
21
51.7411809549
100
AcDbText
0
TEXT
5
9AA
100
AcDbEntity
8
05
100
AcDbText
62
4
6
CONTINUOUS
10
278.0000000000
20
32.7411809549
40
2.0000000000
1
Benennung:
51
15.0000000000
72
5
11
291.7142857143
21
32.7411809549
100
AcDbText
0
TEXT
5
9AB
100
AcDbEntity
8
05
100
AcDbText
62
4
6
CONTINUOUS
10
278.0000000000
20
48.7411809549
40
2.0000000000
1
*)Lieferant darf ohne 
51
15.0000000000
72
5
11
307.5238095238
21
48.7411809549
100
AcDbText
0
TEXT
5
9AC
100
AcDbEntity
8
05
100
AcDbText
62
4
6
CONTINUOUS
10
278.0000000000
20
46.2411809549
40
2.0000000000
1
 Ruecksprache nicht 
51
15.0000000000
72
5
11
305.9047619048
21
46.2411809549
100
AcDbText
0
TEXT
5
9AD
100
AcDbEntity
8
05
100
AcDbText
62
4
6
CONTINUOUS
10
278.0000000000
20
43.7411809549
40
2.0000000000
1
 geaendert werden
51
15.0000000000
72
5
11
302.5714285714
21
43.7411809549
100
AcDbText
0
TEXT
5
9AE
100
AcDbEntity
8
05
100
AcDbText
62
4
6
CONTINUOUS
10
278.0000000000
20
39.7411809549
40
2.0000000000
1
Zeichnung urheberrechtlich
51
15.0000000000
72
5
11
313.0952380952
21
39.7411809549
100
AcDbText
0
TEXT
5
9AF
100
AcDbEntity
8
05
100
AcDbText
62
4
6
CONTINUOUS
10
278.0000000000
20
37.2411809549
40
2.0000000000
1
geschuetzt (DIN 34) (C)
51
15.0000000000
72
5
11
309.0476190476
21
37.2411809549
100
AcDbText
0
TEXT
5
9B0
100
AcDbEntity
8
05
100
AcDbText
62
4
6
CONTINUOUS
10
360.0000000000
20
41.7411809549
40
2.0000000000
1
Geprueft
51
15.0000000000
72
5
11
370.8571428571
21
41.7411809549
100
AcDbText
0
TEXT
5
9B1
100
AcDbEntity
8
05
100
AcDbText
62
4
6
CONTINUOUS
10
360.0000000000
20
24.7411809549
40
2.0000000000
1
Ersatz fuer:           von  Blatt
51
15.0000000000
72
5
11
406.7142857143
21
24.7411809549
100
AcDbText
0
TEXT
5
9B2
100
AcDbEntity
8
05
100
AcDbText
62
4
6
CONTINUOUS
10
213.0000000000
20
10.7411809549
40
2.0000000000
1
Ind.  Aenderung             Datum   
51
15.0000000000
72
5
11
267.2380952381
21
10.7411809549
100
AcDbText
0
TEXT
5
9B3
100
AcDbEntity
8
05
100
AcDbText
62
4
6
CONTINUOUS
10
267.2380952381
20
10.7411809549
40
2.0000000000
1
 Name
51
15.0000000000
72
5
11
275.0952380952
21
10.7411809549
100
AcDbText
0
TEXT
5
9B4
100
AcDbEntity
8
035
100
AcDbText
62
4
6
CONTINUOUS
10
332.4230740000
20
13.2646360000
40
2.4848480000
1
FL-9494 SCHAAN
51
15.0000000000
72
5
11
359.5197498095
21
13.2646360000
100
AcDbText
0
TEXT
5
9B5
100
AcDbEntity
8
05
100
AcDbText
62
4
6
CONTINUOUS
10
394.6845238095
20
47.0000000000
40
2.5000000000
1
Martinek
72
5
11
408.3154761905
21
47.0000000000
100
AcDbText
0
TEXT
5
9B6
100
AcDbEntity
8
05
100
AcDbText
62
4
6
CONTINUOUS
10
378.1785714286
20
47.0000000000
40
2.5000000000
1
26.06.89
51
15.0000000000
72
5
11
392.8214285715
21
47.0000000000
100
AcDbText
0
TEXT
5
9B7
100
AcDbEntity
8
05
100
AcDbText
62
2
6
CONTINUOUS
10
306.3928571429
20
22.5000000000
40
5.0000000000
1
NL4MPR
51
15.0000000000
72
5
11
329.6071428572
21
22.5000000000
100
AcDbText
0
TEXT
5
9B8
100
AcDbEntity
8
05
100
AcDbText
62
3
6
CONTINUOUS
10
311.2928763333
20
31.0821910000
40
3.5000000000
1
NL-Serie
51
15.0000000000
72
5
11
330.6262096666
21
31.0821910000
100
AcDbText
0
TEXT
5
9B9
100
AcDbEntity
8
05
100
AcDbText
62
3
6
CONTINUOUS
10
373.9497810000
20
11.9765410000
40
3.5000000000
1
3102 St05 07
51
15.0000000000
72
5
11
404.9497810000
21
11.9765410000
100
AcDbText
0
TEXT
5
9BA
100
AcDbEntity
8
05
100
AcDbText
62
2
6
CONTINUOUS
10
345.1482807143
20
44.6560560000
40
5.0000000000
1
2:1
51
15.0000000000
72
5
11
353.7197092857
21
44.6560560000
100
AcDbText
0
TEXT
5
9BB
100
AcDbEntity
8
05
100
AcDbText
62
4
6
CONTINUOUS
10
212.8137330000
20
17.2588190451
40
2.0000000000
1
A
51
15.0000000000
72
5
11
214.5280187143
21
17.2588190451
100
AcDbText
0
TEXT
5
9BC
100
AcDbEntity
8
05
100
AcDbText
62
4
6
CONTINUOUS
10
219.6512570000
20
17.2588190451
40
2.0000000000
1
Deckel neu
51
15.0000000000
72
5
11
233.8893522381
21
17.2588190451
100
AcDbText
0
TEXT
5
9BD
100
AcDbEntity
8
05
100
AcDbText
62
4
6
CONTINUOUS
10
252.6512570000
20
17.2588190451
40
2.0000000000
1
07.03.91
51
15.0000000000
72
5
11
263.7941141429
21
17.2588190451
100
AcDbText
0
TEXT
5
9BE
100
AcDbEntity
8
05
100
AcDbText
62
4
6
CONTINUOUS
10
265.5350100000
20
17.2588190451
40
2.0000000000
1
Juen
51
15.0000000000
72
5
11
271.1064385714
21
17.2588190451
100
AcDbText
0
TEXT
5
9BF
100
AcDbEntity
8
05
100
AcDbText
62
4
6
CONTINUOUS
10
212.8137330000
20
22.2588190451
40
2.0000000000
1
B
51
15.0000000000
72
5
11
214.3851615714
21
22.2588190451
100
AcDbText
0
TEXT
5
9C0
100
AcDbEntity
8
05
100
AcDbText
62
4
6
CONTINUOUS
10
219.6512570000
20
22.2588190451
40
2.0000000000
1
Zeichnung erneuern
51
15.0000000000
72
5
11
244.8417331905
21
22.2588190451
100
AcDbText
0
TEXT
5
9C1
100
AcDbEntity
8
05
100
AcDbText
62
4
6
CONTINUOUS
10
252.6512570000
20
22.2588190451
40
2.0000000000
1
30.01.92
51
15.0000000000
72
5
11
263.7941141429
21
22.2588190451
100
AcDbText
0
TEXT
5
9C2
100
AcDbEntity
8
05
100
AcDbText
62
4
6
CONTINUOUS
10
265.5350100000
20
22.2588190451
40
2.0000000000
1
Batlg.
51
15.0000000000
72
5
11
273.2492957143
21
22.2588190451
100
AcDbText
0
TEXT
5
9C3
100
AcDbEntity
8
05
100
AcDbText
62
4
6
CONTINUOUS
10
212.8137330000
20
27.2588190451
40
2.0000000000
1
C
51
15.0000000000
72
5
11
214.4803996667
21
27.2588190451
100
AcDbText
0
TEXT
5
9C4
100
AcDbEntity
8
05
100
AcDbText
62
4
6
CONTINUOUS
10
219.6512570000
20
27.2588190451
40
2.0000000000
1
UL/CSA Zeichen
51
15.0000000000
72
5
11
240.1750665238
21
27.2588190451
100
AcDbText
0
TEXT
5
9C5
100
AcDbEntity
8
05
100
AcDbText
62
4
6
CONTINUOUS
10
252.6512570000
20
27.2588190451
40
2.0000000000
1
27.09.95
51
15.0000000000
72
5
11
264.2226855714
21
27.2588190451
100
AcDbText
0
TEXT
5
9C6
100
AcDbEntity
8
05
100
AcDbText
62
4
6
CONTINUOUS
10
265.5350100000
20
27.2588190451
40
2.0000000000
1
Loretz
51
15.0000000000
72
5
11
273.5350100000
21
27.2588190451
100
AcDbText
0
TEXT
5
9C7
100
AcDbEntity
8
05
100
AcDbText
62
4
6
CONTINUOUS
10
212.8137330000
20
32.2588190451
40
2.0000000000
1
D
51
15.0000000000
72
5
11
214.6232568095
21
32.2588190451
100
AcDbText
0
TEXT
5
9C8
100
AcDbEntity
8
05
100
AcDbText
62
4
6
CONTINUOUS
10
219.6512570000
20
32.2588190451
40
2.0000000000
1
Beschriftung
51
15.0000000000
72
5
11
235.6988760476
21
32.2588190451
100
AcDbText
0
TEXT
5
9C9
100
AcDbEntity
8
05
100
AcDbText
62
4
6
CONTINUOUS
10
252.6512570000
20
32.2588190451
40
2.0000000000
1
28.08.97
51
15.0000000000
72
5
11
264.3655427143
21
32.2588190451
100
AcDbText
0
TEXT
5
9CA
100
AcDbEntity
8
05
100
AcDbText
62
4
6
CONTINUOUS
10
265.5350100000
20
32.2588190451
40
2.0000000000
1
Loretz
51
15.0000000000
72
5
11
273.5350100000
21
32.2588190451
100
AcDbText
0
TEXT
5
9CB
100
AcDbEntity
8
05
100
AcDbText
62
4
6
CONTINUOUS
10
212.8137330000
20
37.2588190451
40
2.0000000000
1
E
51
15.0000000000
72
5
11
214.2423044286
21
37.2588190451
100
AcDbText
0
TEXT
5
9CC
100
AcDbEntity
8
05
100
AcDbText
62
4
6
CONTINUOUS
10
219.6512570000
20
37.2588190451
40
2.0000000000
1
Verriegelungsblech
51
15.0000000000
72
5
11
243.9369712857
21
37.2588190451
100
AcDbText
0
TEXT
5
9CD
100
AcDbEntity
8
05
100
AcDbText
62
4
6
CONTINUOUS
10
252.6512570000
20
37.2588190451
40
2.0000000000
1
2002
51
15.0000000000
72
5
11
258.9369712857
21
37.2588190451
100
AcDbText
0
TEXT
5
9CE
100
AcDbEntity
8
05
100
AcDbText
62
4
6
CONTINUOUS
10
265.5350100000
20
37.2588190451
40
2.0000000000
1
Batlg
51
15.0000000000
72
5
11
272.1064385714
21
37.2588190451
100
AcDbText
0
TEXT
5
9CF
100
AcDbEntity
8
BEM1
100
AcDbText
62
3
6
CONTINUOUS
10
144.5679780000
20
76.8636060000
40
3.5000000000
1
(4.50 [0.177"])
50
90.0000000000
51
15.0000000000
72
5
11
144.5679780000
21
110.1136060000
100
AcDbText
0
TEXT
5
9D0
100
AcDbEntity
8
BEM1
100
AcDbText
62
3
6
CONTINUOUS
10
102.9175376667
20
68.9825800000
40
3.5000000000
1
%%c6.00 [0.236"]
51
15.0000000000
72
5
11
138.5842043334
21
68.9825800000
100
AcDbText
0
TEXT
5
9D1
100
AcDbEntity
8
BEM1
100
AcDbText
62
3
6
CONTINUOUS
10
103.1116116667
20
79.0614180000
40
3.5000000000
1
%%c3.80 [0.150"]
51
15.0000000000
72
5
11
137.7782783334
21
79.0614180000
100
AcDbText
0
TEXT
5
9D2
100
AcDbEntity
8
05
100
AcDbText
62
3
6
CONTINUOUS
10
73.8894510000
20
146.4803520000
40
4.0000000000
1
NL4MPR
72
5
11
92.4608795714
21
146.4803520000
100
AcDbText
0
TEXT
5
9D3
100
AcDbEntity
8
05
100
AcDbText
62
2
6
CONTINUOUS
10
342.1926636667
20
221.3321180000
40
1.6000000000
1
NRTL/C
72
5
11
349.6593303334
21
221.3321180000
100
AcDbText
0
TEXT
5
9D4
100
AcDbEntity
8
05
100
AcDbText
62
4
6
CONTINUOUS
10
349.7351190357
20
227.0918965000
40
1.5983850000
1
R
72
5
11
350.9909929643
21
227.0918965000
100
AcDbText
0
TEXT
5
9D5
100
AcDbEntity
8
BEM1
100
AcDbText
62
3
6
CONTINUOUS
10
176.5676250000
20
120.6691210000
40
3.5000000000
1
7.00 [0.276"]
51
15.0000000000
72
5
11
207.8176250000
21
120.6691210000
100
AcDbText
0
TEXT
5
9D6
100
AcDbEntity
8
07
100
AcDbText
62
3
6
CONTINUOUS
10
74.1666489048
20
222.6433150000
40
3.4000000000
1
LIECHTENSTEIN
72
5
11
107.3571250953
21
222.6433150000
100
AcDbText
0
ENDSEC
0
SECTION
2
OBJECTS
0
DICTIONARY
5
9D7
100
AcDbDictionary
3
ACAD_GROUP
350
9D8
3
ACAD_MLINESTYLE
350
9D9
0
DICTIONARY
5
9D8
102
{ACAD_REACTORS
330
9D7
102
}
100
AcDbDictionary
0
DICTIONARY
5
9D9
102
{ACAD_REACTORS
330
9D7
102
}
100
AcDbDictionary
3
STANDARD
350
9DA
0
MLINESTYLE
5
9DA
102
{ACAD_REACTORS
330
9D9
102
}
100
AcDbMlineStyle
2
STANDARD
70
0
3

62
256
51
90.0
52
90.0
71
2
49
0.5
62
256
6
BYLAYER
49
-0.5
62
256
6
BYLAYER
0
ENDSEC
0
EOF
